  0
SECTION
  2
HEADER
  9
$ACADVER
  1
AC1014
  9
$ACADMAINTVER
 70
               0
  9
$DWGCODEPAGE
  3
ANSI_932
  9
$INSBASE
 10
0.0
 20
0.0
 30
0.0
  9
$EXTMIN
 10
0.0
 20
0.0
 30
0.0
  9
$EXTMAX
 10
891.00000000000091
 20
630.00000000000068
 30
0.0
  9
$LIMMIN
 10
0.0
 20
0.0
  9
$LIMMAX
 10
891.00000000000091
 20
630.00000000000068
  9
$ORTHOMODE
 70
               0
  9
$REGENMODE
 70
               1
  9
$FILLMODE
 70
               1
  9
$QTEXTMODE
 70
               0
  9
$MIRRTEXT
 70
               1
  9
$DRAGMODE
 70
               2
  9
$LTSCALE
 40
3.0000000000000031
  9
$OSMODE
 70
               0
  9
$ATTMODE
 70
               1
  9
$TEXTSIZE
 40
0.2
  9
$TRACEWID
 40
0.05
  9
$TEXTSTYLE
  7
Standard
  9
$CLAYER
  8
0
  9
$CELTYPE
  6
Continuous
  9
$CECOLOR
 62
             256
  9
$CELTSCALE
 40
1.0
  9
$DELOBJ
 70
               1
  9
$DISPSILH
 70
               0
  9
$DIMSCALE
 40
1.0
  9
$DIMASZ
 40
0.18
  9
$DIMEXO
 40
0.0625
  9
$DIMDLI
 40
0.38
  9
$DIMRND
 40
0.0
  9
$DIMDLE
 40
0.0
  9
$DIMEXE
 40
0.18
  9
$DIMTP
 40
0.0
  9
$DIMTM
 40
0.0
  9
$DIMTXT
 40
0.18
  9
$DIMCEN
 40
0.09
  9
$DIMTSZ
 40
0.0
  9
$DIMTOL
 70
               0
  9
$DIMLIM
 70
               0
  9
$DIMTIH
 70
               1
  9
$DIMTOH
 70
               1
  9
$DIMSE1
 70
               0
  9
$DIMSE2
 70
               0
  9
$DIMTAD
 70
               0
  9
$DIMZIN
 70
               0
  9
$DIMBLK
  1

  9
$DIMASO
 70
               1
  9
$DIMSHO
 70
               1
  9
$DIMPOST
  1

  9
$DIMAPOST
  1

  9
$DIMALT
 70
               0
  9
$DIMALTD
 70
               2
  9
$DIMALTF
 40
25.399999999999999
  9
$DIMLFAC
 40
1.0
  9
$DIMTOFL
 70
               0
  9
$DIMTVP
 40
0.0
  9
$DIMTIX
 70
               0
  9
$DIMSOXD
 70
               0
  9
$DIMSAH
 70
               0
  9
$DIMBLK1
  1

  9
$DIMBLK2
  1

  9
$DIMSTYLE
  2
Standard
  9
$DIMCLRD
 70
               0
  9
$DIMCLRE
 70
               0
  9
$DIMCLRT
 70
               0
  9
$DIMTFAC
 40
1.0
  9
$DIMGAP
 40
0.09
  9
$DIMJUST
 70
               0
  9
$DIMSD1
 70
               0
  9
$DIMSD2
 70
               0
  9
$DIMTOLJ
 70
               1
  9
$DIMTZIN
 70
               0
  9
$DIMALTZ
 70
               0
  9
$DIMALTTZ
 70
               0
  9
$DIMFIT
 70
               3
  9
$DIMUPT
 70
               0
  9
$DIMUNIT
 70
               2
  9
$DIMDEC
 70
               4
  9
$DIMTDEC
 70
               4
  9
$DIMALTU
 70
               2
  9
$DIMALTTD
 70
               2
  9
$DIMTXSTY
  7
Standard
  9
$DIMAUNIT
 70
               0
  9
$LUNITS
 70
               2
  9
$LUPREC
 70
               4
  9
$SKETCHINC
 40
0.1
  9
$FILLETRAD
 40
0.0
  9
$AUNITS
 70
               0
  9
$AUPREC
 70
               0
  9
$MENU
  1
acad
  9
$ELEVATION
 40
0.0
  9
$PELEVATION
 40
0.0
  9
$THICKNESS
 40
0.0
  9
$LIMCHECK
 70
               0
  9
$BLIPMODE
 70
               1
  9
$CHAMFERA
 40
0.0
  9
$CHAMFERB
 40
0.0
  9
$CHAMFERC
 40
0.0
  9
$CHAMFERD
 40
0.0
  9
$SKPOLY
 70
               0
  9
$TDCREATE
 40
0.000000000
  9
$TDUPDATE
 40
0.000000000
  9
$TDINDWG
 40
0.0000000000
  9
$TDUSRTIMER
 40
0.0000000000
  9
$USRTIMER
 70
               1
  9
$ANGBASE
 50
0.0
  9
$ANGDIR
 70
               0
  9
$PDMODE
 70
               0
  9
$PDSIZE
 40
0.0
  9
$PLINEWID
 40
0.0
  9
$COORDS
 70
               0
  9
$SPLFRAME
 70
               0
  9
$SPLINETYPE
 70
               6
  9
$SPLINESEGS
 70
               8
  9
$ATTDIA
 70
               0
  9
$ATTREQ
 70
               1
  9
$HANDLING
 70
               1
  9
$HANDSEED
  5
190
  9
$SURFTAB1
 70
               6
  9
$SURFTAB2
 70
               6
  9
$SURFTYPE
 70
               6
  9
$SURFU
 70
               6
  9
$SURFV
 70
               6
  9
$UCSNAME
  2

  9
$UCSORG
 10
0.0
 20
0.0
 30
0.0
  9
$UCSXDIR
 10
1.0
 20
0.0
 30
0.0
  9
$UCSYDIR
 10
0.0
 20
1.0
 30
0.0
  9
$PUCSNAME
  2

  9
$PUCSORG
 10
0.0
 20
0.0
 30
0.0
  9
$PUCSXDIR
 10
1.0
 20
0.0
 30
0.0
  9
$PUCSYDIR
 10
0.0
 20
1.0
 30
0.0
  9
$USERI1
 70
               0
  9
$USERI2
 70
               0
  9
$USERI3
 70
               0
  9
$USERI4
 70
               0
  9
$USERI5
 70
               0
  9
$USERR1
 40
0.0
  9
$USERR2
 40
0.0
  9
$USERR3
 40
0.0
  9
$USERR4
 40
0.0
  9
$USERR5
 40
0.0
  9
$WORLDVIEW
 70
               1
  9
$SHADEDGE
 70
               3
  9
$SHADEDIF
 70
              70
  9
$TILEMODE
 70
               1
  9
$MAXACTVP
 70
              16
  9
$PINSBASE
 10
0.0
 20
0.0
 30
0.0
  9
$PLIMCHECK
 70
               0
  9
$PEXTMIN
 10
1.0000000000000000E+20
 20
1.0000000000000000E+20
 30
1.0000000000000000E+20
  9
$PEXTMAX
 10
-1.0000000000000000E+20
 20
-1.0000000000000000E+20
 30
-1.0000000000000000E+20
  9
$PLIMMIN
 10
0.0
 20
0.0
  9
$PLIMMAX
 10
12.0
 20
9.0
  9
$UNITMODE
 70
               0
  9
$VISRETAIN
 70
               0
  9
$PLINEGEN
 70
               1
  9
$PSLTSCALE
 70
               0
  9
$TREEDEPTH
 70
            3020
  9
$PICKSTYLE
 70
               1
  9
$CMLSTYLE
  2
Standard
  9
$CMLJUST
 70
               0
  9
$CMLSCALE
 40
1.0
  9
$PROXYGRAPHICS
 70
               0
  9
$MEASUREMENT
 70
               0
  0
ENDSEC
  0
SECTION
  2
CLASSES
  0
CLASS
  1
LWPOLYLINE
  2
AcDbPolyline
  3
"AutoCAD"
 90
        0
280
               0
281
               1
  0
CLASS
  1
IMAGE
  2
AcDbRasterImage
  3
ISM
 90
      127
280
               0
281
               1
  0
CLASS
  1
OLE2FRAME
  2
AcDbOle2Frame
  3
""
 90
        0
280
               0
281
               1
  0
CLASS
  1
HATCH
  2
AcDbHatch
  3
"ACAD_SEDONA"
 90
        0
280
               0
281
               1
  0
CLASS
  1
DICTIONARYVAR
  2
AcDbDictionaryVar
  3
"AutoCAD"
 90
        0
280
               0
281
               0
  0
CLASS
  1
RASTERVARIABLES
  2
AcDbRasterVariables
  3
ISM
 90
        0
280
               0
281
               0
  0
CLASS
  1
IMAGEDEF
  2
AcDbRasterImageDef
  3
ISM
 90
        0
280
               0
281
               0
  0
CLASS
  1
IMAGEDEF_REACTOR
  2
AcDbRasterImageDefReactor
  3
ISM
 90
        1
280
               0
281
               0
  0
CLASS
  1
IDBUFFER
  2
AcDbIdBuffer
  3
"Acad"
 90
        0
280
               0
281
               0
  0
CLASS
  1
SPATIAL_FILTER
  2
AcDbSpatialFilter
  3
"Acad"
 90
        0
280
               0
281
               0
  0
CLASS
  1
XRECORD
  2
AcDbXrecord
  3
"<Built In>"
 90
        0
280
               0
281
               0
  0
CLASS
  1
SORTENTSTABLE
  2
AcDbSortentsTable
  3
"AutoCAD"
 90
        0
280
               0
281
               0
  0
CLASS
  1
LAYER_INDEX
  2
AcDbLayerIndex
  3
"Acad"
 90
        0
280
               0
281
               0
  0
CLASS
  1
SPATIAL_INDEX
  2
AcDbSpatialIndex
  3
"Acad"
 90
        0
280
               0
281
               0
  0
CLASS
  1
OBJECT_PTR
  2
CAseDLPNTableRecord
  3
"ASE-LPNTableRecord"
 90
        1
280
               0
281
               0
  0
CLASS
  1
LAYOUT
  2
AcDbLayout
  3
"AutoCAD 2000"
 90
        0
280
               0
281
               0
  0
CLASS
  1
PLOTSETTINGS
  2
AcDbPlotSettings
  3
"AutoCAD 2000"
 90
        0
280
               0
281
               0
  0
CLASS
  1
ACDBDICTIONARYWDFLT
  2
AcDbDictionaryWithDefault
  3
"AutoCAD 2000"
 90
        0
280
               0
281
               0
  0
CLASS
  1
ACDBPLACEHOLDER
  2
AcDbPlaceHolder
  3
"AutoCAD 2000"
 90
        0
280
               0
281
               0
  0
CLASS
  1
VBA_PROJECT
  2
AcDbVbaProject
  3
"acadvba"
 90
        0
280
               0
281
               0
  0
CLASS
  1
WIPEOUT
  2
AcDbWipeout
  3
WipeOut|AutoCAD Express Tool|expresstools@autodesk.com
 90
      127
280
               0
281
               1
  0
CLASS
  1
WIPEOUTVARIABLES
  2
AcDbWipeoutVariables
  3
WipeOut|AutoCAD Express Tool|expresstools@autodesk.com
 90
        0
280
               0
281
               0
  0
CLASS
  1
RTEXT
  2
RText
  3
RText|AutoCAD Express Tool|expresstools@autodesk.com
 90
        0
280
               0
281
               1
  0
CLASS
  1
ARCALIGNEDTEXT
  2
AcDbArcAlignedText
  3
ATEXT|AutoCAD Express Tool|expresstools@autodesk.com
 90
        0
280
               0
281
               1
  0
ENDSEC
  0
SECTION
  2
TABLES
  0
TABLE
  2
VPORT
  5
7
100
AcDbSymbolTable
 70
               1
  0
VPORT
  5
15
100
AcDbSymbolTableRecord
100
AcDbViewportTableRecord
  2
*ACTIVE
 70
               0
 10
0.0
 20
0.0
 11
1.0
 21
1.0
 12
445.50000000000045
 22
315.00000000000034
 13
0.0
 23
0.0
 14
10.0
 24
10.0
 15
10.0
 25
10.0
 16
0.0
 26
0.0
 36
1.0
 17
0.0
 27
0.0
 37
0.0
 40
630.00000000000068
 41
1.4142857142857141
 42
50.0
 43
0.0
 44
0.0
 50
0.0
 51
0.0
 71
               0
 72
             100
 73
               1
 74
               1
 75
               0
 76
               0
 77
               0
 78
               0
  0
ENDTAB
  0
TABLE
  2
LTYPE
  5
4
100
AcDbSymbolTable
 70
              24
  0
LTYPE
  5
11
100
AcDbSymbolTableRecord
100
AcDbLinetypeTableRecord
  2
ByBlock
 70
              64
  3

 72
              65
 73
               0
 40
0.0
  0
LTYPE
  5
12
100
AcDbSymbolTableRecord
100
AcDbLinetypeTableRecord
  2
ByLayer
 70
              64
  3

 72
              65
 73
               0
 40
0.0
  0
LTYPE
  5
13
100
AcDbSymbolTableRecord
100
AcDbLinetypeTableRecord
  2
Continuous
 70
              64
  3
Solid line
 72
              65
 73
               0
 40
0.0
  0
LTYPE
  5
1D
100
AcDbSymbolTableRecord
100
AcDbLinetypeTableRecord
  2
DOT
 70
              64
  3
Dot . . . . . . . . . . . . . . . . . . . . . .
 72
              65
 73
               2
 40
6.3499999999999996
 49
0.35
 74
               0
 49
-6.0
 74
               0
  0
LTYPE
  5
1E
100
AcDbSymbolTableRecord
100
AcDbLinetypeTableRecord
  2
DASHED
 70
              64
  3
Dashed __ __ __ __ __ __ __ __ __ __ __ __ __ _
 72
              65
 73
               2
 40
12.699999999999999
 49
6.3499999999999996
 74
               0
 49
-6.3499999999999996
 74
               0
  0
LTYPE
  5
1F
100
AcDbSymbolTableRecord
100
AcDbLinetypeTableRecord
  2
DASHDOT
 70
              64
  3
Dash dot __ . __ . __ . __ . __ . __ . __ . __
 72
              65
 73
               4
 40
25.399999999999999
 49
12.699999999999999
 74
               0
 49
-6.0
 74
               0
 49
0.7
 74
               0
 49
-6.0
 74
               0
  0
LTYPE
  5
20
100
AcDbSymbolTableRecord
100
AcDbLinetypeTableRecord
  2
DIVIDE
 70
              64
  3
Divide ____ . . ____ . . ____ . . ____ . . ____
 72
              65
 73
               6
 40
31.75
 49
12.699999999999999
 74
               0
 49
-6.0
 74
               0
 49
0.875
 74
               0
 49
-6.0
 74
               0
 49
0.875
 74
               0
 49
-6.0
 74
               0
  0
LTYPE
  5
21
100
AcDbSymbolTableRecord
100
AcDbLinetypeTableRecord
  2
HIDDEN
 70
              64
  3
Hidden __ __ __ __ __ __ __ __ __ __ __ __ __ _
 72
              65
 73
               2
 40
9.5250000000000004
 49
6.3499999999999996
 74
               0
 49
-3.1749999999999998
 74
               0
  0
LTYPE
  5
22
100
AcDbSymbolTableRecord
100
AcDbLinetypeTableRecord
  2
CENTER
 70
              64
  3
Center ____ _ ____ _ ____ _ ____ _ ____ _ ____
 72
              65
 73
               4
 40
50.799999999999997
 49
31.75
 74
               0
 49
-6.3499999999999996
 74
               0
 49
6.3499999999999996
 74
               0
 49
-6.3499999999999996
 74
               0
  0
LTYPE
  5
23
100
AcDbSymbolTableRecord
100
AcDbLinetypeTableRecord
  2
PHANTOM
 70
              64
  3
Phantom ______  __  __  ______  __  __  ______
 72
              65
 73
               6
 40
63.5
 49
31.75
 74
               0
 49
-6.3499999999999996
 74
               0
 49
6.3499999999999996
 74
               0
 49
-6.3499999999999996
 74
               0
 49
6.3499999999999996
 74
               0
 49
-6.3499999999999996
 74
               0
  0
LTYPE
  5
24
100
AcDbSymbolTableRecord
100
AcDbLinetypeTableRecord
  2
ACAD_ISO02W100
 70
              64
  3
ISO dash __ __ __ __ __ __ __ __ __ __ __ __ __
 72
              65
 73
               2
 40
15.0
 49
12.0
 74
               0
 49
-3.0
 74
               0
  0
LTYPE
  5
25
100
AcDbSymbolTableRecord
100
AcDbLinetypeTableRecord
  2
ACAD_ISO03W100
 70
              64
  3
ISO dash space __ __ __ __ __ __ __ __ __ __ __ __ __ __
 72
              65
 73
               2
 40
30.0
 49
12.0
 74
               0
 49
-18.0
 74
               0
  0
LTYPE
  5
26
100
AcDbSymbolTableRecord
100
AcDbLinetypeTableRecord
  2
ACAD_ISO04W100
 70
              64
  3
ISO long-dash dot ____ . ____ . ____ . ____ . _
 72
              65
 73
               4
 40
30.0
 49
24.0
 74
               0
 49
-3.0
 74
               0
 49
0.0
 74
               0
 49
-3.0
 74
               0
  0
LTYPE
  5
27
100
AcDbSymbolTableRecord
100
AcDbLinetypeTableRecord
  2
ACAD_ISO05W100
 70
              64
  3
ISO long-dash double-dot ____ .. ____ .. ____ .
 72
              65
 73
               6
 40
33.0
 49
24.0
 74
               0
 49
-3.0
 74
               0
 49
0.0
 74
               0
 49
-3.0
 74
               0
 49
0.0
 74
               0
 49
-3.0
 74
               0
  0
LTYPE
  5
28
100
AcDbSymbolTableRecord
100
AcDbLinetypeTableRecord
  2
ACAD_ISO06W100
 70
              64
  3
ISO long-dash triple-dot ____ ... ____ ... ____
 72
              65
 73
               8
 40
36.0
 49
24.0
 74
               0
 49
-3.0
 74
               0
 49
0.0
 74
               0
 49
-3.0
 74
               0
 49
0.0
 74
               0
 49
-3.0
 74
               0
 49
0.0
 74
               0
 49
-3.0
 74
               0
  0
LTYPE
  5
29
100
AcDbSymbolTableRecord
100
AcDbLinetypeTableRecord
  2
ACAD_ISO07W100
 70
              64
  3
ISO dot . . . . . . . . . . . . . . . . . . . .
 72
              65
 73
               2
 40
3.0
 49
0.0
 74
               0
 49
-3.0
 74
               0
  0
LTYPE
  5
2A
100
AcDbSymbolTableRecord
100
AcDbLinetypeTableRecord
  2
ACAD_ISO08W100
 70
              64
  3
ISO long-dash short-dash ____ __ ____ __ ____ _
 72
              65
 73
               4
 40
36.0
 49
24.0
 74
               0
 49
-3.0
 74
               0
 49
6.0
 74
               0
 49
-3.0
 74
               0
  0
LTYPE
  5
2B
100
AcDbSymbolTableRecord
100
AcDbLinetypeTableRecord
  2
ACAD_ISO09W100
 70
              64
  3
ISO long-dash double-short-dash ____ __ __ ____
 72
              65
 73
               6
 40
45.0
 49
24.0
 74
               0
 49
-3.0
 74
               0
 49
6.0
 74
               0
 49
-3.0
 74
               0
 49
6.0
 74
               0
 49
-3.0
 74
               0
  0
LTYPE
  5
2C
100
AcDbSymbolTableRecord
100
AcDbLinetypeTableRecord
  2
ACAD_ISO10W100
 70
              64
  3
ISO dash dot __ . __ . __ . __ . __ . __ . __ .
 72
              65
 73
               4
 40
18.0
 49
12.0
 74
               0
 49
-3.0
 74
               0
 49
0.0
 74
               0
 49
-3.0
 74
               0
  0
LTYPE
  5
2D
100
AcDbSymbolTableRecord
100
AcDbLinetypeTableRecord
  2
ACAD_ISO11W100
 70
              64
  3
ISO double-dash dot __ __ . __ __ . __ __ . __ 
 72
              65
 73
               6
 40
33.0
 49
12.0
 74
               0
 49
-3.0
 74
               0
 49
12.0
 74
               0
 49
-3.0
 74
               0
 49
0.0
 74
               0
 49
-3.0
 74
               0
  0
LTYPE
  5
2E
100
AcDbSymbolTableRecord
100
AcDbLinetypeTableRecord
  2
ACAD_ISO12W100
 70
              64
  3
ISO dash double-dot __ . . __ . . __ . . __ . .
 72
              65
 73
               6
 40
21.0
 49
12.0
 74
               0
 49
-3.0
 74
               0
 49
0.0
 74
               0
 49
-3.0
 74
               0
 49
0.0
 74
               0
 49
-3.0
 74
               0
  0
LTYPE
  5
2F
100
AcDbSymbolTableRecord
100
AcDbLinetypeTableRecord
  2
ACAD_ISO13W100
 70
              64
  3
ISO double-dash double-dot __ __ . . __ __ . . 
 72
              65
 73
               8
 40
36.0
 49
12.0
 74
               0
 49
-3.0
 74
               0
 49
12.0
 74
               0
 49
-3.0
 74
               0
 49
0.0
 74
               0
 49
-3.0
 74
               0
 49
0.0
 74
               0
 49
-3.0
 74
               0
  0
LTYPE
  5
30
100
AcDbSymbolTableRecord
100
AcDbLinetypeTableRecord
  2
ACAD_ISO14W100
 70
              64
  3
ISO dash triple-dot __ . . . __ . . . __ . . . 
 72
              65
 73
               8
 40
24.0
 49
12.0
 74
               0
 49
-3.0
 74
               0
 49
0.0
 74
               0
 49
-3.0
 74
               0
 49
0.0
 74
               0
 49
-3.0
 74
               0
 49
0.0
 74
               0
 49
-3.0
 74
               0
  0
LTYPE
  5
31
100
AcDbSymbolTableRecord
100
AcDbLinetypeTableRecord
  2
ACAD_ISO15W100
 70
              64
  3
ISO double-dash double-dot __ __ . . __ __ . . 
 72
              65
 73
              10
 40
39.0
 49
12.0
 74
               0
 49
-3.0
 74
               0
 49
12.0
 74
               0
 49
-3.0
 74
               0
 49
0.0
 74
               0
 49
-3.0
 74
               0
 49
0.0
 74
               0
 49
-3.0
 74
               0
 49
0.0
 74
               0
 49
-3.0
 74
               0
  0
ENDTAB
  0
TABLE
  2
LAYER
  5
2
100
AcDbSymbolTable
 70
              16
  0
LAYER
  5
14
100
AcDbSymbolTableRecord
100
AcDbLayerTableRecord
  2
0
 70
               0
 62
               7
  6
Continuous
  0
LAYER
  5
35
100
AcDbSymbolTableRecord
100
AcDbLayerTableRecord
  2
Layer00001
 70
               0
 62
               7
  6
Continuous
  0
LAYER
  5
36
100
AcDbSymbolTableRecord
100
AcDbLayerTableRecord
  2
Layer00002
 70
               0
 62
               7
  6
Continuous
  0
LAYER
  5
37
100
AcDbSymbolTableRecord
100
AcDbLayerTableRecord
  2
Layer00003
 70
               0
 62
               7
  6
Continuous
  0
LAYER
  5
38
100
AcDbSymbolTableRecord
100
AcDbLayerTableRecord
  2
Layer00004
 70
               0
 62
               7
  6
Continuous
  0
LAYER
  5
39
100
AcDbSymbolTableRecord
100
AcDbLayerTableRecord
  2
Layer00005
 70
               0
 62
               7
  6
Continuous
  0
LAYER
  5
3A
100
AcDbSymbolTableRecord
100
AcDbLayerTableRecord
  2
Layer00006
 70
               0
 62
               7
  6
Continuous
  0
LAYER
  5
3B
100
AcDbSymbolTableRecord
100
AcDbLayerTableRecord
  2
Layer00007
 70
               0
 62
               7
  6
Continuous
  0
LAYER
  5
3C
100
AcDbSymbolTableRecord
100
AcDbLayerTableRecord
  2
Layer00008
 70
               0
 62
               7
  6
Continuous
  0
LAYER
  5
3D
100
AcDbSymbolTableRecord
100
AcDbLayerTableRecord
  2
Layer00009
 70
               0
 62
               7
  6
Continuous
  0
LAYER
  5
3E
100
AcDbSymbolTableRecord
100
AcDbLayerTableRecord
  2
Layer00010
 70
               0
 62
               7
  6
Continuous
  0
LAYER
  5
3F
100
AcDbSymbolTableRecord
100
AcDbLayerTableRecord
  2
Layer00011
 70
               0
 62
               7
  6
Continuous
  0
LAYER
  5
40
100
AcDbSymbolTableRecord
100
AcDbLayerTableRecord
  2
Layer00012
 70
               0
 62
               7
  6
Continuous
  0
LAYER
  5
41
100
AcDbSymbolTableRecord
100
AcDbLayerTableRecord
  2
Layer00013
 70
               0
 62
               7
  6
Continuous
  0
LAYER
  5
42
100
AcDbSymbolTableRecord
100
AcDbLayerTableRecord
  2
Layer00014
 70
               0
 62
               7
  6
Continuous
  0
LAYER
  5
43
100
AcDbSymbolTableRecord
100
AcDbLayerTableRecord
  2
Layer00015
 70
               0
 62
               7
  6
Continuous
  0
ENDTAB
  0
TABLE
  2
STYLE
  5
3
100
AcDbSymbolTable
 70
               4
  0
STYLE
  5
17
100
AcDbSymbolTableRecord
100
AcDbTextStyleTableRecord
  2
Standard
 70
               0
 40
0.0
 41
1.0
 50
0.0
 71
               0
 42
0.0
  3
txt.shx
  4
bigfont.shx
  0
STYLE
  5
32
100
AcDbSymbolTableRecord
100
AcDbTextStyleTableRecord
  2
STANDARD_T
 70
               4
 40
0.0
 41
1.0
 50
0.0
 71
               0
 42
0.0
  3
txt.shx
  4
bigfont.shx
  0
STYLE
  5
33
100
AcDbSymbolTableRecord
100
AcDbTextStyleTableRecord
  2
FontTableH_0
 70
               0
 40
0.0
 41
1.0
 50
0.0
 71
               0
 42
0.0
  3
MS Gothic.ttf
  4

1001
ACAD
1000
MS Gothic
1071
    32817
  0
STYLE
  5
34
100
AcDbSymbolTableRecord
100
AcDbTextStyleTableRecord
  2
FontTableV_0
 70
               0
 40
0.0
 41
1.0
 50
0.0
 71
               0
 42
0.0
  3
@MS Gothic.ttf
  4

1001
ACAD
1000
@MS Gothic
1071
    32817
  0
ENDTAB
  0
TABLE
  2
VIEW
  5
5
100
AcDbSymbolTable
 70
               0
  0
ENDTAB
  0
TABLE
  2
UCS
  5
6
100
AcDbSymbolTable
 70
               0
  0
ENDTAB
  0
TABLE
  2
APPID
  5
8
100
AcDbSymbolTable
 70
               1
  0
APPID
  5
16
100
AcDbSymbolTableRecord
100
AcDbRegAppTableRecord
  2
ACAD
 70
               0
  0
ENDTAB
  0
TABLE
  2
DIMSTYLE
  5
9
100
AcDbSymbolTable
 70
               1
  0
DIMSTYLE
105
18
100
AcDbSymbolTableRecord
100
AcDbDimStyleTableRecord
  2
Standard
 70
               0
  3

  4

  5

  6

  7

 40
1.0
 41
0.18
 42
0.0625
 43
0.38
 44
0.18
 45
0.0
 46
0.0
 47
0.0
 48
0.0
 71
               0
 72
               0
 73
               1
 74
               1
 75
               0
 76
               0
 77
               0
 78
               0
140
0.18
141
0.09
142
0.0
143
25.399999999999999
144
1.0
145
0.0
146
1.0
147
0.09
170
               0
171
               2
172
               0
173
               0
174
               0
175
               0
176
               0
177
               0
178
               0
270
               2
271
               4
272
               4
273
               2
274
               2
275
               0
280
               0
281
               0
282
               0
283
               1
284
               0
285
               0
286
               0
287
               0
288
               0
340
17
  0
ENDTAB
  0
TABLE
  2
BLOCK_RECORD
  5
1
100
AcDbSymbolTable
 70
               0
  0
BLOCK_RECORD
  5
A
100
AcDbSymbolTableRecord
100
AcDbBlockTableRecord
  2
*MODEL_SPACE
  0
BLOCK_RECORD
  5
B
100
AcDbSymbolTableRecord
100
AcDbBlockTableRecord
  2
*PAPER_SPACE
  0
ENDTAB
  0
ENDSEC
  0
SECTION
  2
BLOCKS
  0
BLOCK
  5
D
100
AcDbEntity
  8
0
100
AcDbBlockBegin
  2
*MODEL_SPACE
 70
               0
 10
0.0
 20
0.0
 30
0.0
  3
*MODEL_SPACE
  1

  0
ENDBLK
  5
E
100
AcDbEntity
  8
0
100
AcDbBlockEnd
  0
BLOCK
  5
F
100
AcDbEntity
 67
               1
  8
0
100
AcDbBlockBegin
  2
*PAPER_SPACE
 70
               0
 10
0.0
 20
0.0
 30
0.0
  3
*PAPER_SPACE
  1

  0
ENDBLK
  5
10
100
AcDbEntity
 67
               1
  8
0
100
AcDbBlockEnd
  0
ENDSEC
  0
SECTION
  2
ENTITIES
  0
LINE
  5
44
100
AcDbEntity
  8
0
  6
Continuous
 62
               3
100
AcDbLine
 10
172.82951660242867
 20
298.40290808494535
 30
0.0
 11
526.32951660242884
 21
298.40290808494535
 31
0.0
  0
LINE
  5
45
100
AcDbEntity
  8
0
  6
Continuous
 62
               2
100
AcDbLine
 10
532.82951660242884
 20
318.40291191738527
 30
0.0
 11
532.82951660242884
 21
279.10870810581036
 31
0.0
  0
LINE
  5
46
100
AcDbEntity
  8
0
  6
Continuous
 62
               2
100
AcDbLine
 10
527.82951660242884
 20
317.90290808494535
 30
0.0
 11
527.82951660242884
 21
107.90290808494521
 31
0.0
  0
LINE
  5
47
100
AcDbEntity
  8
0
  6
Continuous
 62
               3
100
AcDbLine
 10
526.32951660242884
 20
298.40290808494535
 30
0.0
 11
526.32951660242884
 21
316.40290808494535
 31
0.0
  0
LINE
  5
48
100
AcDbEntity
  8
0
  6
Continuous
 62
               6
100
AcDbLine
 10
521.72951669779627
 20
298.40290808494535
 30
0.0
 11
480.92951650706124
 21
298.40290808494535
 31
0.0
  0
LINE
  5
49
100
AcDbEntity
  8
0
  6
Continuous
 62
               6
100
AcDbLine
 10
476.32951660242867
 20
293.80290818031267
 30
0.0
 11
476.32951660242867
 21
278.40290808494512
 31
0.0
  0
LINE
  5
4A
100
AcDbEntity
  8
0
  6
Continuous
 62
               6
100
AcDbLine
 10
476.32951660242867
 20
278.40290808494512
 30
0.0
 11
478.62951655474495
 21
278.40290808494512
 31
0.0
  0
LINE
  5
4B
100
AcDbEntity
  8
0
  6
Continuous
 62
               6
100
AcDbLine
 10
478.62951655474495
 20
278.40290808494512
 30
0.0
 11
478.62951655474495
 21
293.80290818031267
 31
0.0
  0
LINE
  5
4C
100
AcDbEntity
  8
0
  6
Continuous
 62
               6
100
AcDbLine
 10
480.92951650706124
 20
296.10290813262907
 30
0.0
 11
521.72951669779627
 21
296.10290813262907
 31
0.0
  0
LINE
  5
4D
100
AcDbEntity
  8
0
  6
Continuous
 62
               6
100
AcDbLine
 10
524.02951665011255
 20
293.80290818031267
 30
0.0
 11
524.02951665011255
 21
203.00290798957761
 31
0.0
  0
LINE
  5
4E
100
AcDbEntity
  8
0
  6
Continuous
 62
               6
100
AcDbLine
 10
521.72951669779627
 20
200.70290803726144
 30
0.0
 11
480.92951650706124
 21
200.70290803726144
 31
0.0
  0
LINE
  5
4F
100
AcDbEntity
  8
0
  6
Continuous
 62
               6
100
AcDbLine
 10
478.62951655474495
 20
203.00290798957761
 30
0.0
 11
478.62951655474495
 21
218.4029080849451
 31
0.0
  0
LINE
  5
50
100
AcDbEntity
  8
0
  6
Continuous
 62
               6
100
AcDbLine
 10
478.62951655474495
 20
218.4029080849451
 30
0.0
 11
476.32951660242867
 21
218.4029080849451
 31
0.0
  0
LINE
  5
51
100
AcDbEntity
  8
0
  6
Continuous
 62
               6
100
AcDbLine
 10
476.32951660242867
 20
218.4029080849451
 30
0.0
 11
476.32951660242867
 21
203.00290798957761
 31
0.0
  0
LINE
  5
52
100
AcDbEntity
  8
0
  6
Continuous
 62
               6
100
AcDbLine
 10
480.92951650706124
 20
198.4029080849451
 30
0.0
 11
521.72951669779627
 21
198.4029080849451
 31
0.0
  0
LINE
  5
53
100
AcDbEntity
  8
0
  6
Continuous
 62
               6
100
AcDbLine
 10
526.32951660242884
 20
203.00290798957761
 30
0.0
 11
526.32951660242884
 21
293.80290818031267
 31
0.0
  0
LINE
  5
54
100
AcDbEntity
  8
0
  6
Continuous
 62
               4
100
AcDbLine
 10
557.82951660242884
 20
324.40290808494524
 30
0.0
 11
557.82951660242884
 21
407.40290808494535
 31
0.0
  0
LINE
  5
55
100
AcDbEntity
  8
0
  6
Continuous
 62
               4
100
AcDbLine
 10
532.82951660242884
 20
324.40290808494524
 30
0.0
 11
532.82951660242884
 21
345.40290808494535
 31
0.0
  0
LINE
  5
56
100
AcDbEntity
  8
0
  6
Continuous
 62
               4
100
AcDbLine
 10
557.82955322352245
 20
342.40291191738538
 30
0.0
 11
532.82951660242884
 21
342.40290808494535
 31
0.0
  0
LINE
  5
57
100
AcDbEntity
  8
0
  6
Continuous
 62
               4
100
AcDbLine
 10
562.2295166024287
 20
318.40291191738527
 30
0.0
 11
581.82951660242929
 21
318.40291191738527
 31
0.0
  0
LINE
  5
58
100
AcDbEntity
  8
0
  6
Continuous
 62
               4
100
AcDbLine
 10
538.12372041400363
 20
278.40291191738538
 30
0.0
 11
581.82951660242929
 21
278.40291191738538
 31
0.0
  0
LINE
  5
59
100
AcDbEntity
  8
0
  6
Continuous
 62
               4
100
AcDbLine
 10
578.82951660242884
 20
318.40291191738527
 30
0.0
 11
578.82951660242884
 21
278.40291191738538
 31
0.0
  0
LINE
  5
5A
100
AcDbEntity
  8
0
  6
Continuous
 62
               4
100
AcDbLine
 10
602.82951660242929
 20
335.13067558227101
 30
0.0
 11
694.62398166809999
 21
335.13067558227101
 31
0.0
  0
LINE
  5
5B
100
AcDbEntity
  8
0
  6
Continuous
 62
               6
100
AcDbLine
 10
476.32950442138605
 20
298.40290808494535
 30
0.0
 11
476.32951660242867
 21
198.4029080849451
 31
0.0
  0
LINE
  5
5C
100
AcDbEntity
  8
0
  6
Continuous
 62
               6
100
AcDbLine
 10
172.82951660242867
 20
198.4029080849451
 30
0.0
 11
476.32951660242867
 21
198.4029080849451
 31
0.0
  0
LINE
  5
5D
100
AcDbEntity
  8
0
  6
Continuous
 62
               6
100
AcDbLine
 10
172.82951660242867
 20
218.4029080849451
 30
0.0
 11
476.32951660242867
 21
218.4029080849451
 31
0.0
  0
LINE
  5
5E
100
AcDbEntity
  8
0
  6
Continuous
 62
               6
100
AcDbLine
 10
172.82951660242867
 20
278.40290808494512
 30
0.0
 11
476.32951660242867
 21
278.40290808494512
 31
0.0
  0
LINE
  5
5F
100
AcDbEntity
  8
0
  6
DASHED
 62
               6
100
AcDbLine
 10
172.82951660242867
 20
296.1029080849454
 30
0.0
 11
476.32951660242867
 21
296.1029080849454
 31
0.0
  0
LINE
  5
60
100
AcDbEntity
  8
0
  6
DASHED
 62
               6
100
AcDbLine
 10
172.82951660242867
 20
200.70290808494511
 30
0.0
 11
476.32951660242867
 21
200.70290808494511
 31
0.0
  0
LINE
  5
61
100
AcDbEntity
  8
0
  6
Continuous
 62
               6
100
AcDbLine
 10
496.32951660242878
 20
198.4029080849451
 30
0.0
 11
466.32951660242878
 21
198.4029080849451
 31
0.0
  0
LINE
  5
62
100
AcDbEntity
  8
0
  6
Continuous
 62
               6
100
AcDbLine
 10
466.32951660242878
 20
198.4029080849451
 30
0.0
 11
466.32951660242878
 21
197.4029080849451
 31
0.0
  0
LINE
  5
63
100
AcDbEntity
  8
0
  6
Continuous
 62
               6
100
AcDbLine
 10
468.32951660242878
 20
195.4029080849451
 30
0.0
 11
489.32951660242878
 21
195.4029080849451
 31
0.0
  0
LINE
  5
64
100
AcDbEntity
  8
0
  6
Continuous
 62
               6
100
AcDbLine
 10
493.32951660242878
 20
191.4029080849451
 30
0.0
 11
493.32951660242878
 21
170.4029080849451
 31
0.0
  0
LINE
  5
65
100
AcDbEntity
  8
0
  6
Continuous
 62
               6
100
AcDbLine
 10
495.32951660242878
 20
168.4029080849451
 30
0.0
 11
496.32951660242878
 21
168.4029080849451
 31
0.0
  0
LINE
  5
66
100
AcDbEntity
  8
0
  6
Continuous
 62
               6
100
AcDbLine
 10
496.32951660242878
 20
168.4029080849451
 30
0.0
 11
496.32951660242878
 21
198.4029080849451
 31
0.0
  0
LINE
  5
67
100
AcDbEntity
  8
0
  6
Continuous
 62
               6
100
AcDbLine
 10
496.3295166024289
 20
163.4029080849451
 30
0.0
 11
526.32951660242884
 21
163.40290808494521
 31
0.0
  0
LINE
  5
68
100
AcDbEntity
  8
0
  6
Continuous
 62
               6
100
AcDbLine
 10
526.32951660242884
 20
163.40290808494521
 30
0.0
 11
526.32951660242884
 21
164.40290808494521
 31
0.0
  0
LINE
  5
69
100
AcDbEntity
  8
0
  6
Continuous
 62
               6
100
AcDbLine
 10
524.32951660242884
 20
166.40290808494521
 30
0.0
 11
503.3295166024289
 21
166.4029080849451
 31
0.0
  0
LINE
  5
6A
100
AcDbEntity
  8
0
  6
Continuous
 62
               6
100
AcDbLine
 10
499.3295166024289
 20
170.4029080849451
 30
0.0
 11
499.32951660242878
 21
191.4029080849451
 31
0.0
  0
LINE
  5
6B
100
AcDbEntity
  8
0
  6
Continuous
 62
               6
100
AcDbLine
 10
497.32951660242878
 20
193.4029080849451
 30
0.0
 11
496.32951660242878
 21
193.4029080849451
 31
0.0
  0
LINE
  5
6C
100
AcDbEntity
  8
0
  6
Continuous
 62
               6
100
AcDbLine
 10
496.32951660242878
 20
193.4029080849451
 30
0.0
 11
496.3295166024289
 21
163.4029080849451
 31
0.0
  0
LINE
  5
6D
100
AcDbEntity
  8
0
  6
Continuous
 62
               4
100
AcDbLine
 10
527.8295052944261
 20
227.75290320468994
 30
0.0
 11
602.2804481780297
 21
267.85042212558847
 31
0.0
  0
LINE
  5
6E
100
AcDbEntity
  8
0
  6
Continuous
 62
               4
100
AcDbLine
 10
602.2804481780297
 20
267.85042212558847
 30
0.0
 11
683.41934151614282
 21
267.85042212558847
 31
0.0
  0
LINE
  5
6F
100
AcDbEntity
  8
0
  6
Continuous
 62
               4
100
AcDbLine
 10
527.82951660242861
 20
227.75290808494512
 30
0.0
 11
536.28675018950184
 21
230.83108937487614
 31
0.0
  0
LINE
  5
70
100
AcDbEntity
  8
0
  6
Continuous
 62
               4
100
AcDbLine
 10
527.82951660242861
 20
227.75290808494512
 30
0.0
 11
534.72391659049958
 21
233.53799657212394
 31
0.0
  0
LINE
  5
71
100
AcDbEntity
  8
0
  6
Continuous
 62
               4
100
AcDbLine
 10
526.32951660242816
 20
122.80715824340675
 30
0.0
 11
602.82951660242975
 21
164.0877024904652
 31
0.0
  0
LINE
  5
72
100
AcDbEntity
  8
0
  6
Continuous
 62
               4
100
AcDbLine
 10
602.82951660242975
 20
164.0877024904652
 30
0.0
 11
629.91501026473884
 21
164.0877024904652
 31
0.0
  0
LINE
  5
73
100
AcDbEntity
  8
0
  6
Continuous
 62
               4
100
AcDbLine
 10
526.32951660242816
 20
122.80715824340675
 30
0.0
 11
534.78675018950139
 21
125.88533953333771
 31
0.0
  0
LINE
  5
74
100
AcDbEntity
  8
0
  6
Continuous
 62
               4
100
AcDbLine
 10
526.32951660242816
 20
122.80715824340675
 30
0.0
 11
533.22391659049913
 21
128.59224673058552
 31
0.0
  0
LINE
  5
75
100
AcDbEntity
  8
0
  6
Continuous
 62
               4
100
AcDbLine
 10
532.82951660242884
 20
254.40291191738524
 30
0.0
 11
532.82951660242884
 21
273.10870810581036
 31
0.0
  0
LINE
  5
76
100
AcDbEntity
  8
0
  6
Continuous
 62
               4
100
AcDbLine
 10
532.82951660242884
 20
257.40291191738527
 30
0.0
 11
527.82951660242884
 21
257.40291191738527
 31
0.0
  0
LINE
  5
77
100
AcDbEntity
  8
0
  6
Continuous
 62
               4
100
AcDbLine
 10
532.82951660242884
 20
297.6029080849454
 30
0.0
 11
602.82951660242929
 21
335.13067558227101
 31
0.0
  0
LINE
  5
78
100
AcDbEntity
  8
0
  6
Continuous
 62
               4
100
AcDbLine
 10
532.82951660242884
 20
297.6029080849454
 30
0.0
 11
539.72391659049958
 21
303.38799657212417
 31
0.0
  0
LINE
  5
79
100
AcDbEntity
  8
0
  6
Continuous
 62
               4
100
AcDbLine
 10
532.82951660242884
 20
297.6029080849454
 30
0.0
 11
541.28675018950184
 21
300.68108937487636
 31
0.0
  0
LINE
  5
7A
100
AcDbEntity
  8
0
  6
Continuous
 62
               2
100
AcDbLine
 10
526.32951660242816
 20
142.4029080849451
 30
0.0
 11
526.32951660242884
 21
107.40290808494521
 31
0.0
  0
LINE
  5
7B
100
AcDbEntity
  8
0
  6
Continuous
 62
               2
100
AcDbLine
 10
523.96597332442002
 20
124.3802954083956
 30
0.0
 11
524.82951660242861
 21
107.9029080849451
 31
0.0
  0
LINE
  5
7C
100
AcDbEntity
  8
0
  6
Continuous
 62
               3
100
AcDbLine
 10
524.82951660242816
 20
141.4029080849451
 30
0.0
 11
172.82951660242867
 21
141.40290808494134
 31
0.0
  0
LINE
  5
7D
100
AcDbEntity
  8
0
  6
Continuous
 62
               2
100
AcDbLine
 10
526.32951660242816
 20
142.4029080849451
 30
0.0
 11
486.32951660242821
 21
142.40290808494481
 31
0.0
  0
LINE
  5
7E
100
AcDbEntity
  8
0
  6
Continuous
 62
               3
100
AcDbLine
 10
524.82951660242816
 20
141.4029080849451
 30
0.0
 11
524.82951660242838
 21
132.4029080849451
 31
0.0
  0
LINE
  5
7F
100
AcDbEntity
  8
0
  6
Continuous
 62
               3
100
AcDbLine
 10
524.82951660242838
 20
132.4029080849451
 30
0.0
 11
172.82951660242867
 21
132.4029080849414
 31
0.0
  0
LINE
  5
80
100
AcDbEntity
  8
0
  6
Continuous
 62
               7
100
AcDbLine
 10
524.82951660242838
 20
134.6529080849451
 30
0.0
 11
172.82951660242867
 21
134.6529080849414
 31
0.0
  0
LINE
  5
81
100
AcDbEntity
  8
0
  6
Continuous
 62
               7
100
AcDbLine
 10
524.82951660242838
 20
136.9029080849451
 30
0.0
 11
172.82951660242867
 21
136.90290808494134
 31
0.0
  0
LINE
  5
82
100
AcDbEntity
  8
0
  6
Continuous
 62
               7
100
AcDbLine
 10
524.82951660242838
 20
139.1529080849451
 30
0.0
 11
172.82951660242867
 21
139.1529080849414
 31
0.0
  0
LINE
  5
83
100
AcDbEntity
  8
0
  6
DIVIDE
 62
               4
100
AcDbLine
 10
526.32951660242816
 20
143.40290808494521
 30
0.0
 11
172.82951660242867
 21
143.40290808494493
 31
0.0
  0
LINE
  5
84
100
AcDbEntity
  8
0
  6
DIVIDE
 62
               4
100
AcDbLine
 10
526.32951660242816
 20
143.40290808494521
 30
0.0
 11
526.32951660242793
 21
163.40290808494521
 31
0.0
  0
LINE
  5
85
100
AcDbEntity
  8
0
  6
DIVIDE
 62
               4
100
AcDbLine
 10
526.32951660242816
 20
143.90290808494521
 30
0.0
 11
172.82951660242867
 21
143.90290808494493
 31
0.0
  0
LINE
  5
86
100
AcDbEntity
  8
0
  6
Continuous
 62
               7
100
AcDbLine
 10
512.20973979644987
 20
160.54330546150041
 30
0.0
 11
512.20973979644918
 21
142.04330546150001
 31
0.0
  0
LINE
  5
87
100
AcDbEntity
  8
0
  6
Continuous
 62
               7
100
AcDbLine
 10
509.7097397964489
 20
140.04330546150013
 30
0.0
 11
509.7097397964489
 21
142.04330546150001
 31
0.0
  0
LINE
  5
88
100
AcDbEntity
  8
0
  6
Continuous
 62
               7
100
AcDbLine
 10
517.20973979644987
 20
160.54330546150024
 30
0.0
 11
517.20973979644918
 21
142.0433054614999
 31
0.0
  0
LINE
  5
89
100
AcDbEntity
  8
0
  6
Continuous
 62
               7
100
AcDbLine
 10
519.70973979644896
 20
140.04330546149973
 30
0.0
 11
519.70973979644918
 21
142.0433054614999
 31
0.0
  0
LINE
  5
8A
100
AcDbEntity
  8
0
  6
Continuous
 62
               7
100
AcDbLine
 10
517.20973979644987
 20
160.54330546150024
 30
0.0
 11
514.70973979645009
 21
162.0433054615003
 31
0.0
  0
LINE
  5
8B
100
AcDbEntity
  8
0
  6
Continuous
 62
               7
100
AcDbLine
 10
512.20973979644987
 20
160.54330546150041
 30
0.0
 11
514.70973979645009
 21
162.0433054615003
 31
0.0
  0
LINE
  5
8C
100
AcDbEntity
  8
0
  6
Continuous
 62
               7
100
AcDbLine
 10
519.70973979644918
 20
142.0433054614999
 30
0.0
 11
509.7097397964489
 21
142.04330546150001
 31
0.0
  0
LINE
  5
8D
100
AcDbEntity
  8
0
  6
Continuous
 62
               7
100
AcDbLine
 10
512.20973979644918
 20
146.04330546150024
 30
0.0
 11
517.20973979644941
 21
148.04330546150024
 31
0.0
  0
LINE
  5
8E
100
AcDbEntity
  8
0
  6
Continuous
 62
               7
100
AcDbLine
 10
517.20973979644941
 20
150.04330546150013
 30
0.0
 11
512.20973979644918
 21
148.04330546150041
 31
0.0
  0
LINE
  5
8F
100
AcDbEntity
  8
0
  6
Continuous
 62
               7
100
AcDbLine
 10
512.20973979644941
 20
150.0433054615003
 30
0.0
 11
517.20973979644964
 21
152.04330546150013
 31
0.0
  0
LINE
  5
90
100
AcDbEntity
  8
0
  6
Continuous
 62
               7
100
AcDbLine
 10
517.20973979644964
 20
154.04330546150013
 30
0.0
 11
512.20973979644964
 21
152.04330546150041
 31
0.0
  0
LINE
  5
91
100
AcDbEntity
  8
0
  6
Continuous
 62
               7
100
AcDbLine
 10
517.20973979644987
 20
156.04330546150024
 30
0.0
 11
514.20973979644964
 21
154.84330546150031
 31
0.0
  0
LINE
  5
92
100
AcDbEntity
  8
0
  6
Continuous
 62
               7
100
AcDbLine
 10
512.70973979644987
 20
160.0433054615003
 30
0.0
 11
512.70973979644964
 21
154.2433054615004
 31
0.0
  0
LINE
  5
93
100
AcDbEntity
  8
0
  6
Continuous
 62
               7
100
AcDbLine
 10
512.20973979644987
 20
160.54330546150041
 30
0.0
 11
512.70973979644987
 21
160.0433054615003
 31
0.0
  0
LINE
  5
94
100
AcDbEntity
  8
0
  6
Continuous
 62
               7
100
AcDbLine
 10
512.70973979644964
 20
154.24330546150051
 30
0.0
 11
513.15973979644968
 21
153.79330546150041
 31
0.0
  0
LINE
  5
95
100
AcDbEntity
  8
0
  6
Continuous
 62
               7
100
AcDbLine
 10
514.20973979644964
 20
154.84330546150031
 30
0.0
 11
513.15973979644968
 21
153.79330546150041
 31
0.0
  0
LINE
  5
96
100
AcDbEntity
  8
0
  6
Continuous
 62
               7
100
AcDbLine
 10
512.70973979644964
 20
154.2433054615004
 30
0.0
 11
512.20973979644964
 21
154.0433054615003
 31
0.0
  0
LINE
  5
97
100
AcDbEntity
  8
0
  6
DIVIDE
 62
               4
100
AcDbLine
 10
526.32951660242816
 20
162.90290808494521
 30
0.0
 11
172.82951660242867
 21
162.90290808494493
 31
0.0
  0
LINE
  5
98
100
AcDbEntity
  8
0
  6
DIVIDE
 62
               4
100
AcDbLine
 10
526.32951660242816
 20
163.40290808494521
 30
0.0
 11
172.82951660242867
 21
163.40290808494493
 31
0.0
  0
LINE
  5
99
100
AcDbEntity
  8
0
  6
Continuous
 62
               2
100
AcDbLine
 10
528.82951660242884
 20
288.40291191738538
 30
0.0
 11
531.32951660242884
 21
279.15291191738538
 31
0.0
  0
LINE
  5
9A
100
AcDbEntity
  8
0
  6
Continuous
 62
               7
100
AcDbLine
 10
481.77681747067464
 20
279.60290808494551
 30
0.0
 11
481.77681747067487
 21
315.60290808494562
 31
0.0
  0
LINE
  5
9B
100
AcDbEntity
  8
0
  6
Continuous
 62
               7
100
AcDbLine
 10
479.27681747067487
 20
318.10290808494562
 30
0.0
 11
479.27681747067498
 21
317.60290808494551
 31
0.0
  0
LINE
  5
9C
100
AcDbEntity
  8
0
  6
Continuous
 62
               7
100
AcDbLine
 10
486.77681747067464
 20
279.60290808494551
 30
0.0
 11
486.77681747067487
 21
315.60290808494551
 31
0.0
  0
LINE
  5
9D
100
AcDbEntity
  8
0
  6
Continuous
 62
               7
100
AcDbLine
 10
489.27681747067498
 20
318.10290808494551
 30
0.0
 11
489.27681747067487
 21
317.60290808494551
 31
0.0
  0
LINE
  5
9E
100
AcDbEntity
  8
0
  6
Continuous
 62
               7
100
AcDbLine
 10
479.27681747067487
 20
318.10290808494562
 30
0.0
 11
489.27681747067498
 21
318.10290808494551
 31
0.0
  0
LINE
  5
9F
100
AcDbEntity
  8
0
  6
Continuous
 62
               7
100
AcDbLine
 10
481.77681747067487
 20
315.60290808494562
 30
0.0
 11
486.77681747067487
 21
315.60290808494551
 31
0.0
  0
LINE
  5
A0
100
AcDbEntity
  8
0
  6
Continuous
 62
               7
100
AcDbLine
 10
479.27681747067498
 20
317.60290808494551
 30
0.0
 11
481.77681747067487
 21
315.60290808494562
 31
0.0
  0
LINE
  5
A1
100
AcDbEntity
  8
0
  6
Continuous
 62
               7
100
AcDbLine
 10
486.77681747067487
 20
315.60290808494551
 30
0.0
 11
489.27681747067487
 21
317.60290808494551
 31
0.0
  0
LINE
  5
A2
100
AcDbEntity
  8
0
  6
Continuous
 62
               7
100
AcDbLine
 10
479.27681747067498
 20
317.60290808494551
 30
0.0
 11
489.27681747067487
 21
317.6029080849454
 31
0.0
  0
LINE
  5
A3
100
AcDbEntity
  8
0
  6
Continuous
 62
               7
100
AcDbLine
 10
481.77681747067464
 20
279.60290808494551
 30
0.0
 11
484.27681747067464
 21
278.10290808494551
 31
0.0
  0
LINE
  5
A4
100
AcDbEntity
  8
0
  6
Continuous
 62
               7
100
AcDbLine
 10
486.77681747067464
 20
279.60290808494551
 30
0.0
 11
484.27681747067464
 21
278.10290808494551
 31
0.0
  0
LINE
  5
A5
100
AcDbEntity
  8
0
  6
Continuous
 62
               7
100
AcDbLine
 10
481.77681747067487
 20
308.60290808494562
 30
0.0
 11
486.77681747067487
 21
310.60290808494551
 31
0.0
  0
LINE
  5
A6
100
AcDbEntity
  8
0
  6
Continuous
 62
               7
100
AcDbLine
 10
481.77681747067487
 20
306.60290808494562
 30
0.0
 11
486.77681747067487
 21
308.60290808494551
 31
0.0
  0
LINE
  5
A7
100
AcDbEntity
  8
0
  6
Continuous
 62
               7
100
AcDbLine
 10
481.77681747067487
 20
304.60290808494551
 30
0.0
 11
486.77681747067487
 21
306.60290808494562
 31
0.0
  0
LINE
  5
A8
100
AcDbEntity
  8
0
  6
Continuous
 62
               7
100
AcDbLine
 10
481.77681747067476
 20
302.60290808494562
 30
0.0
 11
486.77681747067487
 21
304.60290808494551
 31
0.0
  0
LINE
  5
A9
100
AcDbEntity
  8
0
  6
Continuous
 62
               7
100
AcDbLine
 10
481.77681747067476
 20
300.60290808494562
 30
0.0
 11
486.77681747067487
 21
302.60290808494551
 31
0.0
  0
LINE
  5
AA
100
AcDbEntity
  8
0
  6
Continuous
 62
               7
100
AcDbLine
 10
481.77681747067476
 20
298.60290808494562
 30
0.0
 11
486.77681747067464
 21
300.60290808494562
 31
0.0
  0
LINE
  5
AB
100
AcDbEntity
  8
0
  6
Continuous
 62
               7
100
AcDbLine
 10
481.77681747067476
 20
296.60290808494562
 30
0.0
 11
486.77681747067464
 21
298.60290808494562
 31
0.0
  0
LINE
  5
AC
100
AcDbEntity
  8
0
  6
Continuous
 62
               7
100
AcDbLine
 10
481.77681747067464
 20
294.60290808494562
 30
0.0
 11
486.77681747067464
 21
296.60290808494574
 31
0.0
  0
LINE
  5
AD
100
AcDbEntity
  8
0
  6
Continuous
 62
               7
100
AcDbLine
 10
481.77681747067464
 20
292.60290808494562
 30
0.0
 11
486.77681747067464
 21
294.60290808494574
 31
0.0
  0
LINE
  5
AE
100
AcDbEntity
  8
0
  6
Continuous
 62
               7
100
AcDbLine
 10
481.77681747067453
 20
290.60290808494562
 30
0.0
 11
486.77681747067464
 21
292.60290808494574
 31
0.0
  0
LINE
  5
AF
100
AcDbEntity
  8
0
  6
Continuous
 62
               7
100
AcDbLine
 10
481.77681747067464
 20
288.60290808494562
 30
0.0
 11
486.77681747067464
 21
290.60290808494562
 31
0.0
  0
LINE
  5
B0
100
AcDbEntity
  8
0
  6
Continuous
 62
               7
100
AcDbLine
 10
481.77681747067464
 20
286.60290808494562
 30
0.0
 11
484.77681747067464
 21
287.80290808494567
 31
0.0
  0
LINE
  5
B1
100
AcDbEntity
  8
0
  6
Continuous
 62
               7
100
AcDbLine
 10
486.27681747067464
 20
280.10290808494551
 30
0.0
 11
486.27681747067464
 21
288.40290808494569
 31
0.0
  0
LINE
  5
B2
100
AcDbEntity
  8
0
  6
Continuous
 62
               7
100
AcDbLine
 10
484.77681747067464
 20
287.80290808494567
 30
0.0
 11
485.82681747067471
 21
288.85290808494574
 31
0.0
  0
LINE
  5
B3
100
AcDbEntity
  8
0
  6
Continuous
 62
               7
100
AcDbLine
 10
486.27681747067464
 20
288.40290808494558
 30
0.0
 11
485.82681747067471
 21
288.85290808494574
 31
0.0
  0
LINE
  5
B4
100
AcDbEntity
  8
0
  6
Continuous
 62
               7
100
AcDbLine
 10
486.27681747067464
 20
288.40290808494569
 30
0.0
 11
486.77681747067464
 21
288.60290808494562
 31
0.0
  0
LINE
  5
B5
100
AcDbEntity
  8
0
  6
Continuous
 62
               7
100
AcDbLine
 10
486.77681747067464
 20
279.60290808494551
 30
0.0
 11
486.27681747067464
 21
280.10290808494551
 31
0.0
  0
LINE
  5
B6
100
AcDbEntity
  8
0
  6
Continuous
 62
               7
100
AcDbLine
 10
495.5140952322601
 20
280.80290808494556
 30
0.0
 11
495.51409523226044
 21
316.80290808494556
 31
0.0
  0
LINE
  5
B7
100
AcDbEntity
  8
0
  6
Continuous
 62
               7
100
AcDbLine
 10
493.01409523226044
 20
319.30290808494533
 30
0.0
 11
493.01409523226044
 21
318.80290808494544
 31
0.0
  0
LINE
  5
B8
100
AcDbEntity
  8
0
  6
Continuous
 62
               7
100
AcDbLine
 10
500.51409523226022
 20
280.80290808494556
 30
0.0
 11
500.51409523226044
 21
316.80290808494544
 31
0.0
  0
LINE
  5
B9
100
AcDbEntity
  8
0
  6
Continuous
 62
               7
100
AcDbLine
 10
503.01409523226044
 20
319.30290808494533
 30
0.0
 11
503.01409523226044
 21
318.80290808494544
 31
0.0
  0
LINE
  5
BA
100
AcDbEntity
  8
0
  6
Continuous
 62
               7
100
AcDbLine
 10
493.01409523226044
 20
319.30290808494533
 30
0.0
 11
503.01409523226044
 21
319.30290808494533
 31
0.0
  0
LINE
  5
BB
100
AcDbEntity
  8
0
  6
Continuous
 62
               7
100
AcDbLine
 10
495.51409523226044
 20
316.80290808494556
 30
0.0
 11
500.51409523226044
 21
316.80290808494544
 31
0.0
  0
LINE
  5
BC
100
AcDbEntity
  8
0
  6
Continuous
 62
               7
100
AcDbLine
 10
493.01409523226044
 20
318.80290808494544
 30
0.0
 11
495.51409523226044
 21
316.80290808494556
 31
0.0
  0
LINE
  5
BD
100
AcDbEntity
  8
0
  6
Continuous
 62
               7
100
AcDbLine
 10
500.51409523226044
 20
316.80290808494544
 30
0.0
 11
503.01409523226044
 21
318.80290808494533
 31
0.0
  0
LINE
  5
BE
100
AcDbEntity
  8
0
  6
Continuous
 62
               7
100
AcDbLine
 10
493.01409523226044
 20
318.80290808494544
 30
0.0
 11
503.01409523226044
 21
318.80290808494533
 31
0.0
  0
LINE
  5
BF
100
AcDbEntity
  8
0
  6
Continuous
 62
               7
100
AcDbLine
 10
495.5140952322601
 20
280.80290808494556
 30
0.0
 11
498.01409523226022
 21
279.30290808494556
 31
0.0
  0
LINE
  5
C0
100
AcDbEntity
  8
0
  6
Continuous
 62
               7
100
AcDbLine
 10
500.51409523226022
 20
280.80290808494556
 30
0.0
 11
498.01409523226022
 21
279.30290808494556
 31
0.0
  0
LINE
  5
C1
100
AcDbEntity
  8
0
  6
Continuous
 62
               7
100
AcDbLine
 10
495.51409523226044
 20
309.80290808494556
 30
0.0
 11
500.51409523226044
 21
311.80290808494544
 31
0.0
  0
LINE
  5
C2
100
AcDbEntity
  8
0
  6
Continuous
 62
               7
100
AcDbLine
 10
495.51409523226033
 20
307.80290808494556
 30
0.0
 11
500.51409523226044
 21
309.80290808494544
 31
0.0
  0
LINE
  5
C3
100
AcDbEntity
  8
0
  6
Continuous
 62
               7
100
AcDbLine
 10
495.51409523226044
 20
305.80290808494544
 30
0.0
 11
500.51409523226033
 21
307.80290808494556
 31
0.0
  0
LINE
  5
C4
100
AcDbEntity
  8
0
  6
Continuous
 62
               7
100
AcDbLine
 10
495.51409523226033
 20
303.80290808494556
 30
0.0
 11
500.51409523226033
 21
305.80290808494544
 31
0.0
  0
LINE
  5
C5
100
AcDbEntity
  8
0
  6
Continuous
 62
               7
100
AcDbLine
 10
495.51409523226033
 20
301.80290808494556
 30
0.0
 11
500.51409523226044
 21
303.80290808494544
 31
0.0
  0
LINE
  5
C6
100
AcDbEntity
  8
0
  6
Continuous
 62
               7
100
AcDbLine
 10
495.51409523226022
 20
299.80290808494556
 30
0.0
 11
500.51409523226022
 21
301.80290808494556
 31
0.0
  0
LINE
  5
C7
100
AcDbEntity
  8
0
  6
Continuous
 62
               7
100
AcDbLine
 10
495.51409523226022
 20
297.80290808494556
 30
0.0
 11
500.51409523226022
 21
299.80290808494544
 31
0.0
  0
LINE
  5
C8
100
AcDbEntity
  8
0
  6
Continuous
 62
               7
100
AcDbLine
 10
495.51409523226022
 20
295.80290808494556
 30
0.0
 11
500.51409523226022
 21
297.80290808494567
 31
0.0
  0
LINE
  5
C9
100
AcDbEntity
  8
0
  6
Continuous
 62
               7
100
AcDbLine
 10
495.51409523226022
 20
293.80290808494556
 30
0.0
 11
500.51409523226022
 21
295.80290808494556
 31
0.0
  0
LINE
  5
CA
100
AcDbEntity
  8
0
  6
Continuous
 62
               7
100
AcDbLine
 10
495.5140952322601
 20
291.80290808494556
 30
0.0
 11
500.51409523226022
 21
293.80290808494556
 31
0.0
  0
LINE
  5
CB
100
AcDbEntity
  8
0
  6
Continuous
 62
               7
100
AcDbLine
 10
495.51409523226022
 20
289.80290808494556
 30
0.0
 11
500.51409523226022
 21
291.80290808494556
 31
0.0
  0
LINE
  5
CC
100
AcDbEntity
  8
0
  6
Continuous
 62
               7
100
AcDbLine
 10
495.5140952322601
 20
287.80290808494567
 30
0.0
 11
498.51409523226022
 21
289.0029080849456
 31
0.0
  0
LINE
  5
CD
100
AcDbEntity
  8
0
  6
Continuous
 62
               7
100
AcDbLine
 10
500.01409523226022
 20
281.30290808494556
 30
0.0
 11
500.01409523226022
 21
289.60290808494562
 31
0.0
  0
LINE
  5
CE
100
AcDbEntity
  8
0
  6
Continuous
 62
               7
100
AcDbLine
 10
498.51409523226022
 20
289.00290808494549
 30
0.0
 11
499.56409523226029
 21
290.05290808494567
 31
0.0
  0
LINE
  5
CF
100
AcDbEntity
  8
0
  6
Continuous
 62
               7
100
AcDbLine
 10
500.01409523226022
 20
289.60290808494551
 30
0.0
 11
499.56409523226029
 21
290.05290808494567
 31
0.0
  0
LINE
  5
D0
100
AcDbEntity
  8
0
  6
Continuous
 62
               7
100
AcDbLine
 10
500.01409523226022
 20
289.60290808494562
 30
0.0
 11
500.51409523226022
 21
289.80290808494567
 31
0.0
  0
LINE
  5
D1
100
AcDbEntity
  8
0
  6
Continuous
 62
               7
100
AcDbLine
 10
500.51409523226022
 20
280.80290808494556
 30
0.0
 11
500.01409523226022
 21
281.30290808494556
 31
0.0
  0
LINE
  5
D2
100
AcDbEntity
  8
0
  6
Continuous
 62
               2
100
AcDbLine
 10
427.82951660242867
 20
317.90290808494535
 30
0.0
 11
527.82951660242884
 21
317.90290808494535
 31
0.0
  0
LINE
  5
D3
100
AcDbEntity
  8
0
  6
Continuous
 62
               2
100
AcDbLine
 10
447.82951660242867
 20
319.90292639549216
 30
0.0
 11
555.57951673017692
 21
319.90290804236258
 31
0.0
  0
LINE
  5
D4
100
AcDbEntity
  8
0
  6
DASHED
 62
               6
100
AcDbLine
 10
427.82951660242867
 20
318.90290808494535
 30
0.0
 11
526.32951660242884
 21
318.90290808494535
 31
0.0
  0
LINE
  5
D5
100
AcDbEntity
  8
0
  6
Continuous
 62
               2
100
AcDbLine
 10
532.82951660242884
 20
318.40291191738527
 30
0.0
 11
555.57951647468076
 21
318.40290804236258
 31
0.0
  0
LINE
  5
D6
100
AcDbEntity
  8
0
  6
Continuous
 62
               2
100
AcDbLine
 10
534.82951660242884
 20
317.40290808494535
 30
0.0
 11
555.32951660242884
 21
316.40290808494535
 31
0.0
  0
LINE
  5
D7
100
AcDbEntity
  8
0
  6
Continuous
 62
               7
100
AcDbLine
 10
318.92079457741517
 20
316.40290808494535
 30
0.0
 11
300.92078694982757
 21
298.40290808494535
 31
0.0
  0
LINE
  5
D8
100
AcDbEntity
  8
0
  6
Continuous
 62
               7
100
AcDbLine
 10
311.84971913796204
 20
316.40290808494535
 30
0.0
 11
293.84971913796204
 21
298.40290808494535
 31
0.0
  0
LINE
  5
D9
100
AcDbEntity
  8
0
  6
Continuous
 62
               7
100
AcDbLine
 10
304.77865132609662
 20
316.40290808494535
 30
0.0
 11
286.77865132609662
 21
298.40290808494535
 31
0.0
  0
LINE
  5
DA
100
AcDbEntity
  8
0
  6
Continuous
 62
               7
100
AcDbLine
 10
297.70758351423109
 20
316.40290808494535
 30
0.0
 11
279.70758351423109
 21
298.40290808494535
 31
0.0
  0
LINE
  5
DB
100
AcDbEntity
  8
0
  6
Continuous
 62
               7
100
AcDbLine
 10
290.63651570236567
 20
316.40290808494535
 30
0.0
 11
272.63651570236567
 21
298.40290808494535
 31
0.0
  0
LINE
  5
DC
100
AcDbEntity
  8
0
  6
Continuous
 62
               7
100
AcDbLine
 10
283.56544789050014
 20
316.40290808494535
 30
0.0
 11
265.56544789050014
 21
298.40290808494535
 31
0.0
  0
LINE
  5
DD
100
AcDbEntity
  8
0
  6
Continuous
 62
               7
100
AcDbLine
 10
276.49438007863461
 20
316.40290808494535
 30
0.0
 11
258.49438007863461
 21
298.40290808494535
 31
0.0
  0
LINE
  5
DE
100
AcDbEntity
  8
0
  6
Continuous
 62
               7
100
AcDbLine
 10
269.42331226676919
 20
316.40290808494535
 30
0.0
 11
251.42331226676919
 21
298.40290808494535
 31
0.0
  0
LINE
  5
DF
100
AcDbEntity
  8
0
  6
Continuous
 62
               7
100
AcDbLine
 10
262.35224445490377
 20
316.40290808494535
 30
0.0
 11
244.35224445490377
 21
298.40290808494535
 31
0.0
  0
LINE
  5
E0
100
AcDbEntity
  8
0
  6
Continuous
 62
               7
100
AcDbLine
 10
255.28117664303824
 20
316.40290808494535
 30
0.0
 11
237.28117664303824
 21
298.40290808494535
 31
0.0
  0
LINE
  5
E1
100
AcDbEntity
  8
0
  6
Continuous
 62
               7
100
AcDbLine
 10
248.2101088311727
 20
316.40290808494535
 30
0.0
 11
230.2101088311727
 21
298.40290808494535
 31
0.0
  0
LINE
  5
E2
100
AcDbEntity
  8
0
  6
Continuous
 62
               7
100
AcDbLine
 10
241.13904101930729
 20
316.40290808494535
 30
0.0
 11
223.13904101930723
 21
298.40290808494535
 31
0.0
  0
LINE
  5
E3
100
AcDbEntity
  8
0
  6
Continuous
 62
               7
100
AcDbLine
 10
234.06797320744175
 20
316.40290808494535
 30
0.0
 11
216.06797320744175
 21
298.40290808494535
 31
0.0
  0
LINE
  5
E4
100
AcDbEntity
  8
0
  6
Continuous
 62
               7
100
AcDbLine
 10
226.99690539557633
 20
316.40290808494535
 30
0.0
 11
208.99690539557633
 21
298.40290808494535
 31
0.0
  0
LINE
  5
E5
100
AcDbEntity
  8
0
  6
Continuous
 62
               7
100
AcDbLine
 10
219.92583758371086
 20
316.40290808494535
 30
0.0
 11
201.92583758371086
 21
298.40290808494535
 31
0.0
  0
LINE
  5
E6
100
AcDbEntity
  8
0
  6
Continuous
 62
               7
100
AcDbLine
 10
212.85476977184533
 20
316.40290808494535
 30
0.0
 11
194.85476977184533
 21
298.40290808494535
 31
0.0
  0
LINE
  5
E7
100
AcDbEntity
  8
0
  6
Continuous
 62
               7
100
AcDbLine
 10
205.78370195997985
 20
316.40290808494535
 30
0.0
 11
187.78370195997985
 21
298.40290808494535
 31
0.0
  0
LINE
  5
E8
100
AcDbEntity
  8
0
  6
Continuous
 62
               7
100
AcDbLine
 10
198.71263414811438
 20
316.40290808494535
 30
0.0
 11
180.71263414811438
 21
298.40290808494535
 31
0.0
  0
LINE
  5
E9
100
AcDbEntity
  8
0
  6
Continuous
 62
               7
100
AcDbLine
 10
191.64156633624884
 20
316.40290808494535
 30
0.0
 11
173.64156633624884
 21
298.40290808494535
 31
0.0
  0
LINE
  5
EA
100
AcDbEntity
  8
0
  6
Continuous
 62
               7
100
AcDbLine
 10
184.57049852438342
 20
316.40290808494535
 30
0.0
 11
172.82951660242867
 21
304.66192616299065
 31
0.0
  0
LINE
  5
EB
100
AcDbEntity
  8
0
  6
Continuous
 62
               7
100
AcDbLine
 10
177.49943071251795
 20
316.40290808494535
 30
0.0
 11
172.82951660242867
 21
311.73299397485607
 31
0.0
  0
LINE
  5
EC
100
AcDbEntity
  8
0
  6
Continuous
 62
               4
100
AcDbLine
 10
312.82951660242867
 20
466.40290808494547
 30
0.0
 11
404.62820940357921
 21
307.40290808494535
 31
0.0
  0
LINE
  5
ED
100
AcDbEntity
  8
0
  6
Continuous
 62
               3
100
AcDbLine
 10
172.82951660242867
 20
316.40290808494535
 30
0.0
 11
526.32951660242884
 21
316.40290808494535
 31
0.0
  0
LINE
  5
EE
100
AcDbEntity
  8
0
  6
Continuous
 62
               7
100
AcDbLine
 10
526.32951660242884
 20
304.60853556971676
 30
0.0
 11
520.12388911765697
 21
298.40290808494535
 31
0.0
  0
LINE
  5
EF
100
AcDbEntity
  8
0
  6
Continuous
 62
               7
100
AcDbLine
 10
526.32951660242884
 20
311.67960338158218
 30
0.0
 11
513.05282130579189
 21
298.40290808494535
 31
0.0
  0
LINE
  5
F0
100
AcDbEntity
  8
0
  6
Continuous
 62
               7
100
AcDbLine
 10
523.98175349392636
 20
316.40290808494535
 30
0.0
 11
505.98175349392642
 21
298.40290808494535
 31
0.0
  0
LINE
  5
F1
100
AcDbEntity
  8
0
  6
Continuous
 62
               7
100
AcDbLine
 10
516.91068568206083
 20
316.40290808494535
 30
0.0
 11
498.91068568206089
 21
298.40290808494535
 31
0.0
  0
LINE
  5
F2
100
AcDbEntity
  8
0
  6
Continuous
 62
               7
100
AcDbLine
 10
509.83961787019535
 20
316.40290808494535
 30
0.0
 11
491.83961787019535
 21
298.40290808494535
 31
0.0
  0
LINE
  5
F3
100
AcDbEntity
  8
0
  6
Continuous
 62
               7
100
AcDbLine
 10
502.76855005832994
 20
316.40290808494535
 30
0.0
 11
484.76855005832994
 21
298.40290808494535
 31
0.0
  0
LINE
  5
F4
100
AcDbEntity
  8
0
  6
Continuous
 62
               7
100
AcDbLine
 10
495.69748224646452
 20
316.40290808494535
 30
0.0
 11
477.69748224646452
 21
298.40290808494535
 31
0.0
  0
LINE
  5
F5
100
AcDbEntity
  8
0
  6
Continuous
 62
               7
100
AcDbLine
 10
488.62641443459898
 20
316.40290808494535
 30
0.0
 11
470.62641443459898
 21
298.40290808494535
 31
0.0
  0
LINE
  5
F6
100
AcDbEntity
  8
0
  6
Continuous
 62
               7
100
AcDbLine
 10
481.55534662273345
 20
316.40290808494535
 30
0.0
 11
463.55534662273345
 21
298.40290808494535
 31
0.0
  0
LINE
  5
F7
100
AcDbEntity
  8
0
  6
Continuous
 62
               7
100
AcDbLine
 10
474.48427881086803
 20
316.40290808494535
 30
0.0
 11
456.48427881086803
 21
298.40290808494535
 31
0.0
  0
LINE
  5
F8
100
AcDbEntity
  8
0
  6
Continuous
 62
               7
100
AcDbLine
 10
467.41321099900262
 20
316.40290808494535
 30
0.0
 11
449.41321099900262
 21
298.40290808494535
 31
0.0
  0
LINE
  5
F9
100
AcDbEntity
  8
0
  6
Continuous
 62
               7
100
AcDbLine
 10
460.34214318713708
 20
316.40290808494535
 30
0.0
 11
442.34214318713708
 21
298.40290808494535
 31
0.0
  0
LINE
  5
FA
100
AcDbEntity
  8
0
  6
Continuous
 62
               7
100
AcDbLine
 10
453.27107537527155
 20
316.40290808494535
 30
0.0
 11
435.27107537527155
 21
298.40290808494535
 31
0.0
  0
LINE
  5
FB
100
AcDbEntity
  8
0
  6
Continuous
 62
               7
100
AcDbLine
 10
446.20000756340613
 20
316.40290808494535
 30
0.0
 11
428.20000756340613
 21
298.40290808494535
 31
0.0
  0
LINE
  5
FC
100
AcDbEntity
  8
0
  6
Continuous
 62
               7
100
AcDbLine
 10
439.1289397515406
 20
316.40290808494535
 30
0.0
 11
421.12893975154071
 21
298.40290808494535
 31
0.0
  0
LINE
  5
FD
100
AcDbEntity
  8
0
  6
Continuous
 62
               7
100
AcDbLine
 10
432.05787193967518
 20
316.40290808494535
 30
0.0
 11
414.05787193967518
 21
298.40290808494535
 31
0.0
  0
LINE
  5
FE
100
AcDbEntity
  8
0
  6
Continuous
 62
               7
100
AcDbLine
 10
424.98680412780965
 20
316.40290808494535
 30
0.0
 11
406.98680412780965
 21
298.40290808494535
 31
0.0
  0
LINE
  5
FF
100
AcDbEntity
  8
0
  6
Continuous
 62
               7
100
AcDbLine
 10
417.91573631594423
 20
316.40290808494535
 30
0.0
 11
399.91573631594423
 21
298.40290808494535
 31
0.0
  0
LINE
  5
100
100
AcDbEntity
  8
0
  6
Continuous
 62
               7
100
AcDbLine
 10
410.8446685040787
 20
316.40290808494535
 30
0.0
 11
392.84466850407881
 21
298.40290808494535
 31
0.0
  0
LINE
  5
101
100
AcDbEntity
  8
0
  6
Continuous
 62
               7
100
AcDbLine
 10
403.77360069221328
 20
316.40290808494535
 30
0.0
 11
385.77360069221328
 21
298.40290808494535
 31
0.0
  0
LINE
  5
102
100
AcDbEntity
  8
0
  6
Continuous
 62
               7
100
AcDbLine
 10
396.70253288034775
 20
316.40290808494535
 30
0.0
 11
378.70253288034775
 21
298.40290808494535
 31
0.0
  0
LINE
  5
103
100
AcDbEntity
  8
0
  6
Continuous
 62
               7
100
AcDbLine
 10
389.63146506848233
 20
316.40290808494535
 30
0.0
 11
371.63146506848233
 21
298.40290808494535
 31
0.0
  0
LINE
  5
104
100
AcDbEntity
  8
0
  6
Continuous
 62
               7
100
AcDbLine
 10
382.5603972566168
 20
316.40290808494535
 30
0.0
 11
364.56039725661691
 21
298.40290808494535
 31
0.0
  0
LINE
  5
105
100
AcDbEntity
  8
0
  6
Continuous
 62
               7
100
AcDbLine
 10
375.48932944475138
 20
316.40290808494535
 30
0.0
 11
363.79618679867946
 21
304.70976543887343
 31
0.0
  0
LINE
  5
106
100
AcDbEntity
  8
0
  6
Continuous
 62
               7
100
AcDbLine
 10
368.41826163288584
 20
316.40290808494535
 30
0.0
 11
363.79618679867946
 21
311.78083325073897
 31
0.0
  0
LINE
  5
107
100
AcDbEntity
  8
0
  6
Continuous
 62
               7
100
AcDbLine
 10
329.22280230675852
 20
305.49172000627982
 30
0.0
 11
322.13399038542394
 21
298.40290808494535
 31
0.0
  0
LINE
  5
108
100
AcDbEntity
  8
0
  6
Continuous
 62
               7
100
AcDbLine
 10
329.22280230675852
 20
312.56278781814535
 30
0.0
 11
315.06292257355852
 21
298.40290808494535
 31
0.0
  0
LINE
  5
109
100
AcDbEntity
  8
0
  6
Continuous
 62
               7
100
AcDbLine
 10
325.99185476169299
 20
316.40290808494535
 30
0.0
 11
307.99185476169299
 21
298.40290808494535
 31
0.0
  0
LINE
  5
10A
100
AcDbEntity
  8
0
  6
Continuous
 62
               4
100
AcDbLine
 10
557.82951660242929
 20
404.40290808494535
 30
0.0
 11
302.82951660242867
 21
404.40290808494535
 31
0.0
  0
LINE
  5
10B
100
AcDbEntity
  8
0
  6
Continuous
 62
               4
100
AcDbLine
 10
302.82951660242867
 20
404.40290808494535
 30
0.0
 11
172.82951660242867
 21
404.40290808494535
 31
0.0
  0
LINE
  5
10C
100
AcDbEntity
  8
0
  6
Continuous
 62
               4
100
AcDbLine
 10
172.82951660242867
 20
404.40290808494535
 30
0.0
 11
181.69278637953857
 21
405.96574168394784
 31
0.0
  0
LINE
  5
10D
100
AcDbEntity
  8
0
  6
Continuous
 62
               4
100
AcDbLine
 10
172.82951660242867
 20
404.40290808494535
 30
0.0
 11
181.69278637953857
 21
402.84007448594309
 31
0.0
  0
LINE
  5
10E
100
AcDbEntity
  8
0
  6
Continuous
 62
               4
100
AcDbLine
 10
167.82951660242867
 20
434.40290808494535
 30
0.0
 11
331.30472521649682
 21
434.40290808494535
 31
0.0
  0
LINE
  5
10F
100
AcDbEntity
  8
0
  6
Continuous
 62
               4
100
AcDbLine
 10
167.82951660242867
 20
450.40290808494547
 30
0.0
 11
322.06712090946274
 21
450.40290808494535
 31
0.0
  0
LINE
  5
110
100
AcDbEntity
  8
0
  6
Continuous
 62
               4
100
AcDbLine
 10
167.82951660242867
 20
466.40290808494547
 30
0.0
 11
312.82951660242878
 21
466.40290808494535
 31
0.0
  0
LINE
  5
111
100
AcDbEntity
  8
0
  6
Continuous
 62
               4
100
AcDbLine
 10
309.82951660242867
 20
351.40290808494547
 30
0.0
 11
346.32951660242867
 21
351.40290808494547
 31
0.0
  0
LINE
  5
112
100
AcDbEntity
  8
0
  6
Continuous
 62
               4
100
AcDbLine
 10
343.32951660242867
 20
321.40290808494547
 30
0.0
 11
343.32951660242867
 21
351.40290808494547
 31
0.0
  0
LINE
  5
113
100
AcDbEntity
  8
0
  6
Continuous
 62
               4
100
AcDbLine
 10
343.32951660242867
 20
321.40290808494547
 30
0.0
 11
343.32951660242867
 21
298.40290808494535
 31
0.0
  0
LINE
  5
114
100
AcDbEntity
  8
0
  6
Continuous
 62
               4
100
AcDbLine
 10
359.32951660242867
 20
316.40290808494535
 30
0.0
 11
359.32951660242867
 21
327.7956085299619
 31
0.0
  0
LINE
  5
115
100
AcDbEntity
  8
0
  6
Continuous
 62
               4
100
AcDbLine
 10
359.32951660242867
 20
316.40290808494535
 30
0.0
 11
359.32951660242867
 21
298.40290808494535
 31
0.0
  0
LINE
  5
116
100
AcDbEntity
  8
0
  6
Continuous
 62
               4
100
AcDbLine
 10
714.78679656440374
 20
21.213203435596483
 30
0.0
 11
714.78679656440374
 21
41.213203435596483
 31
0.0
  0
LINE
  5
117
100
AcDbEntity
  8
0
  6
Continuous
 62
               4
100
AcDbLine
 10
864.78679656440374
 20
21.213203435596483
 30
0.0
 11
714.78679656440374
 21
21.213203435596483
 31
0.0
  0
LINE
  5
118
100
AcDbEntity
  8
0
  6
Continuous
 62
               4
100
AcDbLine
 10
864.78679656440374
 20
41.213203435596483
 30
0.0
 11
864.78679656440374
 21
21.213203435596483
 31
0.0
  0
LINE
  5
119
100
AcDbEntity
  8
0
  6
Continuous
 62
               4
100
AcDbLine
 10
864.78679656440374
 20
41.213203435596483
 30
0.0
 11
714.78679656440374
 21
41.213203435596483
 31
0.0
  0
LINE
  5
11A
100
AcDbEntity
  8
0
  6
Continuous
 62
               4
100
AcDbLine
 10
14.142135623730949
 20
595.85786437626905
 30
0.0
 11
14.142135623730949
 21
615.85786437626905
 31
0.0
  0
LINE
  5
11B
100
AcDbEntity
  8
0
  6
Continuous
 62
               4
100
AcDbLine
 10
164.14213562373095
 20
595.85786437626905
 30
0.0
 11
14.142135623730949
 21
595.85786437626905
 31
0.0
  0
LINE
  5
11C
100
AcDbEntity
  8
0
  6
Continuous
 62
               4
100
AcDbLine
 10
164.14213562373095
 20
615.85786437626905
 30
0.0
 11
164.14213562373095
 21
595.85786437626905
 31
0.0
  0
LINE
  5
11D
100
AcDbEntity
  8
0
  6
Continuous
 62
               4
100
AcDbLine
 10
164.14213562373095
 20
615.85786437626905
 30
0.0
 11
14.142135623730949
 21
615.85786437626905
 31
0.0
  0
LINE
  5
11E
100
AcDbEntity
  8
0
  6
DASHED
 62
               6
100
AcDbLine
 10
172.82951660242867
 20
318.40290808494535
 30
0.0
 11
427.82951660242867
 21
318.40290808494535
 31
0.0
  0
LINE
  5
11F
100
AcDbEntity
  8
0
  6
Continuous
 62
               2
100
AcDbLine
 10
302.82951660242867
 20
320.40290808494541
 30
0.0
 11
342.82951660242924
 21
320.40290808494541
 31
0.0
  0
LINE
  5
120
100
AcDbEntity
  8
0
  6
Continuous
 62
               2
100
AcDbLine
 10
296.82951660242855
 20
321.40290808494547
 30
0.0
 11
301.82951660242867
 21
326.40290808494558
 31
0.0
  0
LINE
  5
121
100
AcDbEntity
  8
0
  6
Continuous
 62
               2
100
AcDbLine
 10
304.32951660242867
 20
326.40290808494558
 30
0.0
 11
309.32951660242867
 21
321.40290808494547
 31
0.0
  0
LINE
  5
122
100
AcDbEntity
  8
0
  6
Continuous
 62
               2
100
AcDbLine
 10
284.82951660242787
 20
350.40290808494586
 30
0.0
 11
302.82951660242878
 21
350.40290808494586
 31
0.0
  0
LINE
  5
123
100
AcDbEntity
  8
0
  6
Continuous
 62
               2
100
AcDbLine
 10
285.40686687161764
 20
349.40290808494586
 30
0.0
 11
301.82951660242867
 21
349.40290808494586
 31
0.0
  0
LINE
  5
124
100
AcDbEntity
  8
0
  6
Continuous
 62
               2
100
AcDbLine
 10
304.32951660242878
 20
351.40290808494586
 30
0.0
 11
283.32951660242617
 21
351.40290808494586
 31
0.0
  0
LINE
  5
125
100
AcDbEntity
  8
0
  6
Continuous
 62
               2
100
AcDbLine
 10
302.82951660242867
 20
320.40290808494541
 30
0.0
 11
302.82951660242867
 21
350.40290808494586
 31
0.0
  0
LINE
  5
126
100
AcDbEntity
  8
0
  6
Continuous
 62
               2
100
AcDbLine
 10
304.32951660242867
 20
326.40290808494558
 30
0.0
 11
304.32951660242867
 21
332.40290808494547
 31
0.0
  0
LINE
  5
127
100
AcDbEntity
  8
0
  6
Continuous
 62
               2
100
AcDbLine
 10
301.82951660242867
 20
326.40290808494558
 30
0.0
 11
301.82951660242867
 21
349.40290808494586
 31
0.0
  0
LINE
  5
128
100
AcDbEntity
  8
0
  6
Continuous
 62
               2
100
AcDbLine
 10
304.32951660242867
 20
340.40290808494541
 30
0.0
 11
304.32951660242867
 21
351.40290808494586
 31
0.0
  0
LINE
  5
129
100
AcDbEntity
  8
0
  6
Continuous
 62
               2
100
AcDbLine
 10
302.92951660242869
 20
333.90290808494541
 30
0.0
 11
302.92951660242869
 21
338.90290808494541
 31
0.0
  0
LINE
  5
12A
100
AcDbEntity
  8
0
  6
Continuous
 62
               2
100
AcDbLine
 10
302.92951660242869
 20
338.90290808494541
 30
0.0
 11
304.32951660242867
 21
340.40290808494541
 31
0.0
  0
LINE
  5
12B
100
AcDbEntity
  8
0
  6
Continuous
 62
               2
100
AcDbLine
 10
302.92951660242869
 20
333.90290808494541
 30
0.0
 11
304.32951660242867
 21
332.40290808494547
 31
0.0
  0
LINE
  5
12C
100
AcDbEntity
  8
0
  6
Continuous
 62
               2
100
AcDbLine
 10
284.82951660242787
 20
350.40290808494586
 30
0.0
 11
278.32951660242605
 21
339.14457783574807
 31
0.0
  0
LINE
  5
12D
100
AcDbEntity
  8
0
  6
Continuous
 62
               2
100
AcDbLine
 10
285.40686687161764
 20
349.40290808494586
 30
0.0
 11
279.19554200621059
 21
338.64457783574807
 31
0.0
  0
LINE
  5
12E
100
AcDbEntity
  8
0
  6
Continuous
 62
               2
100
AcDbLine
 10
280.90964362134827
 20
337.2115651338558
 30
0.0
 11
285.40964362135009
 21
345.00579376791592
 31
0.0
  0
LINE
  5
12F
100
AcDbEntity
  8
0
  6
Continuous
 62
               2
100
AcDbLine
 10
284.97663091945782
 20
345.25579376791592
 30
0.0
 11
282.66410260688161
 21
340.82271213055094
 31
0.0
  0
LINE
  5
130
100
AcDbEntity
  8
0
  6
Continuous
 62
               2
100
AcDbLine
 10
276.57951660242605
 20
339.71156513385591
 30
0.0
 11
283.32951660242617
 21
351.40290808494586
 31
0.0
  0
LINE
  5
131
100
AcDbEntity
  8
0
  6
Continuous
 62
               2
100
AcDbLine
 10
309.32951660242873
 20
321.40290808494547
 30
0.0
 11
555.32951660242884
 21
321.40290808494547
 31
0.0
  0
LINE
  5
132
100
AcDbEntity
  8
0
  6
Continuous
 62
               2
100
AcDbLine
 10
296.82951660242861
 20
321.40290808494552
 30
0.0
 11
172.82951660242867
 21
321.40290808494547
 31
0.0
  0
LINE
  5
133
100
AcDbEntity
  8
0
  6
Continuous
 62
               7
100
AcDbLine
 10
320.58238501128898
 20
282.49891026687249
 30
0.0
 11
320.58238501128932
 21
318.49891026687237
 31
0.0
  0
LINE
  5
134
100
AcDbEntity
  8
0
  6
Continuous
 62
               7
100
AcDbLine
 10
318.08238501128932
 20
320.99891026687226
 30
0.0
 11
318.08238501128932
 21
320.49891026687237
 31
0.0
  0
LINE
  5
135
100
AcDbEntity
  8
0
  6
Continuous
 62
               7
100
AcDbLine
 10
325.58238501128898
 20
282.49891026687237
 30
0.0
 11
325.58238501128932
 21
318.49891026687226
 31
0.0
  0
LINE
  5
136
100
AcDbEntity
  8
0
  6
Continuous
 62
               7
100
AcDbLine
 10
328.08238501128932
 20
320.99891026687226
 30
0.0
 11
328.08238501128932
 21
320.49891026687226
 31
0.0
  0
LINE
  5
137
100
AcDbEntity
  8
0
  6
Continuous
 62
               7
100
AcDbLine
 10
318.08238501128932
 20
320.99891026687226
 30
0.0
 11
328.08238501128932
 21
320.99891026687226
 31
0.0
  0
LINE
  5
138
100
AcDbEntity
  8
0
  6
Continuous
 62
               7
100
AcDbLine
 10
320.58238501128932
 20
318.49891026687237
 30
0.0
 11
325.58238501128932
 21
318.49891026687226
 31
0.0
  0
LINE
  5
139
100
AcDbEntity
  8
0
  6
Continuous
 62
               7
100
AcDbLine
 10
318.08238501128932
 20
320.49891026687237
 30
0.0
 11
320.58238501128932
 21
318.49891026687237
 31
0.0
  0
LINE
  5
13A
100
AcDbEntity
  8
0
  6
Continuous
 62
               7
100
AcDbLine
 10
325.58238501128932
 20
318.49891026687226
 30
0.0
 11
328.0823850112892
 21
320.49891026687226
 31
0.0
  0
LINE
  5
13B
100
AcDbEntity
  8
0
  6
Continuous
 62
               7
100
AcDbLine
 10
318.08238501128932
 20
320.49891026687237
 30
0.0
 11
328.0823850112892
 21
320.49891026687214
 31
0.0
  0
LINE
  5
13C
100
AcDbEntity
  8
0
  6
Continuous
 62
               7
100
AcDbLine
 10
320.58238501128898
 20
282.49891026687249
 30
0.0
 11
323.08238501128898
 21
280.99891026687249
 31
0.0
  0
LINE
  5
13D
100
AcDbEntity
  8
0
  6
Continuous
 62
               7
100
AcDbLine
 10
325.58238501128898
 20
282.49891026687237
 30
0.0
 11
323.08238501128898
 21
280.99891026687249
 31
0.0
  0
LINE
  5
13E
100
AcDbEntity
  8
0
  6
Continuous
 62
               7
100
AcDbLine
 10
320.5823850112892
 20
311.49891026687237
 30
0.0
 11
325.5823850112892
 21
313.49891026687237
 31
0.0
  0
LINE
  5
13F
100
AcDbEntity
  8
0
  6
Continuous
 62
               7
100
AcDbLine
 10
320.5823850112892
 20
309.49891026687237
 30
0.0
 11
325.5823850112892
 21
311.49891026687237
 31
0.0
  0
LINE
  5
140
100
AcDbEntity
  8
0
  6
Continuous
 62
               7
100
AcDbLine
 10
320.5823850112892
 20
307.49891026687237
 30
0.0
 11
325.5823850112892
 21
309.49891026687237
 31
0.0
  0
LINE
  5
141
100
AcDbEntity
  8
0
  6
Continuous
 62
               7
100
AcDbLine
 10
320.5823850112892
 20
305.49891026687237
 30
0.0
 11
325.5823850112892
 21
307.49891026687237
 31
0.0
  0
LINE
  5
142
100
AcDbEntity
  8
0
  6
Continuous
 62
               7
100
AcDbLine
 10
320.5823850112892
 20
303.49891026687237
 30
0.0
 11
325.5823850112892
 21
305.49891026687237
 31
0.0
  0
LINE
  5
143
100
AcDbEntity
  8
0
  6
Continuous
 62
               7
100
AcDbLine
 10
320.58238501128909
 20
301.49891026687249
 30
0.0
 11
325.58238501128909
 21
303.49891026687237
 31
0.0
  0
LINE
  5
144
100
AcDbEntity
  8
0
  6
Continuous
 62
               7
100
AcDbLine
 10
320.58238501128909
 20
299.49891026687249
 30
0.0
 11
325.58238501128909
 21
301.49891026687237
 31
0.0
  0
LINE
  5
145
100
AcDbEntity
  8
0
  6
Continuous
 62
               7
100
AcDbLine
 10
320.58238501128909
 20
297.49891026687249
 30
0.0
 11
325.58238501128909
 21
299.49891026687249
 31
0.0
  0
LINE
  5
146
100
AcDbEntity
  8
0
  6
Continuous
 62
               7
100
AcDbLine
 10
320.58238501128898
 20
295.49891026687249
 30
0.0
 11
325.58238501128909
 21
297.49891026687249
 31
0.0
  0
LINE
  5
147
100
AcDbEntity
  8
0
  6
Continuous
 62
               7
100
AcDbLine
 10
320.58238501128898
 20
293.49891026687249
 30
0.0
 11
325.58238501128898
 21
295.49891026687249
 31
0.0
  0
LINE
  5
148
100
AcDbEntity
  8
0
  6
Continuous
 62
               7
100
AcDbLine
 10
320.58238501128898
 20
291.49891026687249
 30
0.0
 11
325.58238501128898
 21
293.49891026687249
 31
0.0
  0
LINE
  5
149
100
AcDbEntity
  8
0
  6
Continuous
 62
               7
100
AcDbLine
 10
320.58238501128898
 20
289.49891026687249
 30
0.0
 11
323.58238501128909
 21
290.69891026687253
 31
0.0
  0
LINE
  5
14A
100
AcDbEntity
  8
0
  6
Continuous
 62
               7
100
AcDbLine
 10
325.08238501128898
 20
282.99891026687237
 30
0.0
 11
325.08238501128909
 21
291.29891026687255
 31
0.0
  0
LINE
  5
14B
100
AcDbEntity
  8
0
  6
Continuous
 62
               7
100
AcDbLine
 10
323.58238501128909
 20
290.69891026687253
 30
0.0
 11
324.63238501128916
 21
291.74891026687249
 31
0.0
  0
LINE
  5
14C
100
AcDbEntity
  8
0
  6
Continuous
 62
               7
100
AcDbLine
 10
325.08238501128909
 20
291.29891026687244
 30
0.0
 11
324.63238501128916
 21
291.74891026687249
 31
0.0
  0
LINE
  5
14D
100
AcDbEntity
  8
0
  6
Continuous
 62
               7
100
AcDbLine
 10
325.08238501128909
 20
291.29891026687255
 30
0.0
 11
325.58238501128898
 21
291.49891026687249
 31
0.0
  0
LINE
  5
14E
100
AcDbEntity
  8
0
  6
Continuous
 62
               7
100
AcDbLine
 10
325.58238501128898
 20
282.49891026687237
 30
0.0
 11
325.08238501128898
 21
282.99891026687237
 31
0.0
  0
LINE
  5
14F
100
AcDbEntity
  8
0
  6
Continuous
 62
               4
100
AcDbLine
 10
302.82951660242867
 20
354.40290808494586
 30
0.0
 11
302.82951660242867
 21
407.40290808494535
 31
0.0
  0
CIRCLE
  5
150
100
AcDbEntity
  8
0
  6
Continuous
 62
               4
100
AcDbCircle
 10
557.82951660242884
 20
342.40290808494535
 30
0.0
 40
1.5
  0
CIRCLE
  5
151
100
AcDbEntity
  8
0
  6
Continuous
 62
               4
100
AcDbCircle
 10
532.82951660242884
 20
342.40290808494535
 30
0.0
 40
1.5
  0
CIRCLE
  5
152
100
AcDbEntity
  8
0
  6
Continuous
 62
               4
100
AcDbCircle
 10
578.82951660242884
 20
318.40291191738527
 30
0.0
 40
1.5
  0
CIRCLE
  5
153
100
AcDbEntity
  8
0
  6
Continuous
 62
               4
100
AcDbCircle
 10
578.82951660242884
 20
278.40291191738538
 30
0.0
 40
1.5
  0
CIRCLE
  5
154
100
AcDbEntity
  8
0
  6
Continuous
 62
               4
100
AcDbCircle
 10
532.82951660242884
 20
257.40291191738527
 30
0.0
 40
1.5
  0
CIRCLE
  5
155
100
AcDbEntity
  8
0
  6
Continuous
 62
               4
100
AcDbCircle
 10
527.82951660242884
 20
257.40291191738527
 30
0.0
 40
1.5
  0
CIRCLE
  5
156
100
AcDbEntity
  8
0
  6
Continuous
 62
               4
100
AcDbCircle
 10
404.62824755577452
 20
307.40290808494535
 30
0.0
 40
1.5
  0
CIRCLE
  5
157
100
AcDbEntity
  8
0
  6
Continuous
 62
               4
100
AcDbCircle
 10
398.27735644249327
 20
318.40290808494535
 30
0.0
 40
1.5
  0
CIRCLE
  5
158
100
AcDbEntity
  8
0
  6
Continuous
 62
               4
100
AcDbCircle
 10
396.54530563492443
 20
321.40290808494535
 30
0.0
 40
1.5
  0
CIRCLE
  5
159
100
AcDbEntity
  8
0
  6
Continuous
 62
               4
100
AcDbCircle
 10
557.82951660242929
 20
404.40290808494535
 30
0.0
 40
1.5
  0
CIRCLE
  5
15A
100
AcDbEntity
  8
0
  6
Continuous
 62
               4
100
AcDbCircle
 10
302.82951660242867
 20
404.40290808494535
 30
0.0
 40
1.5
  0
CIRCLE
  5
15B
100
AcDbEntity
  8
0
  6
Continuous
 62
               4
100
AcDbCircle
 10
302.82951660242867
 20
404.40290808494535
 30
0.0
 40
1.5
  0
CIRCLE
  5
15C
100
AcDbEntity
  8
0
  6
Continuous
 62
               4
100
AcDbCircle
 10
343.32951660242867
 20
321.40290808494547
 30
0.0
 40
1.5
  0
CIRCLE
  5
15D
100
AcDbEntity
  8
0
  6
Continuous
 62
               4
100
AcDbCircle
 10
343.32951660242867
 20
351.40290808494547
 30
0.0
 40
1.5
  0
CIRCLE
  5
15E
100
AcDbEntity
  8
0
  6
Continuous
 62
               4
100
AcDbCircle
 10
343.32951660242867
 20
321.40290808494547
 30
0.0
 40
1.5
  0
CIRCLE
  5
15F
100
AcDbEntity
  8
0
  6
Continuous
 62
               4
100
AcDbCircle
 10
343.32951660242867
 20
298.40290808494535
 30
0.0
 40
1.5
  0
CIRCLE
  5
160
100
AcDbEntity
  8
0
  6
Continuous
 62
               4
100
AcDbCircle
 10
359.32951660242867
 20
321.40290808494547
 30
0.0
 40
1.5
  0
CIRCLE
  5
161
100
AcDbEntity
  8
0
  6
Continuous
 62
               4
100
AcDbCircle
 10
359.32951660242867
 20
316.40290808494535
 30
0.0
 40
1.5
  0
CIRCLE
  5
162
100
AcDbEntity
  8
0
  6
Continuous
 62
               4
100
AcDbCircle
 10
359.32951660242867
 20
316.40290808494535
 30
0.0
 40
1.5
  0
CIRCLE
  5
163
100
AcDbEntity
  8
0
  6
Continuous
 62
               4
100
AcDbCircle
 10
359.32951660242867
 20
298.40290808494535
 30
0.0
 40
1.5
  0
ARC
  5
164
100
AcDbEntity
  8
0
  6
Continuous
 62
               6
100
AcDbCircle
 10
521.72951669779627
 20
293.80290818031267
 30
0.0
 40
2.2999999523162842
100
AcDbArc
 50
0.0
 51
90.000000000000028
  0
ARC
  5
165
100
AcDbEntity
  8
0
  6
Continuous
 62
               6
100
AcDbCircle
 10
521.72951669779627
 20
293.80290818031267
 30
0.0
 40
4.5999999046325684
100
AcDbArc
 50
0.0
 51
90.000000000000028
  0
ARC
  5
166
100
AcDbEntity
  8
0
  6
Continuous
 62
               6
100
AcDbCircle
 10
480.92951650706124
 20
293.80290818031267
 30
0.0
 40
2.2999999523162842
100
AcDbArc
 50
90.000000000000028
 51
180.0
  0
ARC
  5
167
100
AcDbEntity
  8
0
  6
Continuous
 62
               6
100
AcDbCircle
 10
480.92951650706124
 20
293.80290818031267
 30
0.0
 40
4.5999999046325684
100
AcDbArc
 50
90.000000000000028
 51
180.0
  0
ARC
  5
168
100
AcDbEntity
  8
0
  6
Continuous
 62
               6
100
AcDbCircle
 10
480.92951650706124
 20
203.00290798957761
 30
0.0
 40
4.5999999046325684
100
AcDbArc
 50
180.0
 51
270.0
  0
ARC
  5
169
100
AcDbEntity
  8
0
  6
Continuous
 62
               6
100
AcDbCircle
 10
480.92951650706124
 20
203.00290798957761
 30
0.0
 40
2.2999999523162842
100
AcDbArc
 50
180.0
 51
270.0
  0
ARC
  5
16A
100
AcDbEntity
  8
0
  6
Continuous
 62
               6
100
AcDbCircle
 10
521.72951669779627
 20
203.00290798957761
 30
0.0
 40
2.2999999523162842
100
AcDbArc
 50
270.0
 51
0.0
  0
ARC
  5
16B
100
AcDbEntity
  8
0
  6
Continuous
 62
               6
100
AcDbCircle
 10
521.72951669779627
 20
203.00290798957761
 30
0.0
 40
4.5999999046325684
100
AcDbArc
 50
270.0
 51
0.0
  0
ARC
  5
16C
100
AcDbEntity
  8
0
  6
Continuous
 62
               2
100
AcDbCircle
 10
555.32951660242884
 20
318.90290808494547
 30
0.0
 40
2.5000000000000142
100
AcDbArc
 50
270.0
 51
90.0
  0
ARC
  5
16D
100
AcDbEntity
  8
0
  6
Continuous
 62
               6
100
AcDbCircle
 10
468.32951660242878
 20
197.4029080849451
 30
0.0
 40
2.0
100
AcDbArc
 50
180.0
 51
270.0
  0
ARC
  5
16E
100
AcDbEntity
  8
0
  6
Continuous
 62
               6
100
AcDbCircle
 10
495.32951660242878
 20
170.4029080849451
 30
0.0
 40
2.0
100
AcDbArc
 50
180.0
 51
270.0
  0
ARC
  5
16F
100
AcDbEntity
  8
0
  6
Continuous
 62
               6
100
AcDbCircle
 10
489.32951660242878
 20
191.4029080849451
 30
0.0
 40
4.0
100
AcDbArc
 50
0.0
 51
90.000000000000199
  0
ARC
  5
170
100
AcDbEntity
  8
0
  6
Continuous
 62
               6
100
AcDbCircle
 10
524.32951660242884
 20
164.40290808494521
 30
0.0
 40
2.0
100
AcDbArc
 50
0.0
 51
90.000000000000028
  0
ARC
  5
171
100
AcDbEntity
  8
0
  6
Continuous
 62
               6
100
AcDbCircle
 10
497.32951660242878
 20
191.4029080849451
 30
0.0
 40
2.0
100
AcDbArc
 50
0.0
 51
90.000000000000028
  0
ARC
  5
172
100
AcDbEntity
  8
0
  6
Continuous
 62
               6
100
AcDbCircle
 10
503.3295166024289
 20
170.4029080849451
 30
0.0
 40
4.0
100
AcDbArc
 50
180.0
 51
270.0
  0
ARC
  5
173
100
AcDbEntity
  8
0
  6
Continuous
 62
               2
100
AcDbCircle
 10
526.32951660242861
 20
107.90290808494521
 30
0.0
 40
1.500000000000004
100
AcDbArc
 50
180.0
 51
0.0
  0
ARC
  5
174
100
AcDbEntity
  8
0
  6
Continuous
 62
               7
100
AcDbCircle
 10
514.70973979644964
 20
152.0433054615003
 30
0.0
 40
13.0
100
AcDbArc
 50
247.38013505196099
 51
292.61986494804154
  0
ARC
  5
175
100
AcDbEntity
  8
0
  6
Continuous
 62
               7
100
AcDbCircle
 10
534.1999614597737
 20
155.46863565522014
 30
0.0
 40
20.0
100
AcDbArc
 50
161.71562731393624
 51
181.7917310571265
  0
ARC
  5
176
100
AcDbEntity
  8
0
  6
Continuous
 62
               2
100
AcDbCircle
 10
532.07951660242884
 20
279.15291191738538
 30
0.0
 40
0.750000000000007
100
AcDbArc
 50
180.0
 51
0.0
  0
ARC
  5
177
100
AcDbEntity
  8
0
  6
Continuous
 62
               7
100
AcDbCircle
 10
454.81772075016801
 20
286.23685454457507
 30
0.0
 40
30.0
100
AcDbArc
 50
344.86278517270802
 51
2.9923020128758626
  0
ARC
  5
178
100
AcDbEntity
  8
0
  6
Continuous
 62
               7
100
AcDbCircle
 10
468.55499851175358
 20
287.436854544575
 30
0.0
 40
30.0
100
AcDbArc
 50
344.86278517270802
 51
2.9923020128758626
  0
ARC
  5
179
100
AcDbEntity
  8
0
  6
Continuous
 62
               2
100
AcDbCircle
 10
555.57951660242884
 20
319.15290804236258
 30
0.0
 40
0.749999999999996
100
AcDbArc
 50
269.99999024077198
 51
89.999990240771467
  0
ARC
  5
17A
100
AcDbEntity
  8
0
  6
Continuous
 62
               2
100
AcDbCircle
 10
278.76252930431832
 20
338.89457783574807
 30
0.0
 40
0.500000000000016
100
AcDbArc
 50
150.00000000000108
 51
329.99999999999943
  0
ARC
  5
17B
100
AcDbEntity
  8
0
  6
Continuous
 62
               2
100
AcDbCircle
 10
278.74458011188716
 20
338.46156513385591
 30
0.0
 40
2.5000000000000009
100
AcDbArc
 50
149.9999999999998
 51
329.99999999999989
  0
ARC
  5
17C
100
AcDbEntity
  8
0
  6
Continuous
 62
               2
100
AcDbCircle
 10
285.19313727040407
 20
345.13079376791603
 30
0.0
 40
0.249999999999996
100
AcDbArc
 50
329.99999999999943
 51
149.99999999999943
  0
ARC
  5
17D
100
AcDbEntity
  8
0
  6
Continuous
 62
               7
100
AcDbCircle
 10
293.62328829078245
 20
289.13285672650204
 30
0.0
 40
30.0
100
AcDbArc
 50
344.86278517270802
 51
2.9923020128758626
  0
TEXT
  5
17E
100
AcDbEntity
  8
0
 62
               7
100
AcDbText
 10
540.53214609420274
 20
343.90382415912984
 30
0.0
 40
9.600000381469739
  1
25
 41
0.7695
  7
FontTableH_0
 72
               5
 11
550.13214647567247
 21
343.90382415912984
 31
0.0
100
AcDbText
  0
TEXT
  5
17F
100
AcDbEntity
  8
0
 62
               7
100
AcDbText
 10
577.33280527389024
 20
293.60429412983297
 30
0.0
 40
9.600000381469739
  1
40
 50
89.999982013910653
 41
0.7695
  7
FontTableH_0
 72
               5
 11
577.33280828748855
 21
303.20429451130224
 31
0.0
100
AcDbText
  0
TEXT
  5
180
100
AcDbEntity
  8
0
 62
               7
100
AcDbText
 10
605.83280527389024
 20
336.63154632709859
 30
0.0
 40
8.9999997615814333
  1
ケラバ唐草：屋根同材
 41
0.7695
  7
FontTableH_0
 72
               5
 11
695.83280288970457
 21
336.63154632709859
 31
0.0
100
AcDbText
  0
TEXT
  5
181
100
AcDbEntity
  8
0
 62
               7
100
AcDbText
 10
610.58475839889024
 20
269.35365326069234
 30
0.0
 40
8.9999997615814333
  1
破風板：屋根同材
 41
0.7695
  7
FontTableH_0
 72
               5
 11
682.58475649154173
 21
269.35365326069234
 31
0.0
100
AcDbText
  0
TEXT
  5
182
100
AcDbEntity
  8
0
 62
               7
100
AcDbText
 10
609.60526621139024
 20
165.59111053608299
 30
0.0
 40
8.9999997615814333
  1
力板
 41
0.7695
  7
FontTableH_0
 72
               5
 11
627.60526573455309
 21
165.59111053608299
 31
0.0
100
AcDbText
  0
TEXT
  5
183
100
AcDbEntity
  8
0
 62
               7
100
AcDbText
 10
527.93204843795274
 20
258.90412933491109
 30
0.0
 40
9.600000381469739
  1
5
 41
0.7695
  7
FontTableH_0
 72
               5
 11
532.73204862868761
 21
258.90412933491109
 31
0.0
100
AcDbText
  0
TEXT
  5
184
100
AcDbEntity
  8
0
 62
               7
100
AcDbText
 10
171.6016041020153
 20
435.90345794819234
 30
0.0
 40
8.9999997615814333
  1
硬質木片セメント板 18mm
 41
0.7695
  7
FontTableH_0
 72
               5
 11
256.61946163656012
 21
435.90345794819234
 31
0.0
100
AcDbText
  0
TEXT
  5
185
100
AcDbEntity
  8
0
 62
               7
100
AcDbText
 10
396.7311207035778
 20
405.90345794819234
 30
0.0
 40
9.600000381469739
  1
（割付により調整）
 41
0.7695
  7
FontTableH_0
 72
               5
 11
483.13112413680545
 21
405.90345794819234
 31
0.0
100
AcDbText
  0
TEXT
  5
186
100
AcDbEntity
  8
0
 62
               7
100
AcDbText
 10
171.6016041020153
 20
451.90400726459859
 30
0.0
 40
8.9999997615814333
  1
アスファルトルーフィング 22kg
 41
0.7695
  7
FontTableH_0
 72
               5
 11
282.91042193743061
 21
451.90400726459859
 31
0.0
100
AcDbText
  0
TEXT
  5
187
100
AcDbEntity
  8
0
 62
               7
100
AcDbText
 10
341.8324390629528
 20
331.60383636616109
 30
0.0
 40
9.600000381469739
  1
30
 50
89.999982013910653
 41
0.7695
  7
FontTableH_0
 72
               5
 11
341.8324420765511
 21
341.20383674763036
 31
0.0
100
AcDbText
  0
TEXT
  5
188
100
AcDbEntity
  8
0
 62
               7
100
AcDbText
 10
341.8324390629528
 20
305.10389740131734
 30
0.0
 40
9.600000381469739
  1
23
 50
89.999982013910653
 41
0.7695
  7
FontTableH_0
 72
               5
 11
341.8324420765511
 21
314.70389778278661
 31
0.0
100
AcDbText
  0
TEXT
  5
189
100
AcDbEntity
  8
0
 62
               7
100
AcDbText
 10
357.8312183598278
 20
322.50282318256734
 30
0.0
 40
9.600000381469739
  1
5
 50
89.999982013910653
 41
0.7695
  7
FontTableH_0
 72
               5
 11
357.83121986662695
 21
327.30282337330198
 31
0.0
100
AcDbText
  0
TEXT
  5
18A
100
AcDbEntity
  8
0
 62
               7
100
AcDbText
 10
357.8312183598278
 20
302.60285980366109
 30
0.0
 40
9.600000381469739
  1
18
 50
89.999982013910653
 41
0.7695
  7
FontTableH_0
 72
               5
 11
357.8312213734261
 21
312.20286018513036
 31
0.0
100
AcDbText
  0
TEXT
  5
18B
100
AcDbEntity
  8
0
 62
               7
100
AcDbText
 10
740.28679787570582
 20
26.713203554805766
 30
0.0
 40
8.9999997615814333
  1
ケラバ詳細図 【S=1/3】
 41
0.7695
  7
FontTableH_0
 72
               5
 11
839.28679525310156
 21
26.713203554805766
 31
0.0
100
AcDbText
  0
TEXT
  5
18C
100
AcDbEntity
  8
0
 62
               7
100
AcDbText
 10
171.6016041020153
 20
467.90339691303609
 30
0.0
 40
8.9999997615814333
  1
ストロングルーフ SF：各種金属板
 41
0.7695
  7
FontTableH_0
 72
               5
 11
298.79277377942731
 21
467.90339691303609
 31
0.0
100
AcDbText
  0
TEXT
  5
18D
100
AcDbEntity
  8
0
 62
               7
100
AcDbText
 10
26.142137292660934
 20
601.35786449547834
 30
0.0
 40
8.9999997615814333
  1
ハーパーズストロングルーフSF
 41
0.7695
  7
FontTableH_0
 72
               5
 11
152.14213395480101
 21
601.35786449547834
 31
0.0
100
AcDbText
  0
TEXT
  5
18E
100
AcDbEntity
  8
0
 62
               7
100
AcDbText
 10
225.83262216842155
 20
405.9039462294424
 30
0.0
 40
9.6000000000000103
  1
＠400
 41
0.7695
  7
FontTableH_0
 72
               5
 11
249.83262216842158
 21
405.9039462294424
 31
0.0
100
AcDbText
  0
ENDSEC
  0
SECTION
  2
OBJECTS
  0
DICTIONARY
  5
19
100
AcDbDictionary
  3
ACAD_GROUP
350
1A
  3
ACAD_MLINESTYLE
350
1B
  3
DWGPROPS
350
18F
  0
DICTIONARY
  5
1A
102
{ACAD_REACTORS
330
19
102
}
100
AcDbDictionary
  0
DICTIONARY
  5
1B
102
{ACAD_REACTORS
330
19
102
}
100
AcDbDictionary
  3
STANDARD
350
1C
  0
MLINESTYLE
  5
1C
102
{ACAD_REACTORS
330
1B
102
}
100
AcDbMlineStyle
  2
Standard
 70
               0
  3

 62
               0
 51
90.0
 52
90.0
 71
               2
 49
0.5
 62
             256
  6
ByLayer
 49
-0.5
 62
             256
  6
ByLayer
  0
XRECORD
  5
18F
100
AcDbXrecord
  1
DWGPROPS COOKIE
  2

  3

  4

  6

  7

  0
ENDSEC
  0
EOF
