  0
SECTION
  2
HEADER
  9
$ACADVER
  1
AC1014
  9
$ACADMAINTVER
 70
               0
  9
$DWGCODEPAGE
  3
ANSI_932
  9
$INSBASE
 10
0.0
 20
0.0
 30
0.0
  9
$EXTMIN
 10
0.0
 20
0.0
 30
0.0
  9
$EXTMAX
 10
891.00000000000091
 20
630.00000000000068
 30
0.0
  9
$LIMMIN
 10
0.0
 20
0.0
  9
$LIMMAX
 10
891.00000000000091
 20
630.00000000000068
  9
$ORTHOMODE
 70
               0
  9
$REGENMODE
 70
               1
  9
$FILLMODE
 70
               1
  9
$QTEXTMODE
 70
               0
  9
$MIRRTEXT
 70
               1
  9
$DRAGMODE
 70
               2
  9
$LTSCALE
 40
3.0000000000000031
  9
$OSMODE
 70
               0
  9
$ATTMODE
 70
               1
  9
$TEXTSIZE
 40
0.2
  9
$TRACEWID
 40
0.05
  9
$TEXTSTYLE
  7
Standard
  9
$CLAYER
  8
0
  9
$CELTYPE
  6
Continuous
  9
$CECOLOR
 62
             256
  9
$CELTSCALE
 40
1.0
  9
$DELOBJ
 70
               1
  9
$DISPSILH
 70
               0
  9
$DIMSCALE
 40
1.0
  9
$DIMASZ
 40
0.18
  9
$DIMEXO
 40
0.0625
  9
$DIMDLI
 40
0.38
  9
$DIMRND
 40
0.0
  9
$DIMDLE
 40
0.0
  9
$DIMEXE
 40
0.18
  9
$DIMTP
 40
0.0
  9
$DIMTM
 40
0.0
  9
$DIMTXT
 40
0.18
  9
$DIMCEN
 40
0.09
  9
$DIMTSZ
 40
0.0
  9
$DIMTOL
 70
               0
  9
$DIMLIM
 70
               0
  9
$DIMTIH
 70
               1
  9
$DIMTOH
 70
               1
  9
$DIMSE1
 70
               0
  9
$DIMSE2
 70
               0
  9
$DIMTAD
 70
               0
  9
$DIMZIN
 70
               0
  9
$DIMBLK
  1

  9
$DIMASO
 70
               1
  9
$DIMSHO
 70
               1
  9
$DIMPOST
  1

  9
$DIMAPOST
  1

  9
$DIMALT
 70
               0
  9
$DIMALTD
 70
               2
  9
$DIMALTF
 40
25.399999999999999
  9
$DIMLFAC
 40
1.0
  9
$DIMTOFL
 70
               0
  9
$DIMTVP
 40
0.0
  9
$DIMTIX
 70
               0
  9
$DIMSOXD
 70
               0
  9
$DIMSAH
 70
               0
  9
$DIMBLK1
  1

  9
$DIMBLK2
  1

  9
$DIMSTYLE
  2
Standard
  9
$DIMCLRD
 70
               0
  9
$DIMCLRE
 70
               0
  9
$DIMCLRT
 70
               0
  9
$DIMTFAC
 40
1.0
  9
$DIMGAP
 40
0.09
  9
$DIMJUST
 70
               0
  9
$DIMSD1
 70
               0
  9
$DIMSD2
 70
               0
  9
$DIMTOLJ
 70
               1
  9
$DIMTZIN
 70
               0
  9
$DIMALTZ
 70
               0
  9
$DIMALTTZ
 70
               0
  9
$DIMFIT
 70
               3
  9
$DIMUPT
 70
               0
  9
$DIMUNIT
 70
               2
  9
$DIMDEC
 70
               4
  9
$DIMTDEC
 70
               4
  9
$DIMALTU
 70
               2
  9
$DIMALTTD
 70
               2
  9
$DIMTXSTY
  7
Standard
  9
$DIMAUNIT
 70
               0
  9
$LUNITS
 70
               2
  9
$LUPREC
 70
               4
  9
$SKETCHINC
 40
0.1
  9
$FILLETRAD
 40
0.0
  9
$AUNITS
 70
               0
  9
$AUPREC
 70
               0
  9
$MENU
  1
acad
  9
$ELEVATION
 40
0.0
  9
$PELEVATION
 40
0.0
  9
$THICKNESS
 40
0.0
  9
$LIMCHECK
 70
               0
  9
$BLIPMODE
 70
               1
  9
$CHAMFERA
 40
0.0
  9
$CHAMFERB
 40
0.0
  9
$CHAMFERC
 40
0.0
  9
$CHAMFERD
 40
0.0
  9
$SKPOLY
 70
               0
  9
$TDCREATE
 40
0.000000000
  9
$TDUPDATE
 40
0.000000000
  9
$TDINDWG
 40
0.0000000000
  9
$TDUSRTIMER
 40
0.0000000000
  9
$USRTIMER
 70
               1
  9
$ANGBASE
 50
0.0
  9
$ANGDIR
 70
               0
  9
$PDMODE
 70
               0
  9
$PDSIZE
 40
0.0
  9
$PLINEWID
 40
0.0
  9
$COORDS
 70
               0
  9
$SPLFRAME
 70
               0
  9
$SPLINETYPE
 70
               6
  9
$SPLINESEGS
 70
               8
  9
$ATTDIA
 70
               0
  9
$ATTREQ
 70
               1
  9
$HANDLING
 70
               1
  9
$HANDSEED
  5
1AE
  9
$SURFTAB1
 70
               6
  9
$SURFTAB2
 70
               6
  9
$SURFTYPE
 70
               6
  9
$SURFU
 70
               6
  9
$SURFV
 70
               6
  9
$UCSNAME
  2

  9
$UCSORG
 10
0.0
 20
0.0
 30
0.0
  9
$UCSXDIR
 10
1.0
 20
0.0
 30
0.0
  9
$UCSYDIR
 10
0.0
 20
1.0
 30
0.0
  9
$PUCSNAME
  2

  9
$PUCSORG
 10
0.0
 20
0.0
 30
0.0
  9
$PUCSXDIR
 10
1.0
 20
0.0
 30
0.0
  9
$PUCSYDIR
 10
0.0
 20
1.0
 30
0.0
  9
$USERI1
 70
               0
  9
$USERI2
 70
               0
  9
$USERI3
 70
               0
  9
$USERI4
 70
               0
  9
$USERI5
 70
               0
  9
$USERR1
 40
0.0
  9
$USERR2
 40
0.0
  9
$USERR3
 40
0.0
  9
$USERR4
 40
0.0
  9
$USERR5
 40
0.0
  9
$WORLDVIEW
 70
               1
  9
$SHADEDGE
 70
               3
  9
$SHADEDIF
 70
              70
  9
$TILEMODE
 70
               1
  9
$MAXACTVP
 70
              16
  9
$PINSBASE
 10
0.0
 20
0.0
 30
0.0
  9
$PLIMCHECK
 70
               0
  9
$PEXTMIN
 10
1.0000000000000000E+20
 20
1.0000000000000000E+20
 30
1.0000000000000000E+20
  9
$PEXTMAX
 10
-1.0000000000000000E+20
 20
-1.0000000000000000E+20
 30
-1.0000000000000000E+20
  9
$PLIMMIN
 10
0.0
 20
0.0
  9
$PLIMMAX
 10
12.0
 20
9.0
  9
$UNITMODE
 70
               0
  9
$VISRETAIN
 70
               0
  9
$PLINEGEN
 70
               1
  9
$PSLTSCALE
 70
               0
  9
$TREEDEPTH
 70
            3020
  9
$PICKSTYLE
 70
               1
  9
$CMLSTYLE
  2
Standard
  9
$CMLJUST
 70
               0
  9
$CMLSCALE
 40
1.0
  9
$PROXYGRAPHICS
 70
               0
  9
$MEASUREMENT
 70
               0
  0
ENDSEC
  0
SECTION
  2
CLASSES
  0
CLASS
  1
LWPOLYLINE
  2
AcDbPolyline
  3
"AutoCAD"
 90
        0
280
               0
281
               1
  0
CLASS
  1
IMAGE
  2
AcDbRasterImage
  3
ISM
 90
      127
280
               0
281
               1
  0
CLASS
  1
OLE2FRAME
  2
AcDbOle2Frame
  3
""
 90
        0
280
               0
281
               1
  0
CLASS
  1
HATCH
  2
AcDbHatch
  3
"ACAD_SEDONA"
 90
        0
280
               0
281
               1
  0
CLASS
  1
DICTIONARYVAR
  2
AcDbDictionaryVar
  3
"AutoCAD"
 90
        0
280
               0
281
               0
  0
CLASS
  1
RASTERVARIABLES
  2
AcDbRasterVariables
  3
ISM
 90
        0
280
               0
281
               0
  0
CLASS
  1
IMAGEDEF
  2
AcDbRasterImageDef
  3
ISM
 90
        0
280
               0
281
               0
  0
CLASS
  1
IMAGEDEF_REACTOR
  2
AcDbRasterImageDefReactor
  3
ISM
 90
        1
280
               0
281
               0
  0
CLASS
  1
IDBUFFER
  2
AcDbIdBuffer
  3
"Acad"
 90
        0
280
               0
281
               0
  0
CLASS
  1
SPATIAL_FILTER
  2
AcDbSpatialFilter
  3
"Acad"
 90
        0
280
               0
281
               0
  0
CLASS
  1
XRECORD
  2
AcDbXrecord
  3
"<Built In>"
 90
        0
280
               0
281
               0
  0
CLASS
  1
SORTENTSTABLE
  2
AcDbSortentsTable
  3
"AutoCAD"
 90
        0
280
               0
281
               0
  0
CLASS
  1
LAYER_INDEX
  2
AcDbLayerIndex
  3
"Acad"
 90
        0
280
               0
281
               0
  0
CLASS
  1
SPATIAL_INDEX
  2
AcDbSpatialIndex
  3
"Acad"
 90
        0
280
               0
281
               0
  0
CLASS
  1
OBJECT_PTR
  2
CAseDLPNTableRecord
  3
"ASE-LPNTableRecord"
 90
        1
280
               0
281
               0
  0
CLASS
  1
LAYOUT
  2
AcDbLayout
  3
"AutoCAD 2000"
 90
        0
280
               0
281
               0
  0
CLASS
  1
PLOTSETTINGS
  2
AcDbPlotSettings
  3
"AutoCAD 2000"
 90
        0
280
               0
281
               0
  0
CLASS
  1
ACDBDICTIONARYWDFLT
  2
AcDbDictionaryWithDefault
  3
"AutoCAD 2000"
 90
        0
280
               0
281
               0
  0
CLASS
  1
ACDBPLACEHOLDER
  2
AcDbPlaceHolder
  3
"AutoCAD 2000"
 90
        0
280
               0
281
               0
  0
CLASS
  1
VBA_PROJECT
  2
AcDbVbaProject
  3
"acadvba"
 90
        0
280
               0
281
               0
  0
CLASS
  1
WIPEOUT
  2
AcDbWipeout
  3
WipeOut|AutoCAD Express Tool|expresstools@autodesk.com
 90
      127
280
               0
281
               1
  0
CLASS
  1
WIPEOUTVARIABLES
  2
AcDbWipeoutVariables
  3
WipeOut|AutoCAD Express Tool|expresstools@autodesk.com
 90
        0
280
               0
281
               0
  0
CLASS
  1
RTEXT
  2
RText
  3
RText|AutoCAD Express Tool|expresstools@autodesk.com
 90
        0
280
               0
281
               1
  0
CLASS
  1
ARCALIGNEDTEXT
  2
AcDbArcAlignedText
  3
ATEXT|AutoCAD Express Tool|expresstools@autodesk.com
 90
        0
280
               0
281
               1
  0
ENDSEC
  0
SECTION
  2
TABLES
  0
TABLE
  2
VPORT
  5
7
100
AcDbSymbolTable
 70
               1
  0
VPORT
  5
15
100
AcDbSymbolTableRecord
100
AcDbViewportTableRecord
  2
*ACTIVE
 70
               0
 10
0.0
 20
0.0
 11
1.0
 21
1.0
 12
445.50000000000045
 22
315.00000000000034
 13
0.0
 23
0.0
 14
10.0
 24
10.0
 15
10.0
 25
10.0
 16
0.0
 26
0.0
 36
1.0
 17
0.0
 27
0.0
 37
0.0
 40
630.00000000000068
 41
1.4142857142857141
 42
50.0
 43
0.0
 44
0.0
 50
0.0
 51
0.0
 71
               0
 72
             100
 73
               1
 74
               1
 75
               0
 76
               0
 77
               0
 78
               0
  0
ENDTAB
  0
TABLE
  2
LTYPE
  5
4
100
AcDbSymbolTable
 70
              24
  0
LTYPE
  5
11
100
AcDbSymbolTableRecord
100
AcDbLinetypeTableRecord
  2
ByBlock
 70
              64
  3

 72
              65
 73
               0
 40
0.0
  0
LTYPE
  5
12
100
AcDbSymbolTableRecord
100
AcDbLinetypeTableRecord
  2
ByLayer
 70
              64
  3

 72
              65
 73
               0
 40
0.0
  0
LTYPE
  5
13
100
AcDbSymbolTableRecord
100
AcDbLinetypeTableRecord
  2
Continuous
 70
              64
  3
Solid line
 72
              65
 73
               0
 40
0.0
  0
LTYPE
  5
1D
100
AcDbSymbolTableRecord
100
AcDbLinetypeTableRecord
  2
DOT
 70
              64
  3
Dot . . . . . . . . . . . . . . . . . . . . . .
 72
              65
 73
               2
 40
6.3499999999999996
 49
0.35
 74
               0
 49
-6.0
 74
               0
  0
LTYPE
  5
1E
100
AcDbSymbolTableRecord
100
AcDbLinetypeTableRecord
  2
DASHED
 70
              64
  3
Dashed __ __ __ __ __ __ __ __ __ __ __ __ __ _
 72
              65
 73
               2
 40
12.699999999999999
 49
6.3499999999999996
 74
               0
 49
-6.3499999999999996
 74
               0
  0
LTYPE
  5
1F
100
AcDbSymbolTableRecord
100
AcDbLinetypeTableRecord
  2
DASHDOT
 70
              64
  3
Dash dot __ . __ . __ . __ . __ . __ . __ . __
 72
              65
 73
               4
 40
25.399999999999999
 49
12.699999999999999
 74
               0
 49
-6.0
 74
               0
 49
0.7
 74
               0
 49
-6.0
 74
               0
  0
LTYPE
  5
20
100
AcDbSymbolTableRecord
100
AcDbLinetypeTableRecord
  2
DIVIDE
 70
              64
  3
Divide ____ . . ____ . . ____ . . ____ . . ____
 72
              65
 73
               6
 40
31.75
 49
12.699999999999999
 74
               0
 49
-6.0
 74
               0
 49
0.875
 74
               0
 49
-6.0
 74
               0
 49
0.875
 74
               0
 49
-6.0
 74
               0
  0
LTYPE
  5
21
100
AcDbSymbolTableRecord
100
AcDbLinetypeTableRecord
  2
HIDDEN
 70
              64
  3
Hidden __ __ __ __ __ __ __ __ __ __ __ __ __ _
 72
              65
 73
               2
 40
9.5250000000000004
 49
6.3499999999999996
 74
               0
 49
-3.1749999999999998
 74
               0
  0
LTYPE
  5
22
100
AcDbSymbolTableRecord
100
AcDbLinetypeTableRecord
  2
CENTER
 70
              64
  3
Center ____ _ ____ _ ____ _ ____ _ ____ _ ____
 72
              65
 73
               4
 40
50.799999999999997
 49
31.75
 74
               0
 49
-6.3499999999999996
 74
               0
 49
6.3499999999999996
 74
               0
 49
-6.3499999999999996
 74
               0
  0
LTYPE
  5
23
100
AcDbSymbolTableRecord
100
AcDbLinetypeTableRecord
  2
PHANTOM
 70
              64
  3
Phantom ______  __  __  ______  __  __  ______
 72
              65
 73
               6
 40
63.5
 49
31.75
 74
               0
 49
-6.3499999999999996
 74
               0
 49
6.3499999999999996
 74
               0
 49
-6.3499999999999996
 74
               0
 49
6.3499999999999996
 74
               0
 49
-6.3499999999999996
 74
               0
  0
LTYPE
  5
24
100
AcDbSymbolTableRecord
100
AcDbLinetypeTableRecord
  2
ACAD_ISO02W100
 70
              64
  3
ISO dash __ __ __ __ __ __ __ __ __ __ __ __ __
 72
              65
 73
               2
 40
15.0
 49
12.0
 74
               0
 49
-3.0
 74
               0
  0
LTYPE
  5
25
100
AcDbSymbolTableRecord
100
AcDbLinetypeTableRecord
  2
ACAD_ISO03W100
 70
              64
  3
ISO dash space __ __ __ __ __ __ __ __ __ __ __ __ __ __
 72
              65
 73
               2
 40
30.0
 49
12.0
 74
               0
 49
-18.0
 74
               0
  0
LTYPE
  5
26
100
AcDbSymbolTableRecord
100
AcDbLinetypeTableRecord
  2
ACAD_ISO04W100
 70
              64
  3
ISO long-dash dot ____ . ____ . ____ . ____ . _
 72
              65
 73
               4
 40
30.0
 49
24.0
 74
               0
 49
-3.0
 74
               0
 49
0.0
 74
               0
 49
-3.0
 74
               0
  0
LTYPE
  5
27
100
AcDbSymbolTableRecord
100
AcDbLinetypeTableRecord
  2
ACAD_ISO05W100
 70
              64
  3
ISO long-dash double-dot ____ .. ____ .. ____ .
 72
              65
 73
               6
 40
33.0
 49
24.0
 74
               0
 49
-3.0
 74
               0
 49
0.0
 74
               0
 49
-3.0
 74
               0
 49
0.0
 74
               0
 49
-3.0
 74
               0
  0
LTYPE
  5
28
100
AcDbSymbolTableRecord
100
AcDbLinetypeTableRecord
  2
ACAD_ISO06W100
 70
              64
  3
ISO long-dash triple-dot ____ ... ____ ... ____
 72
              65
 73
               8
 40
36.0
 49
24.0
 74
               0
 49
-3.0
 74
               0
 49
0.0
 74
               0
 49
-3.0
 74
               0
 49
0.0
 74
               0
 49
-3.0
 74
               0
 49
0.0
 74
               0
 49
-3.0
 74
               0
  0
LTYPE
  5
29
100
AcDbSymbolTableRecord
100
AcDbLinetypeTableRecord
  2
ACAD_ISO07W100
 70
              64
  3
ISO dot . . . . . . . . . . . . . . . . . . . .
 72
              65
 73
               2
 40
3.0
 49
0.0
 74
               0
 49
-3.0
 74
               0
  0
LTYPE
  5
2A
100
AcDbSymbolTableRecord
100
AcDbLinetypeTableRecord
  2
ACAD_ISO08W100
 70
              64
  3
ISO long-dash short-dash ____ __ ____ __ ____ _
 72
              65
 73
               4
 40
36.0
 49
24.0
 74
               0
 49
-3.0
 74
               0
 49
6.0
 74
               0
 49
-3.0
 74
               0
  0
LTYPE
  5
2B
100
AcDbSymbolTableRecord
100
AcDbLinetypeTableRecord
  2
ACAD_ISO09W100
 70
              64
  3
ISO long-dash double-short-dash ____ __ __ ____
 72
              65
 73
               6
 40
45.0
 49
24.0
 74
               0
 49
-3.0
 74
               0
 49
6.0
 74
               0
 49
-3.0
 74
               0
 49
6.0
 74
               0
 49
-3.0
 74
               0
  0
LTYPE
  5
2C
100
AcDbSymbolTableRecord
100
AcDbLinetypeTableRecord
  2
ACAD_ISO10W100
 70
              64
  3
ISO dash dot __ . __ . __ . __ . __ . __ . __ .
 72
              65
 73
               4
 40
18.0
 49
12.0
 74
               0
 49
-3.0
 74
               0
 49
0.0
 74
               0
 49
-3.0
 74
               0
  0
LTYPE
  5
2D
100
AcDbSymbolTableRecord
100
AcDbLinetypeTableRecord
  2
ACAD_ISO11W100
 70
              64
  3
ISO double-dash dot __ __ . __ __ . __ __ . __ 
 72
              65
 73
               6
 40
33.0
 49
12.0
 74
               0
 49
-3.0
 74
               0
 49
12.0
 74
               0
 49
-3.0
 74
               0
 49
0.0
 74
               0
 49
-3.0
 74
               0
  0
LTYPE
  5
2E
100
AcDbSymbolTableRecord
100
AcDbLinetypeTableRecord
  2
ACAD_ISO12W100
 70
              64
  3
ISO dash double-dot __ . . __ . . __ . . __ . .
 72
              65
 73
               6
 40
21.0
 49
12.0
 74
               0
 49
-3.0
 74
               0
 49
0.0
 74
               0
 49
-3.0
 74
               0
 49
0.0
 74
               0
 49
-3.0
 74
               0
  0
LTYPE
  5
2F
100
AcDbSymbolTableRecord
100
AcDbLinetypeTableRecord
  2
ACAD_ISO13W100
 70
              64
  3
ISO double-dash double-dot __ __ . . __ __ . . 
 72
              65
 73
               8
 40
36.0
 49
12.0
 74
               0
 49
-3.0
 74
               0
 49
12.0
 74
               0
 49
-3.0
 74
               0
 49
0.0
 74
               0
 49
-3.0
 74
               0
 49
0.0
 74
               0
 49
-3.0
 74
               0
  0
LTYPE
  5
30
100
AcDbSymbolTableRecord
100
AcDbLinetypeTableRecord
  2
ACAD_ISO14W100
 70
              64
  3
ISO dash triple-dot __ . . . __ . . . __ . . . 
 72
              65
 73
               8
 40
24.0
 49
12.0
 74
               0
 49
-3.0
 74
               0
 49
0.0
 74
               0
 49
-3.0
 74
               0
 49
0.0
 74
               0
 49
-3.0
 74
               0
 49
0.0
 74
               0
 49
-3.0
 74
               0
  0
LTYPE
  5
31
100
AcDbSymbolTableRecord
100
AcDbLinetypeTableRecord
  2
ACAD_ISO15W100
 70
              64
  3
ISO double-dash double-dot __ __ . . __ __ . . 
 72
              65
 73
              10
 40
39.0
 49
12.0
 74
               0
 49
-3.0
 74
               0
 49
12.0
 74
               0
 49
-3.0
 74
               0
 49
0.0
 74
               0
 49
-3.0
 74
               0
 49
0.0
 74
               0
 49
-3.0
 74
               0
 49
0.0
 74
               0
 49
-3.0
 74
               0
  0
ENDTAB
  0
TABLE
  2
LAYER
  5
2
100
AcDbSymbolTable
 70
              16
  0
LAYER
  5
14
100
AcDbSymbolTableRecord
100
AcDbLayerTableRecord
  2
0
 70
               0
 62
               7
  6
Continuous
  0
LAYER
  5
35
100
AcDbSymbolTableRecord
100
AcDbLayerTableRecord
  2
Layer00001
 70
               0
 62
               7
  6
Continuous
  0
LAYER
  5
36
100
AcDbSymbolTableRecord
100
AcDbLayerTableRecord
  2
Layer00002
 70
               0
 62
               7
  6
Continuous
  0
LAYER
  5
37
100
AcDbSymbolTableRecord
100
AcDbLayerTableRecord
  2
Layer00003
 70
               0
 62
               7
  6
Continuous
  0
LAYER
  5
38
100
AcDbSymbolTableRecord
100
AcDbLayerTableRecord
  2
Layer00004
 70
               0
 62
               7
  6
Continuous
  0
LAYER
  5
39
100
AcDbSymbolTableRecord
100
AcDbLayerTableRecord
  2
Layer00005
 70
               0
 62
               7
  6
Continuous
  0
LAYER
  5
3A
100
AcDbSymbolTableRecord
100
AcDbLayerTableRecord
  2
Layer00006
 70
               0
 62
               7
  6
Continuous
  0
LAYER
  5
3B
100
AcDbSymbolTableRecord
100
AcDbLayerTableRecord
  2
Layer00007
 70
               0
 62
               7
  6
Continuous
  0
LAYER
  5
3C
100
AcDbSymbolTableRecord
100
AcDbLayerTableRecord
  2
Layer00008
 70
               0
 62
               7
  6
Continuous
  0
LAYER
  5
3D
100
AcDbSymbolTableRecord
100
AcDbLayerTableRecord
  2
Layer00009
 70
               0
 62
               7
  6
Continuous
  0
LAYER
  5
3E
100
AcDbSymbolTableRecord
100
AcDbLayerTableRecord
  2
Layer00010
 70
               0
 62
               7
  6
Continuous
  0
LAYER
  5
3F
100
AcDbSymbolTableRecord
100
AcDbLayerTableRecord
  2
Layer00011
 70
               0
 62
               7
  6
Continuous
  0
LAYER
  5
40
100
AcDbSymbolTableRecord
100
AcDbLayerTableRecord
  2
Layer00012
 70
               0
 62
               7
  6
Continuous
  0
LAYER
  5
41
100
AcDbSymbolTableRecord
100
AcDbLayerTableRecord
  2
Layer00013
 70
               0
 62
               7
  6
Continuous
  0
LAYER
  5
42
100
AcDbSymbolTableRecord
100
AcDbLayerTableRecord
  2
Layer00014
 70
               0
 62
               7
  6
Continuous
  0
LAYER
  5
43
100
AcDbSymbolTableRecord
100
AcDbLayerTableRecord
  2
Layer00015
 70
               0
 62
               7
  6
Continuous
  0
ENDTAB
  0
TABLE
  2
STYLE
  5
3
100
AcDbSymbolTable
 70
               4
  0
STYLE
  5
17
100
AcDbSymbolTableRecord
100
AcDbTextStyleTableRecord
  2
Standard
 70
               0
 40
0.0
 41
1.0
 50
0.0
 71
               0
 42
0.0
  3
txt.shx
  4
bigfont.shx
  0
STYLE
  5
32
100
AcDbSymbolTableRecord
100
AcDbTextStyleTableRecord
  2
STANDARD_T
 70
               4
 40
0.0
 41
1.0
 50
0.0
 71
               0
 42
0.0
  3
txt.shx
  4
bigfont.shx
  0
STYLE
  5
33
100
AcDbSymbolTableRecord
100
AcDbTextStyleTableRecord
  2
FontTableH_0
 70
               0
 40
0.0
 41
1.0
 50
0.0
 71
               0
 42
0.0
  3
MS Gothic.ttf
  4

1001
ACAD
1000
MS Gothic
1071
    32817
  0
STYLE
  5
34
100
AcDbSymbolTableRecord
100
AcDbTextStyleTableRecord
  2
FontTableV_0
 70
               0
 40
0.0
 41
1.0
 50
0.0
 71
               0
 42
0.0
  3
@MS Gothic.ttf
  4

1001
ACAD
1000
@MS Gothic
1071
    32817
  0
ENDTAB
  0
TABLE
  2
VIEW
  5
5
100
AcDbSymbolTable
 70
               0
  0
ENDTAB
  0
TABLE
  2
UCS
  5
6
100
AcDbSymbolTable
 70
               0
  0
ENDTAB
  0
TABLE
  2
APPID
  5
8
100
AcDbSymbolTable
 70
               1
  0
APPID
  5
16
100
AcDbSymbolTableRecord
100
AcDbRegAppTableRecord
  2
ACAD
 70
               0
  0
ENDTAB
  0
TABLE
  2
DIMSTYLE
  5
9
100
AcDbSymbolTable
 70
               1
  0
DIMSTYLE
105
18
100
AcDbSymbolTableRecord
100
AcDbDimStyleTableRecord
  2
Standard
 70
               0
  3

  4

  5

  6

  7

 40
1.0
 41
0.18
 42
0.0625
 43
0.38
 44
0.18
 45
0.0
 46
0.0
 47
0.0
 48
0.0
 71
               0
 72
               0
 73
               1
 74
               1
 75
               0
 76
               0
 77
               0
 78
               0
140
0.18
141
0.09
142
0.0
143
25.399999999999999
144
1.0
145
0.0
146
1.0
147
0.09
170
               0
171
               2
172
               0
173
               0
174
               0
175
               0
176
               0
177
               0
178
               0
270
               2
271
               4
272
               4
273
               2
274
               2
275
               0
280
               0
281
               0
282
               0
283
               1
284
               0
285
               0
286
               0
287
               0
288
               0
340
17
  0
ENDTAB
  0
TABLE
  2
BLOCK_RECORD
  5
1
100
AcDbSymbolTable
 70
               0
  0
BLOCK_RECORD
  5
A
100
AcDbSymbolTableRecord
100
AcDbBlockTableRecord
  2
*MODEL_SPACE
  0
BLOCK_RECORD
  5
B
100
AcDbSymbolTableRecord
100
AcDbBlockTableRecord
  2
*PAPER_SPACE
  0
ENDTAB
  0
ENDSEC
  0
SECTION
  2
BLOCKS
  0
BLOCK
  5
D
100
AcDbEntity
  8
0
100
AcDbBlockBegin
  2
*MODEL_SPACE
 70
               0
 10
0.0
 20
0.0
 30
0.0
  3
*MODEL_SPACE
  1

  0
ENDBLK
  5
E
100
AcDbEntity
  8
0
100
AcDbBlockEnd
  0
BLOCK
  5
F
100
AcDbEntity
 67
               1
  8
0
100
AcDbBlockBegin
  2
*PAPER_SPACE
 70
               0
 10
0.0
 20
0.0
 30
0.0
  3
*PAPER_SPACE
  1

  0
ENDBLK
  5
10
100
AcDbEntity
 67
               1
  8
0
100
AcDbBlockEnd
  0
ENDSEC
  0
SECTION
  2
ENTITIES
  0
LINE
  5
44
100
AcDbEntity
  8
0
  6
Continuous
 62
               3
100
AcDbLine
 10
319.46149146952109
 20
209.67861215074836
 30
0.0
 11
666.46149146952121
 21
209.67861215074836
 31
0.0
  0
LINE
  5
45
100
AcDbEntity
  8
0
  6
Continuous
 62
               7
100
AcDbLine
 10
437.55276181691988
 20
227.67861215074836
 30
0.0
 11
419.55276181691988
 21
209.67861215074836
 31
0.0
  0
LINE
  5
46
100
AcDbEntity
  8
0
  6
Continuous
 62
               7
100
AcDbLine
 10
430.48169400505446
 20
227.67861215074836
 30
0.0
 11
412.48169400505446
 21
209.67861215074836
 31
0.0
  0
LINE
  5
47
100
AcDbEntity
  8
0
  6
Continuous
 62
               7
100
AcDbLine
 10
423.41062619318893
 20
227.67861215074836
 30
0.0
 11
405.41062619318893
 21
209.67861215074836
 31
0.0
  0
LINE
  5
48
100
AcDbEntity
  8
0
  6
Continuous
 62
               7
100
AcDbLine
 10
416.3395583813234
 20
227.67861215074836
 30
0.0
 11
398.3395583813234
 21
209.67861215074836
 31
0.0
  0
LINE
  5
49
100
AcDbEntity
  8
0
  6
Continuous
 62
               7
100
AcDbLine
 10
409.26849056945798
 20
227.67861215074836
 30
0.0
 11
391.26849056945798
 21
209.67861215074836
 31
0.0
  0
LINE
  5
4A
100
AcDbEntity
  8
0
  6
Continuous
 62
               7
100
AcDbLine
 10
402.19742275759245
 20
227.67861215074836
 30
0.0
 11
384.19742275759245
 21
209.67861215074836
 31
0.0
  0
LINE
  5
4B
100
AcDbEntity
  8
0
  6
Continuous
 62
               7
100
AcDbLine
 10
395.12635494572703
 20
227.67861215074836
 30
0.0
 11
377.12635494572703
 21
209.67861215074836
 31
0.0
  0
LINE
  5
4C
100
AcDbEntity
  8
0
  6
Continuous
 62
               7
100
AcDbLine
 10
388.0552871338615
 20
227.67861215074836
 30
0.0
 11
370.0552871338615
 21
209.67861215074836
 31
0.0
  0
LINE
  5
4D
100
AcDbEntity
  8
0
  6
Continuous
 62
               7
100
AcDbLine
 10
380.98421932199608
 20
227.67861215074836
 30
0.0
 11
362.98421932199608
 21
209.67861215074836
 31
0.0
  0
LINE
  5
4E
100
AcDbEntity
  8
0
  6
Continuous
 62
               7
100
AcDbLine
 10
373.91315151013055
 20
227.67861215074836
 30
0.0
 11
355.91315151013055
 21
209.67861215074836
 31
0.0
  0
LINE
  5
4F
100
AcDbEntity
  8
0
  6
Continuous
 62
               7
100
AcDbLine
 10
366.84208369826513
 20
227.67861215074836
 30
0.0
 11
348.84208369826513
 21
209.67861215074836
 31
0.0
  0
LINE
  5
50
100
AcDbEntity
  8
0
  6
Continuous
 62
               7
100
AcDbLine
 10
359.7710158863996
 20
227.67861215074836
 30
0.0
 11
341.7710158863996
 21
209.67861215074836
 31
0.0
  0
LINE
  5
51
100
AcDbEntity
  8
0
  6
Continuous
 62
               7
100
AcDbLine
 10
352.69994807453406
 20
227.67861215074836
 30
0.0
 11
334.69994807453418
 21
209.67861215074836
 31
0.0
  0
LINE
  5
52
100
AcDbEntity
  8
0
  6
Continuous
 62
               7
100
AcDbLine
 10
345.62888026266864
 20
227.67861215074836
 30
0.0
 11
327.62888026266864
 21
209.67861215074836
 31
0.0
  0
LINE
  5
53
100
AcDbEntity
  8
0
  6
Continuous
 62
               7
100
AcDbLine
 10
338.55781245080311
 20
227.67861215074836
 30
0.0
 11
320.55781245080311
 21
209.67861215074836
 31
0.0
  0
LINE
  5
54
100
AcDbEntity
  8
0
  6
Continuous
 62
               7
100
AcDbLine
 10
331.48674463893769
 20
227.67861215074836
 30
0.0
 11
319.46149146952109
 21
215.65335898133176
 31
0.0
  0
LINE
  5
55
100
AcDbEntity
  8
0
  6
Continuous
 62
               7
100
AcDbLine
 10
324.41567682707216
 20
227.67861215074836
 30
0.0
 11
319.46149146952109
 21
222.72442679319713
 31
0.0
  0
LINE
  5
56
100
AcDbEntity
  8
0
  6
Continuous
 62
               4
100
AcDbLine
 10
664.28698850903368
 20
369.0183581129042
 30
0.0
 11
577.48829570788268
 21
218.67861215074836
 31
0.0
  0
LINE
  5
57
100
AcDbEntity
  8
0
  6
Continuous
 62
               6
100
AcDbLine
 10
326.06158842035984
 20
209.67858783205324
 30
0.0
 11
366.86149156488852
 21
209.67861215074836
 31
0.0
  0
LINE
  5
58
100
AcDbEntity
  8
0
  6
Continuous
 62
               6
100
AcDbLine
 10
371.46149146952109
 20
205.07861224611574
 30
0.0
 11
371.46149146952109
 21
189.67861215074836
 31
0.0
  0
LINE
  5
59
100
AcDbEntity
  8
0
  6
Continuous
 62
               6
100
AcDbLine
 10
371.46149146952109
 20
189.67861215074836
 30
0.0
 11
369.16149151720481
 21
189.67861215074836
 31
0.0
  0
LINE
  5
5A
100
AcDbEntity
  8
0
  6
Continuous
 62
               6
100
AcDbLine
 10
369.16149151720481
 20
189.67861215074836
 30
0.0
 11
369.16149151720481
 21
205.07861224611574
 31
0.0
  0
LINE
  5
5B
100
AcDbEntity
  8
0
  6
Continuous
 62
               6
100
AcDbLine
 10
366.86149156488852
 20
207.37861219843202
 30
0.0
 11
326.06149137415366
 21
207.37861219843202
 31
0.0
  0
LINE
  5
5C
100
AcDbEntity
  8
0
  6
Continuous
 62
               6
100
AcDbLine
 10
323.76149142183738
 20
205.07861224611574
 30
0.0
 11
323.76149142183738
 21
114.27861205538082
 31
0.0
  0
LINE
  5
5D
100
AcDbEntity
  8
0
  6
Continuous
 62
               6
100
AcDbLine
 10
326.06149137415366
 20
111.97861210306453
 30
0.0
 11
366.86149156488852
 21
111.97861210306453
 31
0.0
  0
LINE
  5
5E
100
AcDbEntity
  8
0
  6
Continuous
 62
               6
100
AcDbLine
 10
369.16149151720481
 20
114.27861205538082
 30
0.0
 11
369.16149151720481
 21
129.67861215074836
 31
0.0
  0
LINE
  5
5F
100
AcDbEntity
  8
0
  6
Continuous
 62
               6
100
AcDbLine
 10
369.16149151720481
 20
129.67861215074836
 30
0.0
 11
371.46149146952109
 21
129.67861215074836
 31
0.0
  0
LINE
  5
60
100
AcDbEntity
  8
0
  6
Continuous
 62
               6
100
AcDbLine
 10
371.46149146952109
 20
129.67861215074836
 30
0.0
 11
371.46149146952109
 21
114.27861205538082
 31
0.0
  0
LINE
  5
61
100
AcDbEntity
  8
0
  6
Continuous
 62
               6
100
AcDbLine
 10
366.86149156488852
 20
109.67861215074836
 30
0.0
 11
326.06149137415366
 21
109.67861215074836
 31
0.0
  0
LINE
  5
62
100
AcDbEntity
  8
0
  6
Continuous
 62
               6
100
AcDbLine
 10
321.46149146952109
 20
114.27861205538082
 30
0.0
 11
321.46149146952109
 21
205.07861224611574
 31
0.0
  0
LINE
  5
63
100
AcDbEntity
  8
0
  6
Continuous
 62
               7
100
AcDbLine
 10
656.75586398475082
 20
227.67861215074836
 30
0.0
 11
638.75586398474945
 21
209.67861215074836
 31
0.0
  0
LINE
  5
64
100
AcDbEntity
  8
0
  6
Continuous
 62
               7
100
AcDbLine
 10
649.68479617288438
 20
227.67861215074836
 30
0.0
 11
631.68479617288426
 21
209.67861215074836
 31
0.0
  0
LINE
  5
65
100
AcDbEntity
  8
0
  6
Continuous
 62
               7
100
AcDbLine
 10
642.61372836101884
 20
227.67861215074836
 30
0.0
 11
624.61372836101873
 21
209.67861215074836
 31
0.0
  0
LINE
  5
66
100
AcDbEntity
  8
0
  6
Continuous
 62
               7
100
AcDbLine
 10
635.54266054915331
 20
227.67861215074836
 30
0.0
 11
617.54266054915331
 21
209.67861215074836
 31
0.0
  0
LINE
  5
67
100
AcDbEntity
  8
0
  6
Continuous
 62
               7
100
AcDbLine
 10
628.47159273728778
 20
227.67861215074836
 30
0.0
 11
610.47159273728778
 21
209.67861215074836
 31
0.0
  0
LINE
  5
68
100
AcDbEntity
  8
0
  6
Continuous
 62
               7
100
AcDbLine
 10
621.40052492542236
 20
227.67861215074836
 30
0.0
 11
603.40052492542236
 21
209.67861215074836
 31
0.0
  0
LINE
  5
69
100
AcDbEntity
  8
0
  6
Continuous
 62
               7
100
AcDbLine
 10
614.32945711355683
 20
227.67861215074836
 30
0.0
 11
596.32945711355683
 21
209.67861215074836
 31
0.0
  0
LINE
  5
6A
100
AcDbEntity
  8
0
  6
Continuous
 62
               7
100
AcDbLine
 10
607.25838930169141
 20
227.67861215074836
 30
0.0
 11
589.25838930169141
 21
209.67861215074836
 31
0.0
  0
LINE
  5
6B
100
AcDbEntity
  8
0
  6
Continuous
 62
               7
100
AcDbLine
 10
600.18732148982588
 20
227.67861215074836
 30
0.0
 11
582.18732148982588
 21
209.67861215074836
 31
0.0
  0
LINE
  5
6C
100
AcDbEntity
  8
0
  6
Continuous
 62
               7
100
AcDbLine
 10
593.11625367796034
 20
227.67861215074836
 30
0.0
 11
575.11625367796034
 21
209.67861215074836
 31
0.0
  0
LINE
  5
6D
100
AcDbEntity
  8
0
  6
Continuous
 62
               7
100
AcDbLine
 10
586.04518586609493
 20
227.67861215074836
 30
0.0
 11
568.04518586609493
 21
209.67861215074836
 31
0.0
  0
LINE
  5
6E
100
AcDbEntity
  8
0
  6
Continuous
 62
               7
100
AcDbLine
 10
578.97411805422939
 20
227.67861215074836
 30
0.0
 11
560.97411805422951
 21
209.67861215074836
 31
0.0
  0
LINE
  5
6F
100
AcDbEntity
  8
0
  6
Continuous
 62
               7
100
AcDbLine
 10
571.90305024236397
 20
227.67861215074836
 30
0.0
 11
553.90305024236397
 21
209.67861215074836
 31
0.0
  0
LINE
  5
70
100
AcDbEntity
  8
0
  6
Continuous
 62
               7
100
AcDbLine
 10
564.83198243049844
 20
227.67861215074836
 30
0.0
 11
546.83198243049844
 21
209.67861215074836
 31
0.0
  0
LINE
  5
71
100
AcDbEntity
  8
0
  6
Continuous
 62
               7
100
AcDbLine
 10
557.76091461863302
 20
227.67861215074836
 30
0.0
 11
539.76091461863302
 21
209.67861215074836
 31
0.0
  0
LINE
  5
72
100
AcDbEntity
  8
0
  6
Continuous
 62
               7
100
AcDbLine
 10
550.68984680676749
 20
227.67861215074836
 30
0.0
 11
532.68984680676749
 21
209.67861215074836
 31
0.0
  0
LINE
  5
73
100
AcDbEntity
  8
0
  6
Continuous
 62
               7
100
AcDbLine
 10
543.61877899490207
 20
227.67861215074836
 30
0.0
 11
525.61877899490207
 21
209.67861215074836
 31
0.0
  0
LINE
  5
74
100
AcDbEntity
  8
0
  6
Continuous
 62
               7
100
AcDbLine
 10
536.54771118303654
 20
227.67861215074836
 30
0.0
 11
518.54771118303654
 21
209.67861215074836
 31
0.0
  0
LINE
  5
75
100
AcDbEntity
  8
0
  6
Continuous
 62
               7
100
AcDbLine
 10
529.47664337117112
 20
227.67861215074836
 30
0.0
 11
511.47664337117112
 21
209.67861215074836
 31
0.0
  0
LINE
  5
76
100
AcDbEntity
  8
0
  6
Continuous
 62
               7
100
AcDbLine
 10
522.40557555930559
 20
227.67861215074836
 30
0.0
 11
504.40557555930559
 21
209.67861215074836
 31
0.0
  0
LINE
  5
77
100
AcDbEntity
  8
0
  6
Continuous
 62
               7
100
AcDbLine
 10
515.33450774744017
 20
227.67861215074836
 30
0.0
 11
497.33450774744017
 21
209.67861215074836
 31
0.0
  0
LINE
  5
78
100
AcDbEntity
  8
0
  6
Continuous
 62
               7
100
AcDbLine
 10
508.26343993557464
 20
227.67861215074836
 30
0.0
 11
490.26343993557464
 21
209.67861215074836
 31
0.0
  0
LINE
  5
79
100
AcDbEntity
  8
0
  6
Continuous
 62
               7
100
AcDbLine
 10
501.19237212370922
 20
227.67861215074836
 30
0.0
 11
483.19237212370922
 21
209.67861215074836
 31
0.0
  0
LINE
  5
7A
100
AcDbEntity
  8
0
  6
Continuous
 62
               7
100
AcDbLine
 10
494.12130431184369
 20
227.67861215074836
 30
0.0
 11
476.12130431184369
 21
209.67861215074836
 31
0.0
  0
LINE
  5
7B
100
AcDbEntity
  8
0
  6
Continuous
 62
               7
100
AcDbLine
 10
487.05023649997827
 20
227.67861215074836
 30
0.0
 11
472.86477957998511
 21
213.49315523075526
 31
0.0
  0
LINE
  5
7C
100
AcDbEntity
  8
0
  6
Continuous
 62
               7
100
AcDbLine
 10
479.97916868811274
 20
227.67861215074836
 30
0.0
 11
472.86477957998511
 21
220.56422304262063
 31
0.0
  0
LINE
  5
7D
100
AcDbEntity
  8
0
  6
Continuous
 62
               7
100
AcDbLine
 10
438.67826001914329
 20
214.66197472924077
 30
0.0
 11
433.69489744065083
 21
209.67861215074836
 31
0.0
  0
LINE
  5
7E
100
AcDbEntity
  8
0
  6
Continuous
 62
               7
100
AcDbLine
 10
438.67826001914329
 20
221.73304254110624
 30
0.0
 11
426.62382962878542
 21
209.67861215074836
 31
0.0
  0
LINE
  5
7F
100
AcDbEntity
  8
0
  6
Continuous
 62
               4
100
AcDbLine
 10
521.46149146952109
 20
265.67861215074839
 30
0.0
 11
521.46149146952109
 21
308.67861215074839
 31
0.0
  0
LINE
  5
80
100
AcDbEntity
  8
0
  6
Continuous
 62
               4
100
AcDbLine
 10
521.46149146952109
 20
305.67861215074839
 30
0.0
 11
666.46149146952121
 21
305.67861215074839
 31
0.0
  0
LINE
  5
81
100
AcDbEntity
  8
0
  6
Continuous
 62
               4
100
AcDbLine
 10
666.46149146952121
 20
305.67861215074839
 30
0.0
 11
657.59822169241124
 21
307.24144574975088
 31
0.0
  0
LINE
  5
82
100
AcDbEntity
  8
0
  6
Continuous
 62
               4
100
AcDbLine
 10
666.46149146952121
 20
305.67861215074839
 30
0.0
 11
657.59822169241124
 21
304.11577855174602
 31
0.0
  0
LINE
  5
83
100
AcDbEntity
  8
0
  6
Continuous
 62
               4
100
AcDbLine
 10
645.81177989496518
 20
337.01835811290408
 30
0.0
 11
812.91486040524967
 21
337.0183581129042
 31
0.0
  0
LINE
  5
84
100
AcDbEntity
  8
0
  6
Continuous
 62
               4
100
AcDbLine
 10
655.04938420199937
 20
353.01835811290408
 30
0.0
 11
812.91486040524967
 21
353.01835811290408
 31
0.0
  0
LINE
  5
85
100
AcDbEntity
  8
0
  6
Continuous
 62
               4
100
AcDbLine
 10
664.28698850903368
 20
369.01835811290408
 30
0.0
 11
812.91486040524967
 21
369.01835811290408
 31
0.0
  0
LINE
  5
86
100
AcDbEntity
  8
0
  6
Continuous
 62
               6
100
AcDbLine
 10
371.46149146952109
 20
209.67861215074836
 30
0.0
 11
371.46149146952109
 21
109.67861215074836
 31
0.0
  0
LINE
  5
87
100
AcDbEntity
  8
0
  6
Continuous
 62
               6
100
AcDbLine
 10
666.46149146952121
 20
109.67861215074836
 30
0.0
 11
371.46149146952109
 21
109.67861215074836
 31
0.0
  0
LINE
  5
88
100
AcDbEntity
  8
0
  6
Continuous
 62
               6
100
AcDbLine
 10
666.46149146952121
 20
129.67861215074836
 30
0.0
 11
371.46149146952109
 21
129.67861215074836
 31
0.0
  0
LINE
  5
89
100
AcDbEntity
  8
0
  6
Continuous
 62
               6
100
AcDbLine
 10
666.46149146952121
 20
189.67861215074836
 30
0.0
 11
371.46149146952109
 21
189.67861215074836
 31
0.0
  0
LINE
  5
8A
100
AcDbEntity
  8
0
  6
DASHED
 62
               6
100
AcDbLine
 10
666.46149146952121
 20
207.37861215074835
 30
0.0
 11
371.46149146952109
 21
207.37861215074835
 31
0.0
  0
LINE
  5
8B
100
AcDbEntity
  8
0
  6
DASHED
 62
               6
100
AcDbLine
 10
666.46149146952121
 20
111.97861215074832
 30
0.0
 11
371.46149146952109
 21
111.97861215074832
 31
0.0
  0
LINE
  5
8C
100
AcDbEntity
  8
0
  6
Continuous
 62
               2
100
AcDbLine
 10
338.96149146952109
 20
232.67861215074836
 30
0.0
 11
338.96149146952109
 21
338.67861476496438
 31
0.0
  0
LINE
  5
8D
100
AcDbEntity
  8
0
  6
DASHED
 62
               6
100
AcDbLine
 10
337.76149146952105
 20
229.67861215074836
 30
0.0
 11
337.76149146952105
 21
340.17861602872273
 31
0.0
  0
LINE
  5
8E
100
AcDbEntity
  8
0
  6
Continuous
 62
               3
100
AcDbLine
 10
319.46149146952109
 20
209.67861215074836
 30
0.0
 11
319.46149146952109
 21
227.67861215074836
 31
0.0
  0
LINE
  5
8F
100
AcDbEntity
  8
0
  6
Continuous
 62
               2
100
AcDbLine
 10
340.46149146952109
 20
240.67861215074836
 30
0.0
 11
340.46149146952109
 21
341.17861215074839
 31
0.0
  0
LINE
  5
90
100
AcDbEntity
  8
0
  6
Continuous
 62
               2
100
AcDbLine
 10
320.5615328542907
 20
341.17864073280379
 30
0.0
 11
340.46149146952109
 21
341.17861215074839
 31
0.0
  0
LINE
  5
91
100
AcDbEntity
  8
0
  6
Continuous
 62
               4
100
AcDbLine
 10
344.46149146952109
 20
240.67861215074836
 30
0.0
 11
371.46149146952109
 21
240.67861215074836
 31
0.0
  0
LINE
  5
92
100
AcDbEntity
  8
0
  6
Continuous
 62
               4
100
AcDbLine
 10
344.46149146952109
 20
340.67861215074839
 30
0.0
 11
371.46149146952109
 21
340.67861215074839
 31
0.0
  0
LINE
  5
93
100
AcDbEntity
  8
0
  6
Continuous
 62
               4
100
AcDbLine
 10
368.46149146952109
 20
240.67861215074836
 30
0.0
 11
368.46149146952109
 21
340.67861215074839
 31
0.0
  0
LINE
  5
94
100
AcDbEntity
  8
0
  6
Continuous
 62
               4
100
AcDbLine
 10
523.46149146952109
 20
305.67861215074839
 30
0.0
 11
340.46149146952109
 21
305.67861215074839
 31
0.0
  0
LINE
  5
95
100
AcDbEntity
  8
0
  6
Continuous
 62
               7
100
AcDbLine
 10
663.82693179661646
 20
227.67861215074836
 30
0.0
 11
645.8269317966151
 21
209.67861215074836
 31
0.0
  0
LINE
  5
96
100
AcDbEntity
  8
0
  6
Continuous
 62
               6
100
AcDbLine
 10
318.46149146952109
 20
330.27861205538119
 30
0.0
 11
318.46149146952098
 21
371.07861224611605
 31
0.0
  0
LINE
  5
97
100
AcDbEntity
  8
0
  6
Continuous
 62
               6
100
AcDbLine
 10
313.86149156488841
 20
375.67861215074862
 30
0.0
 11
298.46149146952098
 21
375.67861215074862
 31
0.0
  0
LINE
  5
98
100
AcDbEntity
  8
0
  6
Continuous
 62
               6
100
AcDbLine
 10
298.46149146952098
 20
375.67861215074862
 30
0.0
 11
298.46149146952098
 21
373.37861219843234
 31
0.0
  0
LINE
  5
99
100
AcDbEntity
  8
0
  6
Continuous
 62
               6
100
AcDbLine
 10
298.46149146952098
 20
373.37861219843234
 30
0.0
 11
313.86149156488841
 21
373.37861219843234
 31
0.0
  0
LINE
  5
9A
100
AcDbEntity
  8
0
  6
Continuous
 62
               6
100
AcDbLine
 10
316.16149151720469
 20
371.07861224611605
 30
0.0
 11
316.16149151720481
 21
330.27861205538119
 31
0.0
  0
LINE
  5
9B
100
AcDbEntity
  8
0
  6
Continuous
 62
               6
100
AcDbLine
 10
313.86149156488852
 20
327.97861210306479
 30
0.0
 11
223.0614913741536
 21
327.97861210306456
 31
0.0
  0
LINE
  5
9C
100
AcDbEntity
  8
0
  6
Continuous
 62
               6
100
AcDbLine
 10
220.76149142183732
 20
330.27861205538085
 30
0.0
 11
220.76149142183732
 21
371.07861224611582
 31
0.0
  0
LINE
  5
9D
100
AcDbEntity
  8
0
  6
Continuous
 62
               6
100
AcDbLine
 10
223.0614913741536
 20
373.37861219843211
 30
0.0
 11
238.46149146952098
 21
373.37861219843211
 31
0.0
  0
LINE
  5
9E
100
AcDbEntity
  8
0
  6
Continuous
 62
               6
100
AcDbLine
 10
238.46149146952098
 20
373.37861219843211
 30
0.0
 11
238.46149146952098
 21
375.67861215074839
 31
0.0
  0
LINE
  5
9F
100
AcDbEntity
  8
0
  6
Continuous
 62
               6
100
AcDbLine
 10
238.46149146952098
 20
375.67861215074839
 30
0.0
 11
223.0614913741536
 21
375.67861215074839
 31
0.0
  0
LINE
  5
A0
100
AcDbEntity
  8
0
  6
Continuous
 62
               6
100
AcDbLine
 10
218.46149146952098
 20
371.07861224611582
 30
0.0
 11
218.46149146952098
 21
330.27861205538085
 31
0.0
  0
LINE
  5
A1
100
AcDbEntity
  8
0
  6
Continuous
 62
               6
100
AcDbLine
 10
222.061491469521
 20
325.67861215074839
 30
0.0
 11
313.86149156488852
 21
325.67861215074839
 31
0.0
  0
LINE
  5
A2
100
AcDbEntity
  8
0
  6
Continuous
 62
               2
100
AcDbLine
 10
339.97112346043502
 20
333.996499683933
 30
0.0
 11
339.561491469521
 21
338.67861476496438
 31
0.0
  0
LINE
  5
A3
100
AcDbEntity
  8
0
  6
Continuous
 62
               4
100
AcDbLine
 10
378.46149146952109
 20
340.67861215074839
 30
0.0
 11
340.46149146952109
 21
274.86068146313102
 31
0.0
  0
LINE
  5
A4
100
AcDbEntity
  8
0
  6
Continuous
 62
               4
100
AcDbLine
 10
378.46149146952109
 20
340.67861215074839
 30
0.0
 11
453.37132543540361
 21
340.67861215074839
 31
0.0
  0
LINE
  5
A5
100
AcDbEntity
  8
0
  6
Continuous
 62
               4
100
AcDbLine
 10
467.96149146952109
 20
232.67861215074836
 30
0.0
 11
467.96149146952109
 21
262.67861215074839
 31
0.0
  0
LINE
  5
A6
100
AcDbEntity
  8
0
  6
Continuous
 62
               7
100
AcDbLine
 10
666.46149146952121
 20
223.24210401178826
 30
0.0
 11
652.89799960848029
 21
209.67861215074836
 31
0.0
  0
LINE
  5
A7
100
AcDbEntity
  8
0
  6
Continuous
 62
               7
100
AcDbLine
 10
666.46149146952121
 20
216.17103619992307
 30
0.0
 11
659.96906742034594
 21
209.67861215074836
 31
0.0
  0
LINE
  5
A8
100
AcDbEntity
  8
0
  6
Continuous
 62
               3
100
AcDbLine
 10
318.46149146952109
 20
360.67861215074839
 30
0.0
 11
333.46149146952109
 21
360.67861215074839
 31
0.0
  0
LINE
  5
A9
100
AcDbEntity
  8
0
  6
Continuous
 62
               3
100
AcDbLine
 10
333.46149146952109
 20
504.2837083981903
 30
0.0
 11
333.46149146952109
 21
360.67861215074839
 31
0.0
  0
LINE
  5
AA
100
AcDbEntity
  8
0
  6
Continuous
 62
               3
100
AcDbLine
 10
318.46149146952109
 20
504.2837083981903
 30
0.0
 11
318.46149146952109
 21
360.67861215074839
 31
0.0
  0
LINE
  5
AB
100
AcDbEntity
  8
0
  6
Continuous
 62
               7
100
AcDbLine
 10
321.46149146952109
 20
504.2837083981903
 30
0.0
 11
321.46149146952109
 21
360.67861215074839
 31
0.0
  0
LINE
  5
AC
100
AcDbEntity
  8
0
  6
Continuous
 62
               7
100
AcDbLine
 10
324.46149146952109
 20
504.2837083981903
 30
0.0
 11
324.46149146952109
 21
360.67861215074839
 31
0.0
  0
LINE
  5
AD
100
AcDbEntity
  8
0
  6
Continuous
 62
               7
100
AcDbLine
 10
327.46149146952109
 20
504.2837083981903
 30
0.0
 11
327.46149146952109
 21
360.67861215074839
 31
0.0
  0
LINE
  5
AE
100
AcDbEntity
  8
0
  6
Continuous
 62
               7
100
AcDbLine
 10
330.46149146952109
 20
504.2837083981903
 30
0.0
 11
330.46149146952109
 21
360.67861215074839
 31
0.0
  0
LINE
  5
AF
100
AcDbEntity
  8
0
  6
Continuous
 62
               2
100
AcDbLine
 10
320.56149146952112
 20
341.17861215074839
 30
0.0
 11
320.56149146952112
 21
359.67861215074839
 31
0.0
  0
LINE
  5
B0
100
AcDbEntity
  8
0
  6
Continuous
 62
               2
100
AcDbLine
 10
340.46149146952109
 20
240.67861215074836
 30
0.0
 11
389.42529400885917
 21
235.69117772578025
 31
0.0
  0
LINE
  5
B1
100
AcDbEntity
  8
0
  6
Continuous
 62
               2
100
AcDbLine
 10
380.16649395341608
 20
233.23413341021015
 30
0.0
 11
389.41427481360074
 21
234.05074633986973
 31
0.0
  0
LINE
  5
B2
100
AcDbEntity
  8
0
  6
Continuous
 62
               7
100
AcDbLine
 10
325.80418107135836
 20
341.17863320285534
 30
0.0
 11
323.46149146952109
 21
343.5213228046926
 31
0.0
  0
LINE
  5
B3
100
AcDbEntity
  8
0
  6
Continuous
 62
               7
100
AcDbLine
 10
330.04682785213686
 20
341.17862710919616
 30
0.0
 11
323.46149146952109
 21
347.76396349181204
 31
0.0
  0
LINE
  5
B4
100
AcDbEntity
  8
0
  6
Continuous
 62
               7
100
AcDbLine
 10
333.08318958049892
 20
342.38490606795352
 30
0.0
 11
323.46149146952109
 21
352.00660417893124
 31
0.0
  0
LINE
  5
B5
100
AcDbEntity
  8
0
  6
Continuous
 62
               7
100
AcDbLine
 10
332.39552716619198
 20
347.31520916937967
 30
0.0
 11
323.46149146952109
 21
356.24924486605056
 31
0.0
  0
LINE
  5
B6
100
AcDbEntity
  8
0
  6
Continuous
 62
               7
100
AcDbLine
 10
332.27335604994983
 20
351.68002097274115
 30
0.0
 11
323.46149146952109
 21
360.49188555316988
 31
0.0
  0
LINE
  5
B7
100
AcDbEntity
  8
0
  6
Continuous
 62
               7
100
AcDbLine
 10
332.55393835285702
 20
355.64207935695327
 30
0.0
 11
327.51740555906179
 21
360.67861215074839
 31
0.0
  0
LINE
  5
B8
100
AcDbEntity
  8
0
  6
Continuous
 62
               7
100
AcDbLine
 10
333.14813708327029
 20
359.29052131365921
 30
0.0
 11
331.7600462461811
 21
360.67861215074839
 31
0.0
  0
LINE
  5
B9
100
AcDbEntity
  8
0
  6
Continuous
 62
               7
100
AcDbLine
 10
332.94983112627222
 20
343.08165763054666
 30
0.0
 11
331.04679916867576
 21
341.17862567295009
 31
0.0
  0
LINE
  5
BA
100
AcDbEntity
  8
0
  6
Continuous
 62
               7
100
AcDbLine
 10
332.43862477820278
 20
346.81309196959654
 30
0.0
 11
326.80416457519812
 21
341.17863176659188
 31
0.0
  0
LINE
  5
BB
100
AcDbEntity
  8
0
  6
Continuous
 62
               7
100
AcDbLine
 10
332.26196682934471
 20
350.87907470785768
 30
0.0
 11
323.46149146952109
 21
342.07859934803406
 31
0.0
  0
LINE
  5
BC
100
AcDbEntity
  8
0
  6
Continuous
 62
               7
100
AcDbLine
 10
332.5242208700671
 20
355.38396943569938
 30
0.0
 11
323.46149146952109
 21
346.32124003515338
 31
0.0
  0
LINE
  5
BD
100
AcDbEntity
  8
0
  6
Continuous
 62
               7
100
AcDbLine
 10
333.42495051464755
 20
360.52733976739916
 30
0.0
 11
323.46149146952109
 21
350.5638807222727
 31
0.0
  0
LINE
  5
BE
100
AcDbEntity
  8
0
  6
Continuous
 62
               7
100
AcDbLine
 10
329.33358221087747
 20
360.67861215074839
 30
0.0
 11
323.46149146952109
 21
354.80652140939191
 31
0.0
  0
LINE
  5
BF
100
AcDbEntity
  8
0
  6
Continuous
 62
               7
100
AcDbLine
 10
325.09094152375826
 20
360.67861215074839
 30
0.0
 11
323.46149146952109
 21
359.04916209651122
 31
0.0
  0
LINE
  5
C0
100
AcDbEntity
  8
0
  6
Continuous
 62
               4
100
AcDbLine
 10
341.46149146952109
 20
360.67861215074839
 30
0.0
 11
371.46149146952109
 21
360.67861215074839
 31
0.0
  0
LINE
  5
C1
100
AcDbEntity
  8
0
  6
Continuous
 62
               4
100
AcDbLine
 10
368.46149146952109
 20
340.67861215074839
 30
0.0
 11
368.46149146952109
 21
360.67861215074839
 31
0.0
  0
LINE
  5
C2
100
AcDbEntity
  8
0
  6
Continuous
 62
               4
100
AcDbLine
 10
340.46149146952109
 20
274.86068146313102
 30
0.0
 11
343.53967275945206
 21
283.31791505020425
 31
0.0
  0
LINE
  5
C3
100
AcDbEntity
  8
0
  6
Continuous
 62
               4
100
AcDbLine
 10
340.46149146952109
 20
274.86068146313102
 30
0.0
 11
346.24657995669997
 21
281.75508145120187
 31
0.0
  0
LINE
  5
C4
100
AcDbEntity
  8
0
  6
Continuous
 62
               4
100
AcDbLine
 10
467.96149146952109
 20
232.67861215074836
 30
0.0
 11
467.96149146952109
 21
209.67861215074836
 31
0.0
  0
LINE
  5
C5
100
AcDbEntity
  8
0
  6
Continuous
 62
               4
100
AcDbLine
 10
451.96149146952109
 20
232.67861215074836
 30
0.0
 11
451.96149146952109
 21
227.67861215074836
 31
0.0
  0
LINE
  5
C6
100
AcDbEntity
  8
0
  6
Continuous
 62
               4
100
AcDbLine
 10
451.96149146952109
 20
227.67861215074836
 30
0.0
 11
451.96149146952109
 21
209.67861215074836
 31
0.0
  0
LINE
  5
C7
100
AcDbEntity
  8
0
  6
Continuous
 62
               4
100
AcDbLine
 10
451.96149146952109
 20
232.67861215074836
 30
0.0
 11
451.96149146952109
 21
238.57863153267405
 31
0.0
  0
LINE
  5
C8
100
AcDbEntity
  8
0
  6
Continuous
 62
               3
100
AcDbLine
 10
336.46149146952109
 20
339.17861912199675
 30
0.0
 11
336.46149146952109
 21
228.67861215074836
 31
0.0
  0
LINE
  5
C9
100
AcDbEntity
  8
0
  6
Continuous
 62
               3
100
AcDbLine
 10
318.46149146952109
 20
339.17864700699914
 30
0.0
 11
336.46149146952109
 21
339.17861912199675
 31
0.0
  0
LINE
  5
CA
100
AcDbEntity
  8
0
  6
Continuous
 62
               3
100
AcDbLine
 10
318.46149146952109
 20
228.67861215074836
 30
0.0
 11
336.46149146952109
 21
228.67861215074836
 31
0.0
  0
LINE
  5
CB
100
AcDbEntity
  8
0
  6
Continuous
 62
               3
100
AcDbLine
 10
318.46149146952109
 20
339.17864700699914
 30
0.0
 11
318.46149146952109
 21
228.67861215074836
 31
0.0
  0
LINE
  5
CC
100
AcDbEntity
  8
0
  6
Continuous
 62
               6
100
AcDbLine
 10
218.46149146952081
 20
504.2837083981903
 30
0.0
 11
218.46149146952081
 21
376.67861215074828
 31
0.0
  0
LINE
  5
CD
100
AcDbEntity
  8
0
  6
DASHED
 62
               6
100
AcDbLine
 10
238.46149146952081
 20
504.2837083981903
 30
0.0
 11
238.46149146952081
 21
376.67861215074839
 31
0.0
  0
LINE
  5
CE
100
AcDbEntity
  8
0
  6
DASHED
 62
               6
100
AcDbLine
 10
298.46149146952098
 20
504.2837083981903
 30
0.0
 11
298.46149146952098
 21
376.67861215074862
 31
0.0
  0
LINE
  5
CF
100
AcDbEntity
  8
0
  6
Continuous
 62
               6
100
AcDbLine
 10
318.46152818598216
 20
228.67861215074836
 30
0.0
 11
318.46152818598216
 21
109.67861215074836
 31
0.0
  0
LINE
  5
D0
100
AcDbEntity
  8
0
  6
DASHED
 62
               6
100
AcDbLine
 10
298.46149146952098
 20
324.67861215074805
 30
0.0
 11
298.46149146952098
 21
109.67861215074836
 31
0.0
  0
LINE
  5
D1
100
AcDbEntity
  8
0
  6
DASHED
 62
               6
100
AcDbLine
 10
238.46149146952081
 20
324.67861215074805
 30
0.0
 11
238.46149146952081
 21
109.67861215074836
 31
0.0
  0
LINE
  5
D2
100
AcDbEntity
  8
0
  6
Continuous
 62
               6
100
AcDbLine
 10
218.46149146952081
 20
324.67861215074805
 30
0.0
 11
218.46149146952081
 21
109.67861215074836
 31
0.0
  0
LINE
  5
D3
100
AcDbEntity
  8
0
  6
Continuous
 62
               6
100
AcDbLine
 10
318.46152818598216
 20
376.67861215074873
 30
0.0
 11
218.46149146952081
 21
376.67861215074828
 31
0.0
  0
LINE
  5
D4
100
AcDbEntity
  8
0
  6
Continuous
 62
               6
100
AcDbLine
 10
218.46149146952081
 20
324.67861215074805
 30
0.0
 11
318.46152818598216
 21
324.67861215074805
 31
0.0
  0
LINE
  5
D5
100
AcDbEntity
  8
0
  6
DASHED
 62
               6
100
AcDbLine
 10
316.16149151720481
 20
324.67861215074805
 30
0.0
 11
316.16149151720481
 21
109.67861215074836
 31
0.0
  0
LINE
  5
D6
100
AcDbEntity
  8
0
  6
DASHED
 62
               6
100
AcDbLine
 10
220.76149142183709
 20
324.67861215074805
 30
0.0
 11
220.76149142183709
 21
109.67861215074836
 31
0.0
  0
LINE
  5
D7
100
AcDbEntity
  8
0
  6
DASHED
 62
               6
100
AcDbLine
 10
220.76149142183709
 20
504.2837083981903
 30
0.0
 11
220.76149142183709
 21
376.67861215074828
 31
0.0
  0
LINE
  5
D8
100
AcDbEntity
  8
0
  6
DASHED
 62
               6
100
AcDbLine
 10
316.16149151720469
 20
504.2837083981903
 30
0.0
 11
316.16149151720469
 21
376.67861215074873
 31
0.0
  0
LINE
  5
D9
100
AcDbEntity
  8
0
  6
Continuous
 62
               7
100
AcDbLine
 10
336.46149146952109
 20
230.35553365823645
 30
0.0
 11
335.4933203857629
 21
228.67861215074836
 31
0.0
  0
LINE
  5
DA
100
AcDbEntity
  8
0
  6
Continuous
 62
               7
100
AcDbLine
 10
336.46149146952109
 20
240.35553365823645
 30
0.0
 11
329.71981769386662
 21
228.67861215074836
 31
0.0
  0
LINE
  5
DB
100
AcDbEntity
  8
0
  6
Continuous
 62
               7
100
AcDbLine
 10
336.46149146952109
 20
250.35553365823645
 30
0.0
 11
323.94631500197033
 21
228.67861215074836
 31
0.0
  0
LINE
  5
DC
100
AcDbEntity
  8
0
  6
Continuous
 62
               7
100
AcDbLine
 10
336.46149146952109
 20
260.35553365823642
 30
0.0
 11
318.46149146952109
 21
229.17861912199672
 31
0.0
  0
LINE
  5
DD
100
AcDbEntity
  8
0
  6
Continuous
 62
               7
100
AcDbLine
 10
336.46149146952109
 20
270.35553365823642
 30
0.0
 11
318.46149146952109
 21
239.17861912199672
 31
0.0
  0
LINE
  5
DE
100
AcDbEntity
  8
0
  6
Continuous
 62
               7
100
AcDbLine
 10
336.46149146952109
 20
280.35553365823642
 30
0.0
 11
318.46149146952109
 21
249.17861912199672
 31
0.0
  0
LINE
  5
DF
100
AcDbEntity
  8
0
  6
Continuous
 62
               7
100
AcDbLine
 10
336.46149146952109
 20
290.35553365823642
 30
0.0
 11
318.46149146952109
 21
259.17861912199675
 31
0.0
  0
LINE
  5
E0
100
AcDbEntity
  8
0
  6
Continuous
 62
               7
100
AcDbLine
 10
336.46149146952109
 20
300.35553365823642
 30
0.0
 11
318.46149146952109
 21
269.17861912199675
 31
0.0
  0
LINE
  5
E1
100
AcDbEntity
  8
0
  6
Continuous
 62
               7
100
AcDbLine
 10
336.46149146952109
 20
310.35553365823642
 30
0.0
 11
318.46149146952109
 21
279.17861912199675
 31
0.0
  0
LINE
  5
E2
100
AcDbEntity
  8
0
  6
Continuous
 62
               7
100
AcDbLine
 10
336.46149146952109
 20
320.35553365823642
 30
0.0
 11
318.46149146952109
 21
289.17861912199675
 31
0.0
  0
LINE
  5
E3
100
AcDbEntity
  8
0
  6
Continuous
 62
               7
100
AcDbLine
 10
336.46149146952109
 20
330.35553365823642
 30
0.0
 11
318.46149146952109
 21
299.17861912199675
 31
0.0
  0
LINE
  5
E4
100
AcDbEntity
  8
0
  6
Continuous
 62
               7
100
AcDbLine
 10
335.78200015295488
 20
339.17862017464205
 30
0.0
 11
318.46149146952109
 21
309.17861912199675
 31
0.0
  0
LINE
  5
E5
100
AcDbEntity
  8
0
  6
Continuous
 62
               7
100
AcDbLine
 10
330.00850262494339
 20
339.17862911875289
 30
0.0
 11
318.46149146952109
 21
319.17861912199675
 31
0.0
  0
LINE
  5
E6
100
AcDbEntity
  8
0
  6
Continuous
 62
               7
100
AcDbLine
 10
324.23500509693179
 20
339.1786380628634
 30
0.0
 11
318.46149146952109
 21
329.17861912199675
 31
0.0
  0
LINE
  5
E7
100
AcDbEntity
  8
0
  6
Continuous
 62
               7
100
AcDbLine
 10
318.4615075689203
 20
339.17864700697413
 30
0.0
 11
318.46149146952109
 21
339.17861912199675
 31
0.0
  0
LINE
  5
E8
100
AcDbEntity
  8
0
  6
DASHED
 62
               6
100
AcDbLine
 10
319.46149146952109
 20
340.17864231277809
 30
0.0
 11
337.76149146952105
 21
340.17861602872273
 31
0.0
  0
LINE
  5
E9
100
AcDbEntity
  8
0
  6
DASHED
 62
               6
100
AcDbLine
 10
319.46149146952109
 20
340.17864231277809
 30
0.0
 11
319.46149146952109
 21
359.67861215074839
 31
0.0
  0
LINE
  5
EA
100
AcDbEntity
  8
0
  6
Continuous
 62
               7
100
AcDbLine
 10
283.45271557419744
 20
349.06033525068364
 30
0.0
 11
319.45271557419744
 21
349.06033525068398
 31
0.0
  0
LINE
  5
EB
100
AcDbEntity
  8
0
  6
Continuous
 62
               7
100
AcDbLine
 10
321.95271557419744
 20
346.56033525068398
 30
0.0
 11
321.45271557419744
 21
346.56033525068398
 31
0.0
  0
LINE
  5
EC
100
AcDbEntity
  8
0
  6
Continuous
 62
               7
100
AcDbLine
 10
283.45271557419733
 20
354.06033525068375
 30
0.0
 11
319.45271557419733
 21
354.06033525068398
 31
0.0
  0
LINE
  5
ED
100
AcDbEntity
  8
0
  6
Continuous
 62
               7
100
AcDbLine
 10
321.95271557419744
 20
356.56033525068409
 30
0.0
 11
321.45271557419733
 21
356.56033525068398
 31
0.0
  0
LINE
  5
EE
100
AcDbEntity
  8
0
  6
Continuous
 62
               7
100
AcDbLine
 10
321.95271557419744
 20
346.56033525068398
 30
0.0
 11
321.95271557419744
 21
356.56033525068409
 31
0.0
  0
LINE
  5
EF
100
AcDbEntity
  8
0
  6
Continuous
 62
               7
100
AcDbLine
 10
319.45271557419744
 20
349.06033525068398
 30
0.0
 11
319.45271557419733
 21
354.06033525068398
 31
0.0
  0
LINE
  5
F0
100
AcDbEntity
  8
0
  6
Continuous
 62
               7
100
AcDbLine
 10
321.45271557419744
 20
346.56033525068398
 30
0.0
 11
319.45271557419744
 21
349.06033525068398
 31
0.0
  0
LINE
  5
F1
100
AcDbEntity
  8
0
  6
Continuous
 62
               7
100
AcDbLine
 10
319.45271557419733
 20
354.06033525068398
 30
0.0
 11
321.45271557419733
 21
356.56033525068398
 31
0.0
  0
LINE
  5
F2
100
AcDbEntity
  8
0
  6
Continuous
 62
               7
100
AcDbLine
 10
321.45271557419744
 20
346.56033525068398
 30
0.0
 11
321.45271557419733
 21
356.56033525068398
 31
0.0
  0
LINE
  5
F3
100
AcDbEntity
  8
0
  6
Continuous
 62
               7
100
AcDbLine
 10
283.45271557419744
 20
349.06033525068364
 30
0.0
 11
281.95271557419733
 21
351.56033525068364
 31
0.0
  0
LINE
  5
F4
100
AcDbEntity
  8
0
  6
Continuous
 62
               7
100
AcDbLine
 10
283.45271557419733
 20
354.06033525068375
 30
0.0
 11
281.95271557419733
 21
351.56033525068364
 31
0.0
  0
LINE
  5
F5
100
AcDbEntity
  8
0
  6
Continuous
 62
               7
100
AcDbLine
 10
312.45271557419744
 20
349.06033525068386
 30
0.0
 11
314.45271557419744
 21
354.06033525068398
 31
0.0
  0
LINE
  5
F6
100
AcDbEntity
  8
0
  6
Continuous
 62
               7
100
AcDbLine
 10
310.45271557419744
 20
349.06033525068386
 30
0.0
 11
312.45271557419744
 21
354.06033525068398
 31
0.0
  0
LINE
  5
F7
100
AcDbEntity
  8
0
  6
Continuous
 62
               7
100
AcDbLine
 10
308.45271557419744
 20
349.06033525068386
 30
0.0
 11
310.45271557419744
 21
354.06033525068386
 31
0.0
  0
LINE
  5
F8
100
AcDbEntity
  8
0
  6
Continuous
 62
               7
100
AcDbLine
 10
306.45271557419744
 20
349.06033525068375
 30
0.0
 11
308.45271557419744
 21
354.06033525068386
 31
0.0
  0
LINE
  5
F9
100
AcDbEntity
  8
0
  6
Continuous
 62
               7
100
AcDbLine
 10
304.45271557419744
 20
349.06033525068375
 30
0.0
 11
306.45271557419744
 21
354.06033525068398
 31
0.0
  0
LINE
  5
FA
100
AcDbEntity
  8
0
  6
Continuous
 62
               7
100
AcDbLine
 10
302.45271557419755
 20
349.06033525068375
 30
0.0
 11
304.45271557419744
 21
354.06033525068375
 31
0.0
  0
LINE
  5
FB
100
AcDbEntity
  8
0
  6
Continuous
 62
               7
100
AcDbLine
 10
300.45271557419755
 20
349.06033525068375
 30
0.0
 11
302.45271557419744
 21
354.06033525068375
 31
0.0
  0
LINE
  5
FC
100
AcDbEntity
  8
0
  6
Continuous
 62
               7
100
AcDbLine
 10
298.45271557419755
 20
349.06033525068375
 30
0.0
 11
300.45271557419755
 21
354.06033525068375
 31
0.0
  0
LINE
  5
FD
100
AcDbEntity
  8
0
  6
Continuous
 62
               7
100
AcDbLine
 10
296.45271557419755
 20
349.06033525068364
 30
0.0
 11
298.45271557419755
 21
354.06033525068375
 31
0.0
  0
LINE
  5
FE
100
AcDbEntity
  8
0
  6
Continuous
 62
               7
100
AcDbLine
 10
294.45271557419755
 20
349.06033525068352
 30
0.0
 11
296.45271557419755
 21
354.06033525068375
 31
0.0
  0
LINE
  5
FF
100
AcDbEntity
  8
0
  6
Continuous
 62
               7
100
AcDbLine
 10
292.45271557419744
 20
349.06033525068364
 30
0.0
 11
294.45271557419755
 21
354.06033525068375
 31
0.0
  0
LINE
  5
100
100
AcDbEntity
  8
0
  6
Continuous
 62
               7
100
AcDbLine
 10
290.45271557419755
 20
349.06033525068364
 30
0.0
 11
291.65271557419749
 21
352.06033525068375
 31
0.0
  0
LINE
  5
101
100
AcDbEntity
  8
0
  6
Continuous
 62
               7
100
AcDbLine
 10
283.95271557419744
 20
353.56033525068375
 30
0.0
 11
292.25271557419762
 21
353.56033525068375
 31
0.0
  0
LINE
  5
102
100
AcDbEntity
  8
0
  6
Continuous
 62
               7
100
AcDbLine
 10
291.65271557419749
 20
352.06033525068375
 30
0.0
 11
292.70271557419755
 21
353.11033525068382
 31
0.0
  0
LINE
  5
103
100
AcDbEntity
  8
0
  6
Continuous
 62
               7
100
AcDbLine
 10
292.25271557419751
 20
353.56033525068375
 30
0.0
 11
292.70271557419755
 21
353.11033525068382
 31
0.0
  0
LINE
  5
104
100
AcDbEntity
  8
0
  6
Continuous
 62
               7
100
AcDbLine
 10
292.25271557419762
 20
353.56033525068375
 30
0.0
 11
292.45271557419755
 21
354.06033525068375
 31
0.0
  0
LINE
  5
105
100
AcDbEntity
  8
0
  6
Continuous
 62
               7
100
AcDbLine
 10
283.45271557419733
 20
354.06033525068375
 30
0.0
 11
283.95271557419744
 21
353.56033525068375
 31
0.0
  0
LINE
  5
106
100
AcDbEntity
  8
0
  6
Continuous
 62
               7
100
AcDbLine
 10
300.2635276399451
 20
313.90215392167926
 30
0.0
 11
336.2635276399451
 21
313.90215392167948
 31
0.0
  0
LINE
  5
107
100
AcDbEntity
  8
0
  6
Continuous
 62
               7
100
AcDbLine
 10
338.7635276399451
 20
311.40215392167948
 30
0.0
 11
338.2635276399451
 21
311.4021539216796
 31
0.0
  0
LINE
  5
108
100
AcDbEntity
  8
0
  6
Continuous
 62
               7
100
AcDbLine
 10
300.2635276399451
 20
318.90215392167937
 30
0.0
 11
336.2635276399451
 21
318.9021539216796
 31
0.0
  0
LINE
  5
109
100
AcDbEntity
  8
0
  6
Continuous
 62
               7
100
AcDbLine
 10
338.7635276399451
 20
321.40215392167971
 30
0.0
 11
338.2635276399451
 21
321.4021539216796
 31
0.0
  0
LINE
  5
10A
100
AcDbEntity
  8
0
  6
Continuous
 62
               7
100
AcDbLine
 10
338.7635276399451
 20
311.40215392167948
 30
0.0
 11
338.7635276399451
 21
321.40215392167971
 31
0.0
  0
LINE
  5
10B
100
AcDbEntity
  8
0
  6
Continuous
 62
               7
100
AcDbLine
 10
336.2635276399451
 20
313.90215392167948
 30
0.0
 11
336.2635276399451
 21
318.9021539216796
 31
0.0
  0
LINE
  5
10C
100
AcDbEntity
  8
0
  6
Continuous
 62
               7
100
AcDbLine
 10
338.2635276399451
 20
311.4021539216796
 30
0.0
 11
336.2635276399451
 21
313.90215392167948
 31
0.0
  0
LINE
  5
10D
100
AcDbEntity
  8
0
  6
Continuous
 62
               7
100
AcDbLine
 10
336.2635276399451
 20
318.9021539216796
 30
0.0
 11
338.26352763994498
 21
321.4021539216796
 31
0.0
  0
LINE
  5
10E
100
AcDbEntity
  8
0
  6
Continuous
 62
               7
100
AcDbLine
 10
338.2635276399451
 20
311.4021539216796
 30
0.0
 11
338.26352763994498
 21
321.4021539216796
 31
0.0
  0
LINE
  5
10F
100
AcDbEntity
  8
0
  6
Continuous
 62
               7
100
AcDbLine
 10
300.2635276399451
 20
313.90215392167926
 30
0.0
 11
298.7635276399451
 21
316.40215392167926
 31
0.0
  0
LINE
  5
110
100
AcDbEntity
  8
0
  6
Continuous
 62
               7
100
AcDbLine
 10
300.2635276399451
 20
318.90215392167937
 30
0.0
 11
298.7635276399451
 21
316.40215392167926
 31
0.0
  0
LINE
  5
111
100
AcDbEntity
  8
0
  6
Continuous
 62
               7
100
AcDbLine
 10
329.2635276399451
 20
313.90215392167948
 30
0.0
 11
331.2635276399451
 21
318.90215392167948
 31
0.0
  0
LINE
  5
112
100
AcDbEntity
  8
0
  6
Continuous
 62
               7
100
AcDbLine
 10
327.2635276399451
 20
313.90215392167948
 30
0.0
 11
329.2635276399451
 21
318.90215392167948
 31
0.0
  0
LINE
  5
113
100
AcDbEntity
  8
0
  6
Continuous
 62
               7
100
AcDbLine
 10
325.2635276399451
 20
313.90215392167948
 30
0.0
 11
327.2635276399451
 21
318.90215392167948
 31
0.0
  0
LINE
  5
114
100
AcDbEntity
  8
0
  6
Continuous
 62
               7
100
AcDbLine
 10
323.2635276399451
 20
313.90215392167948
 30
0.0
 11
325.2635276399451
 21
318.90215392167948
 31
0.0
  0
LINE
  5
115
100
AcDbEntity
  8
0
  6
Continuous
 62
               7
100
AcDbLine
 10
321.2635276399451
 20
313.90215392167948
 30
0.0
 11
323.2635276399451
 21
318.90215392167948
 31
0.0
  0
LINE
  5
116
100
AcDbEntity
  8
0
  6
Continuous
 62
               7
100
AcDbLine
 10
319.26352763994521
 20
313.90215392167948
 30
0.0
 11
321.26352763994521
 21
318.90215392167948
 31
0.0
  0
LINE
  5
117
100
AcDbEntity
  8
0
  6
Continuous
 62
               7
100
AcDbLine
 10
317.26352763994521
 20
313.90215392167948
 30
0.0
 11
319.2635276399451
 21
318.90215392167948
 31
0.0
  0
LINE
  5
118
100
AcDbEntity
  8
0
  6
Continuous
 62
               7
100
AcDbLine
 10
315.26352763994521
 20
313.90215392167937
 30
0.0
 11
317.26352763994521
 21
318.90215392167948
 31
0.0
  0
LINE
  5
119
100
AcDbEntity
  8
0
  6
Continuous
 62
               7
100
AcDbLine
 10
313.26352763994521
 20
313.90215392167926
 30
0.0
 11
315.26352763994521
 21
318.90215392167948
 31
0.0
  0
LINE
  5
11A
100
AcDbEntity
  8
0
  6
Continuous
 62
               7
100
AcDbLine
 10
311.26352763994521
 20
313.90215392167926
 30
0.0
 11
313.26352763994521
 21
318.90215392167937
 31
0.0
  0
LINE
  5
11B
100
AcDbEntity
  8
0
  6
Continuous
 62
               7
100
AcDbLine
 10
309.26352763994521
 20
313.90215392167926
 30
0.0
 11
311.26352763994521
 21
318.90215392167937
 31
0.0
  0
LINE
  5
11C
100
AcDbEntity
  8
0
  6
Continuous
 62
               7
100
AcDbLine
 10
307.26352763994521
 20
313.90215392167926
 30
0.0
 11
308.46352763994526
 21
316.90215392167937
 31
0.0
  0
LINE
  5
11D
100
AcDbEntity
  8
0
  6
Continuous
 62
               7
100
AcDbLine
 10
300.7635276399451
 20
318.40215392167937
 30
0.0
 11
309.06352763994528
 21
318.40215392167948
 31
0.0
  0
LINE
  5
11E
100
AcDbEntity
  8
0
  6
Continuous
 62
               7
100
AcDbLine
 10
308.46352763994514
 20
316.90215392167937
 30
0.0
 11
309.51352763994521
 21
317.95215392167944
 31
0.0
  0
LINE
  5
11F
100
AcDbEntity
  8
0
  6
Continuous
 62
               7
100
AcDbLine
 10
309.06352763994516
 20
318.40215392167948
 30
0.0
 11
309.51352763994521
 21
317.95215392167944
 31
0.0
  0
LINE
  5
120
100
AcDbEntity
  8
0
  6
Continuous
 62
               7
100
AcDbLine
 10
309.06352763994528
 20
318.40215392167948
 30
0.0
 11
309.26352763994521
 21
318.90215392167937
 31
0.0
  0
LINE
  5
121
100
AcDbEntity
  8
0
  6
Continuous
 62
               7
100
AcDbLine
 10
300.2635276399451
 20
318.90215392167937
 30
0.0
 11
300.7635276399451
 21
318.40215392167937
 31
0.0
  0
LINE
  5
122
100
AcDbEntity
  8
0
  6
Continuous
 62
               4
100
AcDbLine
 10
341.06950316462451
 20
246.64772613681177
 30
0.0
 11
343.09621145813651
 21
266.54479870614142
 31
0.0
  0
LINE
  5
123
100
AcDbEntity
  8
0
  6
Continuous
 62
               4
100
AcDbLine
 10
390.81215267085702
 20
241.58095865409442
 30
0.0
 11
392.83886096436902
 21
261.47803122342413
 31
0.0
  0
LINE
  5
124
100
AcDbEntity
  8
0
  6
Continuous
 62
               4
100
AcDbLine
 10
342.7922056105848
 20
263.56024171310963
 30
0.0
 11
392.53485511681731
 21
258.49347423039245
 31
0.0
  0
LINE
  5
125
100
AcDbEntity
  8
0
  6
Continuous
 62
               4
100
AcDbLine
 10
257.13710572830553
 20
246.60372403333312
 30
0.0
 11
69.869589806787531
 21
246.60372403333312
 31
0.0
  0
LINE
  5
126
100
AcDbEntity
  8
0
  6
Continuous
 62
               4
100
AcDbLine
 10
327.4744472907272
 20
346.71508326268093
 30
0.0
 11
356.90820402046779
 21
397.695845376215
 31
0.0
  0
LINE
  5
127
100
AcDbEntity
  8
0
  6
Continuous
 62
               4
100
AcDbLine
 10
356.90820402046779
 20
397.695845376215
 30
0.0
 11
442.9856463899954
 21
397.695845376215
 31
0.0
  0
LINE
  5
128
100
AcDbEntity
  8
0
  6
Continuous
 62
               4
100
AcDbLine
 10
327.4744472907272
 20
346.71508326268093
 30
0.0
 11
333.25953577790608
 21
353.60948325075179
 31
0.0
  0
LINE
  5
129
100
AcDbEntity
  8
0
  6
Continuous
 62
               4
100
AcDbLine
 10
327.4744472907272
 20
346.71508326268093
 30
0.0
 11
330.55262858065828
 21
355.17231684975417
 31
0.0
  0
LINE
  5
12A
100
AcDbEntity
  8
0
  6
Continuous
 62
               4
100
AcDbLine
 10
330.66793527859818
 20
286.20569165074443
 30
0.0
 11
257.13710572830553
 21
246.60372403333312
 31
0.0
  0
LINE
  5
12B
100
AcDbEntity
  8
0
  6
Continuous
 62
               4
100
AcDbLine
 10
330.66792397059567
 20
286.20568677048919
 30
0.0
 11
322.21069038352255
 21
283.12750548055823
 31
0.0
  0
LINE
  5
12C
100
AcDbEntity
  8
0
  6
Continuous
 62
               4
100
AcDbLine
 10
330.66792397059567
 20
286.20568677048919
 30
0.0
 11
323.77352398252492
 21
280.42059828331043
 31
0.0
  0
LINE
  5
12D
100
AcDbEntity
  8
0
  6
Continuous
 62
               4
100
AcDbLine
 10
220.2593692667345
 20
334.69523520462695
 30
0.0
 11
190.82561253699402
 21
385.67599731816159
 31
0.0
  0
LINE
  5
12E
100
AcDbEntity
  8
0
  6
Continuous
 62
               4
100
AcDbLine
 10
190.82561253699402
 20
385.67599731816159
 30
0.0
 11
145.78037607062691
 21
385.67599731816159
 31
0.0
  0
LINE
  5
12F
100
AcDbEntity
  8
0
  6
Continuous
 62
               4
100
AcDbLine
 10
220.2593692667345
 20
334.69523520462695
 30
0.0
 11
214.47428077955573
 21
341.5896351926977
 31
0.0
  0
LINE
  5
130
100
AcDbEntity
  8
0
  6
Continuous
 62
               4
100
AcDbLine
 10
220.2593692667345
 20
334.69523520462695
 30
0.0
 11
217.18118797680359
 21
343.15246879170019
 31
0.0
  0
LINE
  5
131
100
AcDbEntity
  8
0
  6
Continuous
 62
               4
100
AcDbLine
 10
225.07252093833193
 20
292.10347833426084
 30
0.0
 11
190.82561253699402
 21
385.67599731816159
 31
0.0
  0
LINE
  5
132
100
AcDbEntity
  8
0
  6
Continuous
 62
               4
100
AcDbLine
 10
225.07252093833193
 20
292.10347833426084
 30
0.0
 11
220.55861396039359
 21
299.88966121128868
 31
0.0
  0
LINE
  5
133
100
AcDbEntity
  8
0
  6
Continuous
 62
               4
100
AcDbLine
 10
225.07252093833193
 20
292.10347833426084
 30
0.0
 11
223.4938672438102
 21
300.96394403944663
 31
0.0
  0
LINE
  5
134
100
AcDbEntity
  8
0
  6
Continuous
 62
               4
100
AcDbLine
 10
714.78679656440374
 20
21.213203435596483
 30
0.0
 11
714.78679656440374
 21
41.213203435596483
 31
0.0
  0
LINE
  5
135
100
AcDbEntity
  8
0
  6
Continuous
 62
               4
100
AcDbLine
 10
864.78679656440374
 20
21.213203435596483
 30
0.0
 11
714.78679656440374
 21
21.213203435596483
 31
0.0
  0
LINE
  5
136
100
AcDbEntity
  8
0
  6
Continuous
 62
               4
100
AcDbLine
 10
864.78679656440374
 20
41.213203435596483
 30
0.0
 11
864.78679656440374
 21
21.213203435596483
 31
0.0
  0
LINE
  5
137
100
AcDbEntity
  8
0
  6
Continuous
 62
               4
100
AcDbLine
 10
864.78679656440374
 20
41.213203435596483
 30
0.0
 11
714.78679656440374
 21
41.213203435596483
 31
0.0
  0
LINE
  5
138
100
AcDbEntity
  8
0
  6
Continuous
 62
               4
100
AcDbLine
 10
14.142135623730949
 20
595.85786437626905
 30
0.0
 11
14.142135623730949
 21
615.85786437626905
 31
0.0
  0
LINE
  5
139
100
AcDbEntity
  8
0
  6
Continuous
 62
               4
100
AcDbLine
 10
164.14213562373095
 20
595.85786437626905
 30
0.0
 11
14.142135623730949
 21
595.85786437626905
 31
0.0
  0
LINE
  5
13A
100
AcDbEntity
  8
0
  6
Continuous
 62
               4
100
AcDbLine
 10
164.14213562373095
 20
615.85786437626905
 30
0.0
 11
164.14213562373095
 21
595.85786437626905
 31
0.0
  0
LINE
  5
13B
100
AcDbEntity
  8
0
  6
Continuous
 62
               4
100
AcDbLine
 10
164.14213562373095
 20
615.85786437626905
 30
0.0
 11
14.142135623730949
 21
615.85786437626905
 31
0.0
  0
LINE
  5
13C
100
AcDbEntity
  8
0
  6
Continuous
 62
               3
100
AcDbLine
 10
319.46149146952109
 20
227.67861215074836
 30
0.0
 11
666.46149146952121
 21
227.67861215074836
 31
0.0
  0
LINE
  5
13D
100
AcDbEntity
  8
0
  6
DASHED
 62
               6
100
AcDbLine
 10
337.76149146952105
 20
229.67861215074836
 30
0.0
 11
666.46149146952121
 21
229.67861215074836
 31
0.0
  0
LINE
  5
13E
100
AcDbEntity
  8
0
  6
Continuous
 62
               2
100
AcDbLine
 10
521.46149146952098
 20
231.67861215074831
 30
0.0
 11
561.46149146952155
 21
231.67861215074831
 31
0.0
  0
LINE
  5
13F
100
AcDbEntity
  8
0
  6
Continuous
 62
               2
100
AcDbLine
 10
515.46149146952087
 20
232.67861215074836
 30
0.0
 11
520.46149146952098
 21
237.67861215074848
 31
0.0
  0
LINE
  5
140
100
AcDbEntity
  8
0
  6
Continuous
 62
               2
100
AcDbLine
 10
522.96149146952098
 20
237.67861215074848
 30
0.0
 11
527.96149146952098
 21
232.67861215074836
 31
0.0
  0
LINE
  5
141
100
AcDbEntity
  8
0
  6
Continuous
 62
               2
100
AcDbLine
 10
503.46149146952018
 20
261.67861215074879
 30
0.0
 11
521.46149146952109
 21
261.67861215074879
 31
0.0
  0
LINE
  5
142
100
AcDbEntity
  8
0
  6
Continuous
 62
               2
100
AcDbLine
 10
504.03884173870995
 20
260.67861215074879
 30
0.0
 11
520.46149146952098
 21
260.67861215074879
 31
0.0
  0
LINE
  5
143
100
AcDbEntity
  8
0
  6
Continuous
 62
               2
100
AcDbLine
 10
522.96149146952109
 20
262.67861215074879
 30
0.0
 11
501.96149146951848
 21
262.67861215074879
 31
0.0
  0
LINE
  5
144
100
AcDbEntity
  8
0
  6
Continuous
 62
               2
100
AcDbLine
 10
521.46149146952098
 20
231.67861215074831
 30
0.0
 11
521.46149146952098
 21
261.67861215074879
 31
0.0
  0
LINE
  5
145
100
AcDbEntity
  8
0
  6
Continuous
 62
               2
100
AcDbLine
 10
522.96149146952098
 20
237.67861215074848
 30
0.0
 11
522.96149146952098
 21
243.67861215074836
 31
0.0
  0
LINE
  5
146
100
AcDbEntity
  8
0
  6
Continuous
 62
               2
100
AcDbLine
 10
520.46149146952098
 20
237.67861215074848
 30
0.0
 11
520.46149146952098
 21
260.67861215074879
 31
0.0
  0
LINE
  5
147
100
AcDbEntity
  8
0
  6
Continuous
 62
               2
100
AcDbLine
 10
522.96149146952098
 20
251.67861215074831
 30
0.0
 11
522.96149146952098
 21
262.67861215074879
 31
0.0
  0
LINE
  5
148
100
AcDbEntity
  8
0
  6
Continuous
 62
               2
100
AcDbLine
 10
521.561491469521
 20
245.17861215074831
 30
0.0
 11
521.561491469521
 21
250.17861215074831
 31
0.0
  0
LINE
  5
149
100
AcDbEntity
  8
0
  6
Continuous
 62
               2
100
AcDbLine
 10
521.561491469521
 20
250.17861215074831
 30
0.0
 11
522.96149146952098
 21
251.67861215074831
 31
0.0
  0
LINE
  5
14A
100
AcDbEntity
  8
0
  6
Continuous
 62
               2
100
AcDbLine
 10
521.561491469521
 20
245.17861215074831
 30
0.0
 11
522.96149146952098
 21
243.67861215074836
 31
0.0
  0
LINE
  5
14B
100
AcDbEntity
  8
0
  6
Continuous
 62
               2
100
AcDbLine
 10
503.46149146952018
 20
261.67861215074879
 30
0.0
 11
496.96149146951836
 21
250.42028190155096
 31
0.0
  0
LINE
  5
14C
100
AcDbEntity
  8
0
  6
Continuous
 62
               2
100
AcDbLine
 10
504.03884173870995
 20
260.67861215074879
 30
0.0
 11
497.8275168733029
 21
249.92028190155096
 31
0.0
  0
LINE
  5
14D
100
AcDbEntity
  8
0
  6
Continuous
 62
               2
100
AcDbLine
 10
499.54161848844058
 20
248.4872691996587
 30
0.0
 11
504.0416184884424
 21
256.28149783371884
 31
0.0
  0
LINE
  5
14E
100
AcDbEntity
  8
0
  6
Continuous
 62
               2
100
AcDbLine
 10
503.60860578655013
 20
256.53149783371884
 30
0.0
 11
501.29607747397392
 21
252.09841619635384
 31
0.0
  0
LINE
  5
14F
100
AcDbEntity
  8
0
  6
Continuous
 62
               2
100
AcDbLine
 10
495.21149146951836
 20
250.98726919965881
 30
0.0
 11
501.96149146951848
 21
262.67861215074879
 31
0.0
  0
LINE
  5
150
100
AcDbEntity
  8
0
  6
Continuous
 62
               7
100
AcDbLine
 10
539.21435987838129
 20
193.77461433267538
 30
0.0
 11
539.21435987838163
 21
229.77461433267527
 31
0.0
  0
LINE
  5
151
100
AcDbEntity
  8
0
  6
Continuous
 62
               7
100
AcDbLine
 10
536.71435987838163
 20
232.27461433267516
 30
0.0
 11
536.71435987838163
 21
231.77461433267527
 31
0.0
  0
LINE
  5
152
100
AcDbEntity
  8
0
  6
Continuous
 62
               7
100
AcDbLine
 10
544.21435987838129
 20
193.77461433267527
 30
0.0
 11
544.21435987838163
 21
229.77461433267516
 31
0.0
  0
LINE
  5
153
100
AcDbEntity
  8
0
  6
Continuous
 62
               7
100
AcDbLine
 10
546.71435987838163
 20
232.27461433267516
 30
0.0
 11
546.71435987838163
 21
231.77461433267516
 31
0.0
  0
LINE
  5
154
100
AcDbEntity
  8
0
  6
Continuous
 62
               7
100
AcDbLine
 10
536.71435987838163
 20
232.27461433267516
 30
0.0
 11
546.71435987838163
 21
232.27461433267516
 31
0.0
  0
LINE
  5
155
100
AcDbEntity
  8
0
  6
Continuous
 62
               7
100
AcDbLine
 10
539.21435987838163
 20
229.77461433267527
 30
0.0
 11
544.21435987838163
 21
229.77461433267516
 31
0.0
  0
LINE
  5
156
100
AcDbEntity
  8
0
  6
Continuous
 62
               7
100
AcDbLine
 10
536.71435987838163
 20
231.77461433267527
 30
0.0
 11
539.21435987838163
 21
229.77461433267527
 31
0.0
  0
LINE
  5
157
100
AcDbEntity
  8
0
  6
Continuous
 62
               7
100
AcDbLine
 10
544.21435987838163
 20
229.77461433267516
 30
0.0
 11
546.71435987838152
 21
231.77461433267516
 31
0.0
  0
LINE
  5
158
100
AcDbEntity
  8
0
  6
Continuous
 62
               7
100
AcDbLine
 10
536.71435987838163
 20
231.77461433267527
 30
0.0
 11
546.71435987838152
 21
231.77461433267504
 31
0.0
  0
LINE
  5
159
100
AcDbEntity
  8
0
  6
Continuous
 62
               7
100
AcDbLine
 10
539.21435987838129
 20
193.77461433267538
 30
0.0
 11
541.71435987838129
 21
192.27461433267538
 31
0.0
  0
LINE
  5
15A
100
AcDbEntity
  8
0
  6
Continuous
 62
               7
100
AcDbLine
 10
544.21435987838129
 20
193.77461433267527
 30
0.0
 11
541.71435987838129
 21
192.27461433267538
 31
0.0
  0
LINE
  5
15B
100
AcDbEntity
  8
0
  6
Continuous
 62
               7
100
AcDbLine
 10
539.21435987838152
 20
222.77461433267527
 30
0.0
 11
544.21435987838152
 21
224.77461433267527
 31
0.0
  0
LINE
  5
15C
100
AcDbEntity
  8
0
  6
Continuous
 62
               7
100
AcDbLine
 10
539.21435987838152
 20
220.77461433267527
 30
0.0
 11
544.21435987838152
 21
222.77461433267527
 31
0.0
  0
LINE
  5
15D
100
AcDbEntity
  8
0
  6
Continuous
 62
               7
100
AcDbLine
 10
539.21435987838152
 20
218.77461433267527
 30
0.0
 11
544.21435987838152
 21
220.77461433267527
 31
0.0
  0
LINE
  5
15E
100
AcDbEntity
  8
0
  6
Continuous
 62
               7
100
AcDbLine
 10
539.21435987838152
 20
216.77461433267527
 30
0.0
 11
544.21435987838152
 21
218.77461433267527
 31
0.0
  0
LINE
  5
15F
100
AcDbEntity
  8
0
  6
Continuous
 62
               7
100
AcDbLine
 10
539.21435987838152
 20
214.77461433267527
 30
0.0
 11
544.21435987838152
 21
216.77461433267527
 31
0.0
  0
LINE
  5
160
100
AcDbEntity
  8
0
  6
Continuous
 62
               7
100
AcDbLine
 10
539.2143598783814
 20
212.77461433267538
 30
0.0
 11
544.2143598783814
 21
214.77461433267527
 31
0.0
  0
LINE
  5
161
100
AcDbEntity
  8
0
  6
Continuous
 62
               7
100
AcDbLine
 10
539.2143598783814
 20
210.77461433267538
 30
0.0
 11
544.2143598783814
 21
212.77461433267527
 31
0.0
  0
LINE
  5
162
100
AcDbEntity
  8
0
  6
Continuous
 62
               7
100
AcDbLine
 10
539.2143598783814
 20
208.77461433267538
 30
0.0
 11
544.2143598783814
 21
210.77461433267538
 31
0.0
  0
LINE
  5
163
100
AcDbEntity
  8
0
  6
Continuous
 62
               7
100
AcDbLine
 10
539.21435987838129
 20
206.77461433267538
 30
0.0
 11
544.2143598783814
 21
208.77461433267538
 31
0.0
  0
LINE
  5
164
100
AcDbEntity
  8
0
  6
Continuous
 62
               7
100
AcDbLine
 10
539.21435987838129
 20
204.77461433267538
 30
0.0
 11
544.21435987838129
 21
206.77461433267538
 31
0.0
  0
LINE
  5
165
100
AcDbEntity
  8
0
  6
Continuous
 62
               7
100
AcDbLine
 10
539.21435987838129
 20
202.77461433267538
 30
0.0
 11
544.21435987838129
 21
204.77461433267538
 31
0.0
  0
LINE
  5
166
100
AcDbEntity
  8
0
  6
Continuous
 62
               7
100
AcDbLine
 10
539.21435987838129
 20
200.77461433267538
 30
0.0
 11
542.2143598783814
 21
201.97461433267543
 31
0.0
  0
LINE
  5
167
100
AcDbEntity
  8
0
  6
Continuous
 62
               7
100
AcDbLine
 10
543.71435987838129
 20
194.27461433267527
 30
0.0
 11
543.7143598783814
 21
202.57461433267545
 31
0.0
  0
LINE
  5
168
100
AcDbEntity
  8
0
  6
Continuous
 62
               7
100
AcDbLine
 10
542.2143598783814
 20
201.97461433267543
 30
0.0
 11
543.26435987838147
 21
203.02461433267538
 31
0.0
  0
LINE
  5
169
100
AcDbEntity
  8
0
  6
Continuous
 62
               7
100
AcDbLine
 10
543.7143598783814
 20
202.57461433267534
 30
0.0
 11
543.26435987838147
 21
203.02461433267538
 31
0.0
  0
LINE
  5
16A
100
AcDbEntity
  8
0
  6
Continuous
 62
               7
100
AcDbLine
 10
543.7143598783814
 20
202.57461433267545
 30
0.0
 11
544.21435987838129
 21
202.77461433267538
 31
0.0
  0
LINE
  5
16B
100
AcDbEntity
  8
0
  6
Continuous
 62
               7
100
AcDbLine
 10
544.21435987838129
 20
193.77461433267527
 30
0.0
 11
543.71435987838129
 21
194.27461433267527
 31
0.0
  0
LINE
  5
16C
100
AcDbEntity
  8
0
  6
Continuous
 62
               2
100
AcDbLine
 10
527.96149146952098
 20
232.67861215074836
 30
0.0
 11
666.46149146952121
 21
232.67861215074836
 31
0.0
  0
LINE
  5
16D
100
AcDbEntity
  8
0
  6
Continuous
 62
               2
100
AcDbLine
 10
515.46149146952087
 20
232.67861215074836
 30
0.0
 11
338.96149146952109
 21
232.67861215074836
 31
0.0
  0
LINE
  5
16E
100
AcDbEntity
  8
0
  6
Continuous
 62
               4
100
AcDbLine
 10
498.96149146951853
 20
262.67861215074839
 30
0.0
 11
464.96149146952115
 21
262.67861215074839
 31
0.0
  0
CIRCLE
  5
16F
100
AcDbEntity
  8
0
  6
Continuous
 62
               4
100
AcDbCircle
 10
521.46149146952109
 20
305.67861215074839
 30
0.0
 40
1.5
  0
CIRCLE
  5
170
100
AcDbEntity
  8
0
  6
Continuous
 62
               4
100
AcDbCircle
 10
368.46149146952109
 20
240.67861215074836
 30
0.0
 40
1.5
  0
CIRCLE
  5
171
100
AcDbEntity
  8
0
  6
Continuous
 62
               4
100
AcDbCircle
 10
368.46149146952109
 20
340.67861215074839
 30
0.0
 40
1.5
  0
CIRCLE
  5
172
100
AcDbEntity
  8
0
  6
Continuous
 62
               4
100
AcDbCircle
 10
340.46149146952109
 20
305.67861215074839
 30
0.0
 40
1.5
  0
CIRCLE
  5
173
100
AcDbEntity
  8
0
  6
Continuous
 62
               4
100
AcDbCircle
 10
577.48829570788268
 20
218.67861215074836
 30
0.0
 40
1.5
  0
CIRCLE
  5
174
100
AcDbEntity
  8
0
  6
Continuous
 62
               4
100
AcDbCircle
 10
583.83914866896851
 20
229.67861215074836
 30
0.0
 40
1.5
  0
CIRCLE
  5
175
100
AcDbEntity
  8
0
  6
Continuous
 62
               4
100
AcDbCircle
 10
585.57119947653734
 20
232.67861215074836
 30
0.0
 40
1.5
  0
CIRCLE
  5
176
100
AcDbEntity
  8
0
  6
Continuous
 62
               4
100
AcDbCircle
 10
467.96149146952109
 20
232.67861215074836
 30
0.0
 40
1.5
  0
CIRCLE
  5
177
100
AcDbEntity
  8
0
  6
Continuous
 62
               4
100
AcDbCircle
 10
467.96149146952109
 20
262.67861215074839
 30
0.0
 40
1.5
  0
CIRCLE
  5
178
100
AcDbEntity
  8
0
  6
Continuous
 62
               4
100
AcDbCircle
 10
368.46149146952109
 20
340.67861215074839
 30
0.0
 40
1.5
  0
CIRCLE
  5
179
100
AcDbEntity
  8
0
  6
Continuous
 62
               4
100
AcDbCircle
 10
368.46149146952109
 20
360.67861215074839
 30
0.0
 40
1.5
  0
CIRCLE
  5
17A
100
AcDbEntity
  8
0
  6
Continuous
 62
               4
100
AcDbCircle
 10
467.96149146952109
 20
232.67861215074836
 30
0.0
 40
1.5
  0
CIRCLE
  5
17B
100
AcDbEntity
  8
0
  6
Continuous
 62
               4
100
AcDbCircle
 10
467.96149146952109
 20
209.67861215074836
 30
0.0
 40
1.5
  0
CIRCLE
  5
17C
100
AcDbEntity
  8
0
  6
Continuous
 62
               4
100
AcDbCircle
 10
451.96149146952109
 20
232.67861215074836
 30
0.0
 40
1.5
  0
CIRCLE
  5
17D
100
AcDbEntity
  8
0
  6
Continuous
 62
               4
100
AcDbCircle
 10
451.96149146952109
 20
227.67861215074836
 30
0.0
 40
1.5
  0
CIRCLE
  5
17E
100
AcDbEntity
  8
0
  6
Continuous
 62
               4
100
AcDbCircle
 10
451.96149146952109
 20
227.67861215074836
 30
0.0
 40
1.5
  0
CIRCLE
  5
17F
100
AcDbEntity
  8
0
  6
Continuous
 62
               4
100
AcDbCircle
 10
451.96149146952109
 20
209.67861215074836
 30
0.0
 40
1.5
  0
CIRCLE
  5
180
100
AcDbEntity
  8
0
  6
Continuous
 62
               4
100
AcDbCircle
 10
342.7922056105848
 20
263.56024171310963
 30
0.0
 40
1.5
  0
CIRCLE
  5
181
100
AcDbEntity
  8
0
  6
Continuous
 62
               4
100
AcDbCircle
 10
392.53485511681731
 20
258.49347423039245
 30
0.0
 40
1.5
  0
ARC
  5
182
100
AcDbEntity
  8
0
  6
Continuous
 62
               6
100
AcDbCircle
 10
326.06149137415366
 20
205.07861224611574
 30
0.0
 40
2.2999999523162842
100
AcDbArc
 50
89.999999999999915
 51
180.0
  0
ARC
  5
183
100
AcDbEntity
  8
0
  6
Continuous
 62
               6
100
AcDbCircle
 10
326.06149137415366
 20
205.07861224611574
 30
0.0
 40
4.5999999046325684
100
AcDbArc
 50
89.999999999999915
 51
180.0
  0
ARC
  5
184
100
AcDbEntity
  8
0
  6
Continuous
 62
               6
100
AcDbCircle
 10
366.86149156488852
 20
205.07861224611574
 30
0.0
 40
2.2999999523162842
100
AcDbArc
 50
0.0
 51
89.999999999999915
  0
ARC
  5
185
100
AcDbEntity
  8
0
  6
Continuous
 62
               6
100
AcDbCircle
 10
366.86149156488852
 20
205.07861224611574
 30
0.0
 40
4.5999999046325684
100
AcDbArc
 50
0.0
 51
89.999999999999915
  0
ARC
  5
186
100
AcDbEntity
  8
0
  6
Continuous
 62
               6
100
AcDbCircle
 10
366.86149156488852
 20
114.27861205538082
 30
0.0
 40
4.5999999046325684
100
AcDbArc
 50
270.0
 51
0.0
  0
ARC
  5
187
100
AcDbEntity
  8
0
  6
Continuous
 62
               6
100
AcDbCircle
 10
366.86149156488852
 20
114.27861205538082
 30
0.0
 40
2.2999999523162842
100
AcDbArc
 50
270.0
 51
0.0
  0
ARC
  5
188
100
AcDbEntity
  8
0
  6
Continuous
 62
               6
100
AcDbCircle
 10
326.06149137415366
 20
114.27861205538082
 30
0.0
 40
2.2999999523162842
100
AcDbArc
 50
180.0
 51
270.0
  0
ARC
  5
189
100
AcDbEntity
  8
0
  6
Continuous
 62
               6
100
AcDbCircle
 10
326.06149137415366
 20
114.27861205538082
 30
0.0
 40
4.5999999046325684
100
AcDbArc
 50
180.0
 51
270.0
  0
ARC
  5
18A
100
AcDbEntity
  8
0
  6
Continuous
 62
               6
100
AcDbCircle
 10
313.86149156488852
 20
330.27861205538119
 30
0.0
 40
2.2999999523162842
100
AcDbArc
 50
270.0
 51
0.0
  0
ARC
  5
18B
100
AcDbEntity
  8
0
  6
Continuous
 62
               6
100
AcDbCircle
 10
313.86149156488852
 20
330.27861205538119
 30
0.0
 40
4.5999999046325684
100
AcDbArc
 50
270.0
 51
0.0
  0
ARC
  5
18C
100
AcDbEntity
  8
0
  6
Continuous
 62
               6
100
AcDbCircle
 10
313.86149156488841
 20
371.07861224611605
 30
0.0
 40
2.2999999523162842
100
AcDbArc
 50
0.0
 51
90.000000000000028
  0
ARC
  5
18D
100
AcDbEntity
  8
0
  6
Continuous
 62
               6
100
AcDbCircle
 10
313.86149156488841
 20
371.07861224611605
 30
0.0
 40
4.5999999046325684
100
AcDbArc
 50
0.0
 51
90.000000000000028
  0
ARC
  5
18E
100
AcDbEntity
  8
0
  6
Continuous
 62
               6
100
AcDbCircle
 10
223.0614913741536
 20
371.07861224611582
 30
0.0
 40
4.5999999046325684
100
AcDbArc
 50
90.000000000000028
 51
180.0
  0
ARC
  5
18F
100
AcDbEntity
  8
0
  6
Continuous
 62
               6
100
AcDbCircle
 10
223.0614913741536
 20
371.07861224611582
 30
0.0
 40
2.2999999523162842
100
AcDbArc
 50
90.000000000000028
 51
180.0
  0
ARC
  5
190
100
AcDbEntity
  8
0
  6
Continuous
 62
               6
100
AcDbCircle
 10
223.0614913741536
 20
330.27861205538085
 30
0.0
 40
2.2999999523162842
100
AcDbArc
 50
180.0
 51
270.0
  0
ARC
  5
191
100
AcDbEntity
  8
0
  6
Continuous
 62
               6
100
AcDbCircle
 10
223.0614913741536
 20
330.27861205538085
 30
0.0
 40
4.5999999046325684
100
AcDbArc
 50
180.0
 51
270.0
  0
ARC
  5
192
100
AcDbEntity
  8
0
  6
Continuous
 62
               2
100
AcDbCircle
 10
339.26149146952105
 20
338.67861476496438
 30
0.0
 40
0.299999999999997
100
AcDbArc
 50
0.0
 51
180.0
  0
ARC
  5
193
100
AcDbEntity
  8
0
  6
Continuous
 62
               2
100
AcDbCircle
 10
389.34180050622001
 20
234.87148587056893
 30
0.0
 40
0.823933190545607
100
AcDbArc
 50
275.04633806355668
 51
84.183932837446648
  0
ARC
  5
194
100
AcDbEntity
  8
0
  6
Continuous
 62
               7
100
AcDbCircle
 10
374.52812182758134
 20
350.67861650777996
 30
0.0
 40
42.266630358060752
100
AcDbArc
 50
166.31444726843205
 51
192.98896922566291
  0
ARC
  5
195
100
AcDbEntity
  8
0
  6
Continuous
 62
               7
100
AcDbCircle
 10
290.086662033827
 20
322.10123853017689
 30
0.0
 40
30.0
100
AcDbArc
 50
87.007697987124089
 51
105.13721482729196
  0
ARC
  5
196
100
AcDbEntity
  8
0
  6
Continuous
 62
               7
100
AcDbCircle
 10
306.89747409957465
 20
286.94305720117262
 30
0.0
 40
30.0
100
AcDbArc
 50
87.007697987124089
 51
105.13721482729196
  0
ARC
  5
197
100
AcDbEntity
  8
0
  6
Continuous
 62
               2
100
AcDbCircle
 10
497.39450417141063
 20
250.17028190155096
 30
0.0
 40
0.500000000000016
100
AcDbArc
 50
150.00000000000108
 51
329.99999999999943
  0
ARC
  5
198
100
AcDbEntity
  8
0
  6
Continuous
 62
               2
100
AcDbCircle
 10
497.37655497897947
 20
249.73726919965881
 30
0.0
 40
2.5000000000000009
100
AcDbArc
 50
149.9999999999998
 51
329.99999999999989
  0
ARC
  5
199
100
AcDbEntity
  8
0
  6
Continuous
 62
               2
100
AcDbCircle
 10
503.82511213749638
 20
256.40649783371896
 30
0.0
 40
0.249999999999996
100
AcDbArc
 50
329.99999999999943
 51
149.99999999999943
  0
ARC
  5
19A
100
AcDbEntity
  8
0
  6
Continuous
 62
               7
100
AcDbCircle
 10
512.25526315787477
 20
200.40856079230494
 30
0.0
 40
30.0
100
AcDbArc
 50
344.86278517270802
 51
2.9923020128758626
  0
TEXT
  5
19B
100
AcDbEntity
  8
0
 62
               7
100
AcDbText
 10
671.74570470983861
 20
338.51727474159571
 30
0.0
 40
8.9999997615814333
  1
硬質木片セメント板 18mm
 41
0.7695
  7
FontTableH_0
 72
               5
 11
756.76356224438348
 21
338.51727474159571
 31
0.0
100
AcDbText
  0
TEXT
  5
19C
100
AcDbEntity
  8
0
 62
               7
100
AcDbText
 10
581.96207433874486
 20
307.17975032753321
 30
0.0
 40
9.600000381469739
  1
＠385
 50
359.99998269715599
 41
0.7695
  7
FontTableH_0
 72
               5
 11
596.96207493479062
 21
307.17974579765905
 31
0.0
100
AcDbText
  0
TEXT
  5
19D
100
AcDbEntity
  8
0
 62
               7
100
AcDbText
 10
671.74582678015111
 20
354.51764095253321
 30
0.0
 40
8.9999997615814333
  1
アスファルトルーフィング 22kg
 41
0.7695
  7
FontTableH_0
 72
               5
 11
783.05464461556642
 21
354.51764095253321
 31
0.0
100
AcDbText
  0
TEXT
  5
19E
100
AcDbEntity
  8
0
 62
               7
100
AcDbText
 10
366.96103674108861
 20
283.47870052284571
 30
0.0
 40
9.600000381469739
  1
100
 50
89.999982013910653
 41
0.7695
  7
FontTableH_0
 72
               5
 11
366.96104126148606
 21
297.87870109504962
 31
0.0
100
AcDbText
  0
TEXT
  5
19F
100
AcDbEntity
  8
0
 62
               7
100
AcDbText
 10
397.36179357702611
 20
307.17889583534571
 30
0.0
 40
9.600000381469739
  1
（割付により調整）
 41
0.7695
  7
FontTableH_0
 72
               5
 11
483.76179701025376
 21
307.17889583534571
 31
0.0
100
AcDbText
  0
TEXT
  5
1A0
100
AcDbEntity
  8
0
 62
               7
100
AcDbText
 10
381.46317297155736
 20
342.18036067909571
 30
0.0
 40
8.9999997615814333
  1
雨押え：屋根同材
 41
0.7695
  7
FontTableH_0
 72
               5
 11
453.46317106420884
 21
342.18036067909571
 31
0.0
100
AcDbText
  0
TEXT
  5
1A1
100
AcDbEntity
  8
0
 62
               7
100
AcDbText
 10
466.46183019811986
 20
242.87884700722074
 30
0.0
 40
9.600000381469739
  1
30
 50
89.999982013910653
 41
0.7695
  7
FontTableH_0
 72
               5
 11
466.46183321171816
 21
252.47884738869001
 31
0.0
100
AcDbText
  0
TEXT
  5
1A2
100
AcDbEntity
  8
0
 62
               7
100
AcDbText
 10
366.96183019811986
 20
345.87884700722071
 30
0.0
 40
9.600000381469739
  1
20
 50
89.999982013910653
 41
0.7695
  7
FontTableH_0
 72
               5
 11
366.96183321171816
 21
355.47884738868999
 31
0.0
100
AcDbText
  0
TEXT
  5
1A3
100
AcDbEntity
  8
0
 62
               7
100
AcDbText
 10
466.46183019811986
 20
216.37884700722074
 30
0.0
 40
9.600000381469739
  1
23
 50
89.999982013910653
 41
0.7695
  7
FontTableH_0
 72
               5
 11
466.46183321171816
 21
225.97884738869001
 31
0.0
100
AcDbText
  0
TEXT
  5
1A4
100
AcDbEntity
  8
0
 62
               7
100
AcDbText
 10
450.46183019811986
 20
233.77887142128324
 30
0.0
 40
9.600000381469739
  1
5
 50
89.999982013910653
 41
0.7695
  7
FontTableH_0
 72
               5
 11
450.46183170491901
 21
238.57887161201788
 31
0.0
100
AcDbText
  0
TEXT
  5
1A5
100
AcDbEntity
  8
0
 62
               7
100
AcDbText
 10
450.46183019811986
 20
213.87884700722074
 30
0.0
 40
9.600000381469739
  1
18
 50
89.999982013910653
 41
0.7695
  7
FontTableH_0
 72
               5
 11
450.46183321171816
 21
223.47884738869001
 31
0.0
100
AcDbText
  0
TEXT
  5
1A6
100
AcDbEntity
  8
0
 62
               7
100
AcDbText
 10
363.03977209265111
 20
263.00555599159571
 30
0.0
 40
9.600000381469739
  1
50
 50
354.18394001510671
 41
0.7695
  7
FontTableH_0
 72
               5
 11
372.59035497172721
 21
262.032738437212
 31
0.0
100
AcDbText
  0
TEXT
  5
1A7
100
AcDbEntity
  8
0
 62
               7
100
AcDbText
 10
71.292976438354231
 20
248.11645687050199
 30
0.0
 40
8.9999997615814333
  1
下地材：硬質木片セメント板 18㎜
 41
0.7695
  7
FontTableH_0
 72
               5
 11
198.48414611576624
 21
248.11645687050199
 31
0.0
100
AcDbText
  0
TEXT
  5
1A8
100
AcDbEntity
  8
0
 62
               7
100
AcDbText
 10
360.57071691686986
 20
399.19989192909571
 30
0.0
 40
8.9999997615814333
  1
コーキング（別途）
 41
0.7695
  7
FontTableH_0
 72
               5
 11
441.57071477110276
 21
399.19989192909571
 31
0.0
100
AcDbText
  0
TEXT
  5
1A9
100
AcDbEntity
  8
0
 62
               7
100
AcDbText
 10
143.49311071569798
 20
387.18054378456446
 30
0.0
 40
8.9999997615814333
  1
（別途）
 41
0.7695
  7
FontTableH_0
 72
               5
 11
179.49310976202372
 21
387.18054378456446
 31
0.0
100
AcDbText
  0
TEXT
  5
1AA
100
AcDbEntity
  8
0
 62
               7
100
AcDbText
 10
722.28679835254297
 20
26.713203554805766
 30
0.0
 40
8.9999997615814333
  1
ケラバ壁取合い詳細図 【S=1/3】
 41
0.7695
  7
FontTableH_0
 72
               5
 11
857.28679477626451
 21
26.713203554805766
 31
0.0
100
AcDbText
  0
TEXT
  5
1AB
100
AcDbEntity
  8
0
 62
               7
100
AcDbText
 10
671.74570470983861
 20
370.51709163612696
 30
0.0
 40
8.9999997615814333
  1
ストロングルーフ SF：各種金属板
 41
0.7695
  7
FontTableH_0
 72
               5
 11
798.93687438725067
 21
370.51709163612696
 31
0.0
100
AcDbText
  0
TEXT
  5
1AC
100
AcDbEntity
  8
0
 62
               7
100
AcDbText
 10
26.142137292660934
 20
601.35786449547834
 30
0.0
 40
8.9999997615814333
  1
ハーパーズストロングルーフSF
 41
0.7695
  7
FontTableH_0
 72
               5
 11
152.14213395480101
 21
601.35786449547834
 31
0.0
100
AcDbText
  0
ENDSEC
  0
SECTION
  2
OBJECTS
  0
DICTIONARY
  5
19
100
AcDbDictionary
  3
ACAD_GROUP
350
1A
  3
ACAD_MLINESTYLE
350
1B
  3
DWGPROPS
350
1AD
  0
DICTIONARY
  5
1A
102
{ACAD_REACTORS
330
19
102
}
100
AcDbDictionary
  0
DICTIONARY
  5
1B
102
{ACAD_REACTORS
330
19
102
}
100
AcDbDictionary
  3
STANDARD
350
1C
  0
MLINESTYLE
  5
1C
102
{ACAD_REACTORS
330
1B
102
}
100
AcDbMlineStyle
  2
Standard
 70
               0
  3

 62
               0
 51
90.0
 52
90.0
 71
               2
 49
0.5
 62
             256
  6
ByLayer
 49
-0.5
 62
             256
  6
ByLayer
  0
XRECORD
  5
1AD
100
AcDbXrecord
  1
DWGPROPS COOKIE
  2

  3

  4

  6

  7

  0
ENDSEC
  0
EOF
