  0
SECTION
  2
HEADER
  9
$ACADVER
  1
AC1014
  9
$ACADMAINTVER
 70
               0
  9
$DWGCODEPAGE
  3
ANSI_932
  9
$INSBASE
 10
0.0
 20
0.0
 30
0.0
  9
$EXTMIN
 10
0.0
 20
0.0
 30
0.0
  9
$EXTMAX
 10
891.00000000000091
 20
630.00000000000068
 30
0.0
  9
$LIMMIN
 10
0.0
 20
0.0
  9
$LIMMAX
 10
891.00000000000091
 20
630.00000000000068
  9
$ORTHOMODE
 70
               0
  9
$REGENMODE
 70
               1
  9
$FILLMODE
 70
               1
  9
$QTEXTMODE
 70
               0
  9
$MIRRTEXT
 70
               1
  9
$DRAGMODE
 70
               2
  9
$LTSCALE
 40
3.0000000000000031
  9
$OSMODE
 70
               0
  9
$ATTMODE
 70
               1
  9
$TEXTSIZE
 40
0.2
  9
$TRACEWID
 40
0.05
  9
$TEXTSTYLE
  7
Standard
  9
$CLAYER
  8
0
  9
$CELTYPE
  6
Continuous
  9
$CECOLOR
 62
             256
  9
$CELTSCALE
 40
1.0
  9
$DELOBJ
 70
               1
  9
$DISPSILH
 70
               0
  9
$DIMSCALE
 40
1.0
  9
$DIMASZ
 40
0.18
  9
$DIMEXO
 40
0.0625
  9
$DIMDLI
 40
0.38
  9
$DIMRND
 40
0.0
  9
$DIMDLE
 40
0.0
  9
$DIMEXE
 40
0.18
  9
$DIMTP
 40
0.0
  9
$DIMTM
 40
0.0
  9
$DIMTXT
 40
0.18
  9
$DIMCEN
 40
0.09
  9
$DIMTSZ
 40
0.0
  9
$DIMTOL
 70
               0
  9
$DIMLIM
 70
               0
  9
$DIMTIH
 70
               1
  9
$DIMTOH
 70
               1
  9
$DIMSE1
 70
               0
  9
$DIMSE2
 70
               0
  9
$DIMTAD
 70
               0
  9
$DIMZIN
 70
               0
  9
$DIMBLK
  1

  9
$DIMASO
 70
               1
  9
$DIMSHO
 70
               1
  9
$DIMPOST
  1

  9
$DIMAPOST
  1

  9
$DIMALT
 70
               0
  9
$DIMALTD
 70
               2
  9
$DIMALTF
 40
25.399999999999999
  9
$DIMLFAC
 40
1.0
  9
$DIMTOFL
 70
               0
  9
$DIMTVP
 40
0.0
  9
$DIMTIX
 70
               0
  9
$DIMSOXD
 70
               0
  9
$DIMSAH
 70
               0
  9
$DIMBLK1
  1

  9
$DIMBLK2
  1

  9
$DIMSTYLE
  2
Standard
  9
$DIMCLRD
 70
               0
  9
$DIMCLRE
 70
               0
  9
$DIMCLRT
 70
               0
  9
$DIMTFAC
 40
1.0
  9
$DIMGAP
 40
0.09
  9
$DIMJUST
 70
               0
  9
$DIMSD1
 70
               0
  9
$DIMSD2
 70
               0
  9
$DIMTOLJ
 70
               1
  9
$DIMTZIN
 70
               0
  9
$DIMALTZ
 70
               0
  9
$DIMALTTZ
 70
               0
  9
$DIMFIT
 70
               3
  9
$DIMUPT
 70
               0
  9
$DIMUNIT
 70
               2
  9
$DIMDEC
 70
               4
  9
$DIMTDEC
 70
               4
  9
$DIMALTU
 70
               2
  9
$DIMALTTD
 70
               2
  9
$DIMTXSTY
  7
Standard
  9
$DIMAUNIT
 70
               0
  9
$LUNITS
 70
               2
  9
$LUPREC
 70
               4
  9
$SKETCHINC
 40
0.1
  9
$FILLETRAD
 40
0.0
  9
$AUNITS
 70
               0
  9
$AUPREC
 70
               0
  9
$MENU
  1
acad
  9
$ELEVATION
 40
0.0
  9
$PELEVATION
 40
0.0
  9
$THICKNESS
 40
0.0
  9
$LIMCHECK
 70
               0
  9
$BLIPMODE
 70
               1
  9
$CHAMFERA
 40
0.0
  9
$CHAMFERB
 40
0.0
  9
$CHAMFERC
 40
0.0
  9
$CHAMFERD
 40
0.0
  9
$SKPOLY
 70
               0
  9
$TDCREATE
 40
0.000000000
  9
$TDUPDATE
 40
0.000000000
  9
$TDINDWG
 40
0.0000000000
  9
$TDUSRTIMER
 40
0.0000000000
  9
$USRTIMER
 70
               1
  9
$ANGBASE
 50
0.0
  9
$ANGDIR
 70
               0
  9
$PDMODE
 70
               0
  9
$PDSIZE
 40
0.0
  9
$PLINEWID
 40
0.0
  9
$COORDS
 70
               0
  9
$SPLFRAME
 70
               0
  9
$SPLINETYPE
 70
               6
  9
$SPLINESEGS
 70
               8
  9
$ATTDIA
 70
               0
  9
$ATTREQ
 70
               1
  9
$HANDLING
 70
               1
  9
$HANDSEED
  5
155
  9
$SURFTAB1
 70
               6
  9
$SURFTAB2
 70
               6
  9
$SURFTYPE
 70
               6
  9
$SURFU
 70
               6
  9
$SURFV
 70
               6
  9
$UCSNAME
  2

  9
$UCSORG
 10
0.0
 20
0.0
 30
0.0
  9
$UCSXDIR
 10
1.0
 20
0.0
 30
0.0
  9
$UCSYDIR
 10
0.0
 20
1.0
 30
0.0
  9
$PUCSNAME
  2

  9
$PUCSORG
 10
0.0
 20
0.0
 30
0.0
  9
$PUCSXDIR
 10
1.0
 20
0.0
 30
0.0
  9
$PUCSYDIR
 10
0.0
 20
1.0
 30
0.0
  9
$USERI1
 70
               0
  9
$USERI2
 70
               0
  9
$USERI3
 70
               0
  9
$USERI4
 70
               0
  9
$USERI5
 70
               0
  9
$USERR1
 40
0.0
  9
$USERR2
 40
0.0
  9
$USERR3
 40
0.0
  9
$USERR4
 40
0.0
  9
$USERR5
 40
0.0
  9
$WORLDVIEW
 70
               1
  9
$SHADEDGE
 70
               3
  9
$SHADEDIF
 70
              70
  9
$TILEMODE
 70
               1
  9
$MAXACTVP
 70
              16
  9
$PINSBASE
 10
0.0
 20
0.0
 30
0.0
  9
$PLIMCHECK
 70
               0
  9
$PEXTMIN
 10
1.0000000000000000E+20
 20
1.0000000000000000E+20
 30
1.0000000000000000E+20
  9
$PEXTMAX
 10
-1.0000000000000000E+20
 20
-1.0000000000000000E+20
 30
-1.0000000000000000E+20
  9
$PLIMMIN
 10
0.0
 20
0.0
  9
$PLIMMAX
 10
12.0
 20
9.0
  9
$UNITMODE
 70
               0
  9
$VISRETAIN
 70
               0
  9
$PLINEGEN
 70
               1
  9
$PSLTSCALE
 70
               0
  9
$TREEDEPTH
 70
            3020
  9
$PICKSTYLE
 70
               1
  9
$CMLSTYLE
  2
Standard
  9
$CMLJUST
 70
               0
  9
$CMLSCALE
 40
1.0
  9
$PROXYGRAPHICS
 70
               0
  9
$MEASUREMENT
 70
               0
  0
ENDSEC
  0
SECTION
  2
CLASSES
  0
CLASS
  1
LWPOLYLINE
  2
AcDbPolyline
  3
"AutoCAD"
 90
        0
280
               0
281
               1
  0
CLASS
  1
IMAGE
  2
AcDbRasterImage
  3
ISM
 90
      127
280
               0
281
               1
  0
CLASS
  1
OLE2FRAME
  2
AcDbOle2Frame
  3
""
 90
        0
280
               0
281
               1
  0
CLASS
  1
HATCH
  2
AcDbHatch
  3
"ACAD_SEDONA"
 90
        0
280
               0
281
               1
  0
CLASS
  1
DICTIONARYVAR
  2
AcDbDictionaryVar
  3
"AutoCAD"
 90
        0
280
               0
281
               0
  0
CLASS
  1
RASTERVARIABLES
  2
AcDbRasterVariables
  3
ISM
 90
        0
280
               0
281
               0
  0
CLASS
  1
IMAGEDEF
  2
AcDbRasterImageDef
  3
ISM
 90
        0
280
               0
281
               0
  0
CLASS
  1
IMAGEDEF_REACTOR
  2
AcDbRasterImageDefReactor
  3
ISM
 90
        1
280
               0
281
               0
  0
CLASS
  1
IDBUFFER
  2
AcDbIdBuffer
  3
"Acad"
 90
        0
280
               0
281
               0
  0
CLASS
  1
SPATIAL_FILTER
  2
AcDbSpatialFilter
  3
"Acad"
 90
        0
280
               0
281
               0
  0
CLASS
  1
XRECORD
  2
AcDbXrecord
  3
"<Built In>"
 90
        0
280
               0
281
               0
  0
CLASS
  1
SORTENTSTABLE
  2
AcDbSortentsTable
  3
"AutoCAD"
 90
        0
280
               0
281
               0
  0
CLASS
  1
LAYER_INDEX
  2
AcDbLayerIndex
  3
"Acad"
 90
        0
280
               0
281
               0
  0
CLASS
  1
SPATIAL_INDEX
  2
AcDbSpatialIndex
  3
"Acad"
 90
        0
280
               0
281
               0
  0
CLASS
  1
OBJECT_PTR
  2
CAseDLPNTableRecord
  3
"ASE-LPNTableRecord"
 90
        1
280
               0
281
               0
  0
CLASS
  1
LAYOUT
  2
AcDbLayout
  3
"AutoCAD 2000"
 90
        0
280
               0
281
               0
  0
CLASS
  1
PLOTSETTINGS
  2
AcDbPlotSettings
  3
"AutoCAD 2000"
 90
        0
280
               0
281
               0
  0
CLASS
  1
ACDBDICTIONARYWDFLT
  2
AcDbDictionaryWithDefault
  3
"AutoCAD 2000"
 90
        0
280
               0
281
               0
  0
CLASS
  1
ACDBPLACEHOLDER
  2
AcDbPlaceHolder
  3
"AutoCAD 2000"
 90
        0
280
               0
281
               0
  0
CLASS
  1
VBA_PROJECT
  2
AcDbVbaProject
  3
"acadvba"
 90
        0
280
               0
281
               0
  0
CLASS
  1
WIPEOUT
  2
AcDbWipeout
  3
WipeOut|AutoCAD Express Tool|expresstools@autodesk.com
 90
      127
280
               0
281
               1
  0
CLASS
  1
WIPEOUTVARIABLES
  2
AcDbWipeoutVariables
  3
WipeOut|AutoCAD Express Tool|expresstools@autodesk.com
 90
        0
280
               0
281
               0
  0
CLASS
  1
RTEXT
  2
RText
  3
RText|AutoCAD Express Tool|expresstools@autodesk.com
 90
        0
280
               0
281
               1
  0
CLASS
  1
ARCALIGNEDTEXT
  2
AcDbArcAlignedText
  3
ATEXT|AutoCAD Express Tool|expresstools@autodesk.com
 90
        0
280
               0
281
               1
  0
ENDSEC
  0
SECTION
  2
TABLES
  0
TABLE
  2
VPORT
  5
7
100
AcDbSymbolTable
 70
               1
  0
VPORT
  5
15
100
AcDbSymbolTableRecord
100
AcDbViewportTableRecord
  2
*ACTIVE
 70
               0
 10
0.0
 20
0.0
 11
1.0
 21
1.0
 12
445.50000000000045
 22
315.00000000000034
 13
0.0
 23
0.0
 14
10.0
 24
10.0
 15
10.0
 25
10.0
 16
0.0
 26
0.0
 36
1.0
 17
0.0
 27
0.0
 37
0.0
 40
630.00000000000068
 41
1.4142857142857141
 42
50.0
 43
0.0
 44
0.0
 50
0.0
 51
0.0
 71
               0
 72
             100
 73
               1
 74
               1
 75
               0
 76
               0
 77
               0
 78
               0
  0
ENDTAB
  0
TABLE
  2
LTYPE
  5
4
100
AcDbSymbolTable
 70
              24
  0
LTYPE
  5
11
100
AcDbSymbolTableRecord
100
AcDbLinetypeTableRecord
  2
ByBlock
 70
              64
  3

 72
              65
 73
               0
 40
0.0
  0
LTYPE
  5
12
100
AcDbSymbolTableRecord
100
AcDbLinetypeTableRecord
  2
ByLayer
 70
              64
  3

 72
              65
 73
               0
 40
0.0
  0
LTYPE
  5
13
100
AcDbSymbolTableRecord
100
AcDbLinetypeTableRecord
  2
Continuous
 70
              64
  3
Solid line
 72
              65
 73
               0
 40
0.0
  0
LTYPE
  5
1D
100
AcDbSymbolTableRecord
100
AcDbLinetypeTableRecord
  2
DOT
 70
              64
  3
Dot . . . . . . . . . . . . . . . . . . . . . .
 72
              65
 73
               2
 40
6.3499999999999996
 49
0.35
 74
               0
 49
-6.0
 74
               0
  0
LTYPE
  5
1E
100
AcDbSymbolTableRecord
100
AcDbLinetypeTableRecord
  2
DASHED
 70
              64
  3
Dashed __ __ __ __ __ __ __ __ __ __ __ __ __ _
 72
              65
 73
               2
 40
12.699999999999999
 49
6.3499999999999996
 74
               0
 49
-6.3499999999999996
 74
               0
  0
LTYPE
  5
1F
100
AcDbSymbolTableRecord
100
AcDbLinetypeTableRecord
  2
DASHDOT
 70
              64
  3
Dash dot __ . __ . __ . __ . __ . __ . __ . __
 72
              65
 73
               4
 40
25.399999999999999
 49
12.699999999999999
 74
               0
 49
-6.0
 74
               0
 49
0.7
 74
               0
 49
-6.0
 74
               0
  0
LTYPE
  5
20
100
AcDbSymbolTableRecord
100
AcDbLinetypeTableRecord
  2
DIVIDE
 70
              64
  3
Divide ____ . . ____ . . ____ . . ____ . . ____
 72
              65
 73
               6
 40
31.75
 49
12.699999999999999
 74
               0
 49
-6.0
 74
               0
 49
0.875
 74
               0
 49
-6.0
 74
               0
 49
0.875
 74
               0
 49
-6.0
 74
               0
  0
LTYPE
  5
21
100
AcDbSymbolTableRecord
100
AcDbLinetypeTableRecord
  2
HIDDEN
 70
              64
  3
Hidden __ __ __ __ __ __ __ __ __ __ __ __ __ _
 72
              65
 73
               2
 40
9.5250000000000004
 49
6.3499999999999996
 74
               0
 49
-3.1749999999999998
 74
               0
  0
LTYPE
  5
22
100
AcDbSymbolTableRecord
100
AcDbLinetypeTableRecord
  2
CENTER
 70
              64
  3
Center ____ _ ____ _ ____ _ ____ _ ____ _ ____
 72
              65
 73
               4
 40
50.799999999999997
 49
31.75
 74
               0
 49
-6.3499999999999996
 74
               0
 49
6.3499999999999996
 74
               0
 49
-6.3499999999999996
 74
               0
  0
LTYPE
  5
23
100
AcDbSymbolTableRecord
100
AcDbLinetypeTableRecord
  2
PHANTOM
 70
              64
  3
Phantom ______  __  __  ______  __  __  ______
 72
              65
 73
               6
 40
63.5
 49
31.75
 74
               0
 49
-6.3499999999999996
 74
               0
 49
6.3499999999999996
 74
               0
 49
-6.3499999999999996
 74
               0
 49
6.3499999999999996
 74
               0
 49
-6.3499999999999996
 74
               0
  0
LTYPE
  5
24
100
AcDbSymbolTableRecord
100
AcDbLinetypeTableRecord
  2
ACAD_ISO02W100
 70
              64
  3
ISO dash __ __ __ __ __ __ __ __ __ __ __ __ __
 72
              65
 73
               2
 40
15.0
 49
12.0
 74
               0
 49
-3.0
 74
               0
  0
LTYPE
  5
25
100
AcDbSymbolTableRecord
100
AcDbLinetypeTableRecord
  2
ACAD_ISO03W100
 70
              64
  3
ISO dash space __ __ __ __ __ __ __ __ __ __ __ __ __ __
 72
              65
 73
               2
 40
30.0
 49
12.0
 74
               0
 49
-18.0
 74
               0
  0
LTYPE
  5
26
100
AcDbSymbolTableRecord
100
AcDbLinetypeTableRecord
  2
ACAD_ISO04W100
 70
              64
  3
ISO long-dash dot ____ . ____ . ____ . ____ . _
 72
              65
 73
               4
 40
30.0
 49
24.0
 74
               0
 49
-3.0
 74
               0
 49
0.0
 74
               0
 49
-3.0
 74
               0
  0
LTYPE
  5
27
100
AcDbSymbolTableRecord
100
AcDbLinetypeTableRecord
  2
ACAD_ISO05W100
 70
              64
  3
ISO long-dash double-dot ____ .. ____ .. ____ .
 72
              65
 73
               6
 40
33.0
 49
24.0
 74
               0
 49
-3.0
 74
               0
 49
0.0
 74
               0
 49
-3.0
 74
               0
 49
0.0
 74
               0
 49
-3.0
 74
               0
  0
LTYPE
  5
28
100
AcDbSymbolTableRecord
100
AcDbLinetypeTableRecord
  2
ACAD_ISO06W100
 70
              64
  3
ISO long-dash triple-dot ____ ... ____ ... ____
 72
              65
 73
               8
 40
36.0
 49
24.0
 74
               0
 49
-3.0
 74
               0
 49
0.0
 74
               0
 49
-3.0
 74
               0
 49
0.0
 74
               0
 49
-3.0
 74
               0
 49
0.0
 74
               0
 49
-3.0
 74
               0
  0
LTYPE
  5
29
100
AcDbSymbolTableRecord
100
AcDbLinetypeTableRecord
  2
ACAD_ISO07W100
 70
              64
  3
ISO dot . . . . . . . . . . . . . . . . . . . .
 72
              65
 73
               2
 40
3.0
 49
0.0
 74
               0
 49
-3.0
 74
               0
  0
LTYPE
  5
2A
100
AcDbSymbolTableRecord
100
AcDbLinetypeTableRecord
  2
ACAD_ISO08W100
 70
              64
  3
ISO long-dash short-dash ____ __ ____ __ ____ _
 72
              65
 73
               4
 40
36.0
 49
24.0
 74
               0
 49
-3.0
 74
               0
 49
6.0
 74
               0
 49
-3.0
 74
               0
  0
LTYPE
  5
2B
100
AcDbSymbolTableRecord
100
AcDbLinetypeTableRecord
  2
ACAD_ISO09W100
 70
              64
  3
ISO long-dash double-short-dash ____ __ __ ____
 72
              65
 73
               6
 40
45.0
 49
24.0
 74
               0
 49
-3.0
 74
               0
 49
6.0
 74
               0
 49
-3.0
 74
               0
 49
6.0
 74
               0
 49
-3.0
 74
               0
  0
LTYPE
  5
2C
100
AcDbSymbolTableRecord
100
AcDbLinetypeTableRecord
  2
ACAD_ISO10W100
 70
              64
  3
ISO dash dot __ . __ . __ . __ . __ . __ . __ .
 72
              65
 73
               4
 40
18.0
 49
12.0
 74
               0
 49
-3.0
 74
               0
 49
0.0
 74
               0
 49
-3.0
 74
               0
  0
LTYPE
  5
2D
100
AcDbSymbolTableRecord
100
AcDbLinetypeTableRecord
  2
ACAD_ISO11W100
 70
              64
  3
ISO double-dash dot __ __ . __ __ . __ __ . __ 
 72
              65
 73
               6
 40
33.0
 49
12.0
 74
               0
 49
-3.0
 74
               0
 49
12.0
 74
               0
 49
-3.0
 74
               0
 49
0.0
 74
               0
 49
-3.0
 74
               0
  0
LTYPE
  5
2E
100
AcDbSymbolTableRecord
100
AcDbLinetypeTableRecord
  2
ACAD_ISO12W100
 70
              64
  3
ISO dash double-dot __ . . __ . . __ . . __ . .
 72
              65
 73
               6
 40
21.0
 49
12.0
 74
               0
 49
-3.0
 74
               0
 49
0.0
 74
               0
 49
-3.0
 74
               0
 49
0.0
 74
               0
 49
-3.0
 74
               0
  0
LTYPE
  5
2F
100
AcDbSymbolTableRecord
100
AcDbLinetypeTableRecord
  2
ACAD_ISO13W100
 70
              64
  3
ISO double-dash double-dot __ __ . . __ __ . . 
 72
              65
 73
               8
 40
36.0
 49
12.0
 74
               0
 49
-3.0
 74
               0
 49
12.0
 74
               0
 49
-3.0
 74
               0
 49
0.0
 74
               0
 49
-3.0
 74
               0
 49
0.0
 74
               0
 49
-3.0
 74
               0
  0
LTYPE
  5
30
100
AcDbSymbolTableRecord
100
AcDbLinetypeTableRecord
  2
ACAD_ISO14W100
 70
              64
  3
ISO dash triple-dot __ . . . __ . . . __ . . . 
 72
              65
 73
               8
 40
24.0
 49
12.0
 74
               0
 49
-3.0
 74
               0
 49
0.0
 74
               0
 49
-3.0
 74
               0
 49
0.0
 74
               0
 49
-3.0
 74
               0
 49
0.0
 74
               0
 49
-3.0
 74
               0
  0
LTYPE
  5
31
100
AcDbSymbolTableRecord
100
AcDbLinetypeTableRecord
  2
ACAD_ISO15W100
 70
              64
  3
ISO double-dash double-dot __ __ . . __ __ . . 
 72
              65
 73
              10
 40
39.0
 49
12.0
 74
               0
 49
-3.0
 74
               0
 49
12.0
 74
               0
 49
-3.0
 74
               0
 49
0.0
 74
               0
 49
-3.0
 74
               0
 49
0.0
 74
               0
 49
-3.0
 74
               0
 49
0.0
 74
               0
 49
-3.0
 74
               0
  0
ENDTAB
  0
TABLE
  2
LAYER
  5
2
100
AcDbSymbolTable
 70
              16
  0
LAYER
  5
14
100
AcDbSymbolTableRecord
100
AcDbLayerTableRecord
  2
0
 70
               0
 62
               7
  6
Continuous
  0
LAYER
  5
35
100
AcDbSymbolTableRecord
100
AcDbLayerTableRecord
  2
Layer00001
 70
               0
 62
               7
  6
Continuous
  0
LAYER
  5
36
100
AcDbSymbolTableRecord
100
AcDbLayerTableRecord
  2
Layer00002
 70
               0
 62
               7
  6
Continuous
  0
LAYER
  5
37
100
AcDbSymbolTableRecord
100
AcDbLayerTableRecord
  2
Layer00003
 70
               0
 62
               7
  6
Continuous
  0
LAYER
  5
38
100
AcDbSymbolTableRecord
100
AcDbLayerTableRecord
  2
Layer00004
 70
               0
 62
               7
  6
Continuous
  0
LAYER
  5
39
100
AcDbSymbolTableRecord
100
AcDbLayerTableRecord
  2
Layer00005
 70
               0
 62
               7
  6
Continuous
  0
LAYER
  5
3A
100
AcDbSymbolTableRecord
100
AcDbLayerTableRecord
  2
Layer00006
 70
               0
 62
               7
  6
Continuous
  0
LAYER
  5
3B
100
AcDbSymbolTableRecord
100
AcDbLayerTableRecord
  2
Layer00007
 70
               0
 62
               7
  6
Continuous
  0
LAYER
  5
3C
100
AcDbSymbolTableRecord
100
AcDbLayerTableRecord
  2
Layer00008
 70
               0
 62
               7
  6
Continuous
  0
LAYER
  5
3D
100
AcDbSymbolTableRecord
100
AcDbLayerTableRecord
  2
Layer00009
 70
               0
 62
               7
  6
Continuous
  0
LAYER
  5
3E
100
AcDbSymbolTableRecord
100
AcDbLayerTableRecord
  2
Layer00010
 70
               0
 62
               7
  6
Continuous
  0
LAYER
  5
3F
100
AcDbSymbolTableRecord
100
AcDbLayerTableRecord
  2
Layer00011
 70
               0
 62
               7
  6
Continuous
  0
LAYER
  5
40
100
AcDbSymbolTableRecord
100
AcDbLayerTableRecord
  2
Layer00012
 70
               0
 62
               7
  6
Continuous
  0
LAYER
  5
41
100
AcDbSymbolTableRecord
100
AcDbLayerTableRecord
  2
Layer00013
 70
               0
 62
               7
  6
Continuous
  0
LAYER
  5
42
100
AcDbSymbolTableRecord
100
AcDbLayerTableRecord
  2
Layer00014
 70
               0
 62
               7
  6
Continuous
  0
LAYER
  5
43
100
AcDbSymbolTableRecord
100
AcDbLayerTableRecord
  2
Layer00015
 70
               0
 62
               7
  6
Continuous
  0
ENDTAB
  0
TABLE
  2
STYLE
  5
3
100
AcDbSymbolTable
 70
               4
  0
STYLE
  5
17
100
AcDbSymbolTableRecord
100
AcDbTextStyleTableRecord
  2
Standard
 70
               0
 40
0.0
 41
1.0
 50
0.0
 71
               0
 42
0.0
  3
txt.shx
  4
bigfont.shx
  0
STYLE
  5
32
100
AcDbSymbolTableRecord
100
AcDbTextStyleTableRecord
  2
STANDARD_T
 70
               4
 40
0.0
 41
1.0
 50
0.0
 71
               0
 42
0.0
  3
txt.shx
  4
bigfont.shx
  0
STYLE
  5
33
100
AcDbSymbolTableRecord
100
AcDbTextStyleTableRecord
  2
FontTableH_0
 70
               0
 40
0.0
 41
1.0
 50
0.0
 71
               0
 42
0.0
  3
MS Gothic.ttf
  4

1001
ACAD
1000
MS Gothic
1071
    32817
  0
STYLE
  5
34
100
AcDbSymbolTableRecord
100
AcDbTextStyleTableRecord
  2
FontTableV_0
 70
               0
 40
0.0
 41
1.0
 50
0.0
 71
               0
 42
0.0
  3
@MS Gothic.ttf
  4

1001
ACAD
1000
@MS Gothic
1071
    32817
  0
ENDTAB
  0
TABLE
  2
VIEW
  5
5
100
AcDbSymbolTable
 70
               0
  0
ENDTAB
  0
TABLE
  2
UCS
  5
6
100
AcDbSymbolTable
 70
               0
  0
ENDTAB
  0
TABLE
  2
APPID
  5
8
100
AcDbSymbolTable
 70
               1
  0
APPID
  5
16
100
AcDbSymbolTableRecord
100
AcDbRegAppTableRecord
  2
ACAD
 70
               0
  0
ENDTAB
  0
TABLE
  2
DIMSTYLE
  5
9
100
AcDbSymbolTable
 70
               1
  0
DIMSTYLE
105
18
100
AcDbSymbolTableRecord
100
AcDbDimStyleTableRecord
  2
Standard
 70
               0
  3

  4

  5

  6

  7

 40
1.0
 41
0.18
 42
0.0625
 43
0.38
 44
0.18
 45
0.0
 46
0.0
 47
0.0
 48
0.0
 71
               0
 72
               0
 73
               1
 74
               1
 75
               0
 76
               0
 77
               0
 78
               0
140
0.18
141
0.09
142
0.0
143
25.399999999999999
144
1.0
145
0.0
146
1.0
147
0.09
170
               0
171
               2
172
               0
173
               0
174
               0
175
               0
176
               0
177
               0
178
               0
270
               2
271
               4
272
               4
273
               2
274
               2
275
               0
280
               0
281
               0
282
               0
283
               1
284
               0
285
               0
286
               0
287
               0
288
               0
340
17
  0
ENDTAB
  0
TABLE
  2
BLOCK_RECORD
  5
1
100
AcDbSymbolTable
 70
               0
  0
BLOCK_RECORD
  5
A
100
AcDbSymbolTableRecord
100
AcDbBlockTableRecord
  2
*MODEL_SPACE
  0
BLOCK_RECORD
  5
B
100
AcDbSymbolTableRecord
100
AcDbBlockTableRecord
  2
*PAPER_SPACE
  0
ENDTAB
  0
ENDSEC
  0
SECTION
  2
BLOCKS
  0
BLOCK
  5
D
100
AcDbEntity
  8
0
100
AcDbBlockBegin
  2
*MODEL_SPACE
 70
               0
 10
0.0
 20
0.0
 30
0.0
  3
*MODEL_SPACE
  1

  0
ENDBLK
  5
E
100
AcDbEntity
  8
0
100
AcDbBlockEnd
  0
BLOCK
  5
F
100
AcDbEntity
 67
               1
  8
0
100
AcDbBlockBegin
  2
*PAPER_SPACE
 70
               0
 10
0.0
 20
0.0
 30
0.0
  3
*PAPER_SPACE
  1

  0
ENDBLK
  5
10
100
AcDbEntity
 67
               1
  8
0
100
AcDbBlockEnd
  0
ENDSEC
  0
SECTION
  2
ENTITIES
  0
LINE
  5
44
100
AcDbEntity
  8
0
  6
Continuous
 62
               3
100
AcDbLine
 10
338.21447524673556
 20
330.75911242282444
 30
0.0
 11
668.92841189473097
 21
429.97329341722303
 31
0.0
  0
LINE
  5
45
100
AcDbEntity
  8
0
  6
Continuous
 62
               3
100
AcDbLine
 10
343.38673718692974
 20
313.51823928884374
 30
0.0
 11
341.66264987353168
 21
319.26519700017064
 31
0.0
  0
LINE
  5
46
100
AcDbEntity
  8
0
  6
Continuous
 62
               3
100
AcDbLine
 10
341.66264987353168
 20
319.26519700017064
 30
0.0
 11
338.21447524673556
 21
330.75911242282444
 31
0.0
  0
LINE
  5
47
100
AcDbEntity
  8
0
  6
Continuous
 62
               6
100
AcDbLine
 10
376.52752656423627
 20
219.05741101292975
 30
0.0
 11
420.01284000462192
 21
232.10300504504548
 31
0.0
  0
LINE
  5
48
100
AcDbEntity
  8
0
  6
Continuous
 62
               6
100
AcDbLine
 10
418.69103975842063
 20
236.50900586571746
 30
0.0
 11
414.26588229329525
 21
251.25953074946878
 31
0.0
  0
LINE
  5
49
100
AcDbEntity
  8
0
  6
Continuous
 62
               6
100
AcDbLine
 10
414.26588229329525
 20
251.25953074946878
 30
0.0
 11
412.06288188295935
 21
250.59863062636785
 31
0.0
  0
LINE
  5
4A
100
AcDbEntity
  8
0
  6
Continuous
 62
               6
100
AcDbLine
 10
412.06288188295935
 20
250.59863062636785
 30
0.0
 11
416.48803934808461
 21
235.8481057426167
 31
0.0
  0
LINE
  5
4B
100
AcDbEntity
  8
0
  6
Continuous
 62
               6
100
AcDbLine
 10
414.94593906084947
 20
232.98420520917998
 30
0.0
 11
375.86662644113539
 21
221.26041142326577
 31
0.0
  0
LINE
  5
4C
100
AcDbEntity
  8
0
  6
Continuous
 62
               6
100
AcDbLine
 10
373.00272590769873
 20
222.80251171050085
 30
0.0
 11
346.91153784346727
 21
309.7731385912727
 31
0.0
  0
LINE
  5
4D
100
AcDbEntity
  8
0
  6
Continuous
 62
               6
100
AcDbLine
 10
348.45363813070242
 20
312.63703912470936
 30
0.0
 11
387.53295075041626
 21
324.36083291062363
 31
0.0
  0
LINE
  5
4E
100
AcDbEntity
  8
0
  6
Continuous
 62
               6
100
AcDbLine
 10
390.39685128385304
 20
322.81873262338837
 30
0.0
 11
394.82200874897831
 21
308.06820773963722
 31
0.0
  0
LINE
  5
4F
100
AcDbEntity
  8
0
  6
Continuous
 62
               6
100
AcDbLine
 10
394.82200874897831
 20
308.06820773963722
 30
0.0
 11
397.02500915931432
 21
308.72910786273798
 31
0.0
  0
LINE
  5
50
100
AcDbEntity
  8
0
  6
Continuous
 62
               6
100
AcDbLine
 10
397.02500915931432
 20
308.72910786273798
 30
0.0
 11
392.59985169418894
 21
323.47963274648924
 31
0.0
  0
LINE
  5
51
100
AcDbEntity
  8
0
  6
Continuous
 62
               6
100
AcDbLine
 10
386.8720506273155
 20
326.56383332095953
 30
0.0
 11
347.79273800760166
 21
314.84003953504538
 31
0.0
  0
LINE
  5
52
100
AcDbEntity
  8
0
  6
Continuous
 62
               6
100
AcDbLine
 10
344.70853743313137
 20
309.11223846817194
 30
0.0
 11
370.79972549736283
 21
222.14161158740015
 31
0.0
  0
LINE
  5
53
100
AcDbEntity
  8
0
  6
DIVIDE
 62
               6
100
AcDbLine
 10
373.55826517139599
 20
212.94647934062246
 30
0.0
 11
668.92841189473097
 21
301.55752335762207
 31
0.0
  0
LINE
  5
54
100
AcDbEntity
  8
0
  6
DASHED
 62
               6
100
AcDbLine
 10
390.32022516276629
 20
191.87430106575718
 30
0.0
 11
428.63327657161233
 21
203.36821648841098
 31
0.0
  0
LINE
  5
55
100
AcDbEntity
  8
0
  6
DIVIDE
 62
               6
100
AcDbLine
 10
382.17870173838628
 20
184.21169078398785
 30
0.0
 11
668.92841189473097
 21
270.23660383089037
 31
0.0
  0
LINE
  5
56
100
AcDbEntity
  8
0
  6
DIVIDE
 62
               6
100
AcDbLine
 10
373.55826517139599
 20
212.94647934062246
 30
0.0
 11
382.17870173838628
 21
184.21169078398785
 31
0.0
  0
LINE
  5
57
100
AcDbEntity
  8
0
  6
DASHED
 62
               6
100
AcDbLine
 10
421.44957943245367
 20
227.31387361893965
 30
0.0
 11
428.63327657161233
 21
203.36821648841098
 31
0.0
  0
LINE
  5
58
100
AcDbEntity
  8
0
  6
DASHED
 62
               6
100
AcDbLine
 10
383.13652802360764
 20
215.81995819628597
 30
0.0
 11
390.32022516276629
 21
191.87430106575718
 31
0.0
  0
LINE
  5
59
100
AcDbEntity
  8
0
  6
DASHED
 62
               6
100
AcDbLine
 10
382.56183225247503
 20
217.73561076672829
 30
0.0
 11
420.87488366132106
 21
229.22952618938209
 31
0.0
  0
LINE
  5
5A
100
AcDbEntity
  8
0
  6
DIVIDE
 62
               6
100
AcDbLine
 10
381.31665808168725
 20
187.08516963965135
 30
0.0
 11
668.92841189473097
 21
273.36869578356362
 31
0.0
  0
LINE
  5
5B
100
AcDbEntity
  8
0
  6
Continuous
 62
               2
100
AcDbLine
 10
336.43291835622426
 20
331.47748213674032
 30
0.0
 11
396.68976995948663
 21
130.6213101258646
 31
0.0
  0
LINE
  5
5C
100
AcDbEntity
  8
0
  6
Continuous
 62
               2
100
AcDbLine
 10
388.21300733527949
 20
164.09733879434364
 30
0.0
 11
398.27018333010153
 21
130.57341881160349
 31
0.0
  0
LINE
  5
5D
100
AcDbEntity
  8
0
  6
Continuous
 62
               2
100
AcDbLine
 10
395.65563085820156
 20
147.51396580776495
 30
0.0
 11
399.56324881515013
 21
131.48335378256346
 31
0.0
  0
LINE
  5
5E
100
AcDbEntity
  8
0
  6
Continuous
 62
               3
100
AcDbLine
 10
389.93709464867766
 20
163.57053433747208
 30
0.0
 11
668.92841189473097
 21
247.26792951128735
 31
0.0
  0
LINE
  5
5F
100
AcDbEntity
  8
0
  6
Continuous
 62
               2
100
AcDbLine
 10
388.21300733527949
 20
164.09733879434364
 30
0.0
 11
426.52605874412552
 21
175.59125421699767
 31
0.0
  0
LINE
  5
60
100
AcDbEntity
  8
0
  6
Continuous
 62
               3
100
AcDbLine
 10
389.93709464867766
 20
163.57053433747208
 30
0.0
 11
392.52322561877475
 21
154.95009777048168
 31
0.0
  0
LINE
  5
61
100
AcDbEntity
  8
0
  6
Continuous
 62
               3
100
AcDbLine
 10
392.52322561877475
 20
154.95009777048168
 30
0.0
 11
668.92841189473097
 21
237.87165365326788
 31
0.0
  0
LINE
  5
62
100
AcDbEntity
  8
0
  6
Continuous
 62
               2
100
AcDbLine
 10
336.43291835622426
 20
331.47748213674032
 30
0.0
 11
427.42641545223353
 21
358.77553126554318
 31
0.0
  0
LINE
  5
63
100
AcDbEntity
  8
0
  6
Continuous
 62
               7
100
AcDbLine
 10
391.87669287625044
 20
157.10520691222925
 30
0.0
 11
668.92841189473097
 21
240.22072261777268
 31
0.0
  0
LINE
  5
64
100
AcDbEntity
  8
0
  6
Continuous
 62
               7
100
AcDbLine
 10
391.23016013372614
 20
159.26031605397688
 30
0.0
 11
668.92841189473097
 21
242.56979158227759
 31
0.0
  0
LINE
  5
65
100
AcDbEntity
  8
0
  6
Continuous
 62
               7
100
AcDbLine
 10
390.58362739120184
 20
161.41542519572445
 30
0.0
 11
668.92841189473097
 21
244.91886054678244
 31
0.0
  0
LINE
  5
66
100
AcDbEntity
  8
0
  6
Continuous
 62
               2
100
AcDbLine
 10
331.38517383310875
 20
330.9027863656076
 30
0.0
 11
342.93489331038745
 21
292.40372144134477
 31
0.0
  0
LINE
  5
67
100
AcDbEntity
  8
0
  6
DASHED
 62
               6
100
AcDbLine
 10
407.92510345526375
 20
354.17794257624706
 30
0.0
 11
337.52484032137636
 21
333.05789550735523
 31
0.0
  0
LINE
  5
68
100
AcDbEntity
  8
0
  6
Continuous
 62
               2
100
AcDbLine
 10
407.58025482245125
 20
355.32735663874706
 30
0.0
 11
309.16360401597797
 21
325.802361396805
 31
0.0
  0
LINE
  5
69
100
AcDbEntity
  8
0
  6
Continuous
 62
               2
100
AcDbLine
 10
668.92841189473097
 20
435.19344667167826
 30
0.0
 11
309.00077354749044
 21
327.21515516750623
 31
0.0
  0
LINE
  5
6A
100
AcDbEntity
  8
0
  6
DASHED
 62
               6
100
AcDbLine
 10
668.92841189473097
 20
432.06135471900512
 30
0.0
 11
432.59483453118867
 21
361.16128150994251
 31
0.0
  0
LINE
  5
6B
100
AcDbEntity
  8
0
  6
Continuous
 62
               2
100
AcDbLine
 10
329.9084692559444
 20
328.8320708615874
 30
0.0
 11
310.43751297532208
 21
322.42602374140046
 31
0.0
  0
LINE
  5
6C
100
AcDbEntity
  8
0
  6
Continuous
 62
               2
100
AcDbLine
 10
344.86286585191067
 20
302.05591933497027
 30
0.0
 11
344.31554876460609
 21
292.56589271847332
 31
0.0
  0
LINE
  5
6D
100
AcDbEntity
  8
0
  6
Continuous
 62
               4
100
AcDbLine
 10
296.20422211601857
 20
277.64764722903641
 30
0.0
 11
338.06677478272775
 21
290.20641302904897
 31
0.0
  0
LINE
  5
6E
100
AcDbEntity
  8
0
  6
Continuous
 62
               4
100
AcDbLine
 10
287.58378554902839
 20
316.82274229458159
 30
0.0
 11
299.07770097168219
 21
278.50969088573532
 31
0.0
  0
LINE
  5
6F
100
AcDbEntity
  8
0
  6
Continuous
 62
               4
100
AcDbLine
 10
303.48369414461661
 20
321.59271487325799
 30
0.0
 11
284.71030669336488
 21
315.96069863788256
 31
0.0
  0
LINE
  5
70
100
AcDbEntity
  8
0
  6
Continuous
 62
               4
100
AcDbLine
 10
259.15578343064999
 20
331.84721168079847
 30
0.0
 11
161.15194934249627
 21
331.84721168079847
 31
0.0
  0
LINE
  5
71
100
AcDbEntity
  8
0
  6
Continuous
 62
               4
100
AcDbLine
 10
328.9788329177411
 20
156.22634459936128
 30
0.0
 11
231.309294732426
 21
156.22634459936128
 31
0.0
  0
LINE
  5
72
100
AcDbEntity
  8
0
  6
Continuous
 62
               4
100
AcDbLine
 10
440.40504229840496
 20
126.91182170854475
 30
0.0
 11
471.1014414046399
 21
126.91182170854475
 31
0.0
  0
LINE
  5
73
100
AcDbEntity
  8
0
  6
Continuous
 62
               4
100
AcDbLine
 10
344.65898062378551
 20
286.65676373001787
 30
0.0
 11
358.6544786675438
 21
240.00510358415667
 31
0.0
  0
LINE
  5
74
100
AcDbEntity
  8
0
  6
Continuous
 62
               4
100
AcDbLine
 10
357.79243501084477
 20
242.87858243982018
 30
0.0
 11
362.58156643695065
 21
244.31532186765187
 31
0.0
  0
LINE
  5
75
100
AcDbEntity
  8
0
  6
Continuous
 62
               4
100
AcDbLine
 10
370.12080532003722
 20
219.18452559069627
 30
0.0
 11
328.9788329177411
 21
156.22634459936128
 31
0.0
  0
LINE
  5
76
100
AcDbEntity
  8
0
  6
Continuous
 62
               4
100
AcDbLine
 10
370.12080532003722
 20
219.18452559069627
 30
0.0
 11
367.04262403010625
 21
210.72729200362309
 31
0.0
  0
LINE
  5
77
100
AcDbEntity
  8
0
  6
Continuous
 62
               4
100
AcDbLine
 10
370.12080532003722
 20
219.18452559069627
 30
0.0
 11
364.33571683285845
 21
212.29012560262547
 31
0.0
  0
LINE
  5
78
100
AcDbEntity
  8
0
  6
Continuous
 62
               4
100
AcDbLine
 10
414.40021634724803
 20
171.95350149793435
 30
0.0
 11
440.40504229840496
 21
126.91182170854475
 31
0.0
  0
LINE
  5
79
100
AcDbEntity
  8
0
  6
Continuous
 62
               4
100
AcDbLine
 10
414.40021634724803
 20
171.95350149793435
 30
0.0
 11
420.18530483442692
 21
165.05910150986355
 31
0.0
  0
LINE
  5
7A
100
AcDbEntity
  8
0
  6
Continuous
 62
               4
100
AcDbLine
 10
414.40021634724803
 20
171.95350149793435
 30
0.0
 11
417.478397637179
 21
163.49626791086118
 31
0.0
  0
LINE
  5
7B
100
AcDbEntity
  8
0
  6
Continuous
 62
               6
100
AcDbLine
 10
381.69978859577589
 20
220.60908962239168
 30
0.0
 11
383.13652802360764
 21
215.81995819628597
 31
0.0
  0
LINE
  5
7C
100
AcDbEntity
  8
0
  6
Continuous
 62
               6
100
AcDbLine
 10
420.01284000462192
 20
232.10300504504548
 30
0.0
 11
421.44957943245367
 21
227.31387361893965
 31
0.0
  0
LINE
  5
7D
100
AcDbEntity
  8
0
  6
Continuous
 62
               2
100
AcDbLine
 10
331.38517383310875
 20
330.9027863656076
 30
0.0
 11
309.59462584432754
 21
324.36562196897324
 31
0.0
  0
LINE
  5
7E
100
AcDbEntity
  8
0
  6
DIVIDE
 62
               4
100
AcDbLine
 10
409.95566400979976
 20
171.66416644759076
 30
0.0
 11
387.92565944971318
 21
165.05516507956489
 31
0.0
  0
LINE
  5
7F
100
AcDbEntity
  8
0
  6
DIVIDE
 62
               4
100
AcDbLine
 10
409.95566400979976
 20
171.66416644759076
 30
0.0
 11
404.20870629847286
 21
190.82069215201389
 31
0.0
  0
LINE
  5
80
100
AcDbEntity
  8
0
  6
DIVIDE
 62
               4
100
AcDbLine
 10
387.92565944971318
 20
165.05516507956489
 30
0.0
 11
382.17870173838628
 21
184.21169078398785
 31
0.0
  0
LINE
  5
81
100
AcDbEntity
  8
0
  6
DIVIDE
 62
               4
100
AcDbLine
 10
382.81637280077189
 20
183.82617166085438
 30
0.0
 11
388.26089864954065
 21
165.67775216495855
 31
0.0
  0
LINE
  5
82
100
AcDbEntity
  8
0
  6
DIVIDE
 62
               4
100
AcDbLine
 10
388.26089864954065
 20
165.67775216495855
 30
0.0
 11
409.33307692440599
 21
171.99940564741829
 31
0.0
  0
LINE
  5
83
100
AcDbEntity
  8
0
  6
DIVIDE
 62
               4
100
AcDbLine
 10
409.33307692440599
 20
171.99940564741829
 30
0.0
 11
403.88855107563722
 21
190.14782514331395
 31
0.0
  0
LINE
  5
84
100
AcDbEntity
  8
0
  6
DIVIDE
 62
               4
100
AcDbLine
 10
382.17870173838628
 20
184.21169078398785
 30
0.0
 11
387.11150710727532
 21
185.16951706920898
 31
0.0
  0
LINE
  5
85
100
AcDbEntity
  8
0
  6
DIVIDE
 62
               4
100
AcDbLine
 10
382.81637280077189
 20
183.82617166085438
 30
0.0
 11
387.20681438483086
 21
184.67868458979777
 31
0.0
  0
LINE
  5
86
100
AcDbEntity
  8
0
  6
DIVIDE
 62
               4
100
AcDbLine
 10
404.20870629847286
 20
190.82069215201389
 30
0.0
 11
399.56324881515025
 21
188.90503958157146
 31
0.0
  0
LINE
  5
87
100
AcDbEntity
  8
0
  6
DIVIDE
 62
               4
100
AcDbLine
 10
403.88855107563722
 20
190.14782514331395
 30
0.0
 11
399.75386337026146
 21
188.44279928542696
 31
0.0
  0
LINE
  5
88
100
AcDbEntity
  8
0
  6
DIVIDE
 62
               4
100
AcDbLine
 10
399.75386337026146
 20
188.44279928542696
 30
0.0
 11
399.56324881515025
 21
188.90503958157146
 31
0.0
  0
LINE
  5
89
100
AcDbEntity
  8
0
  6
DIVIDE
 62
               4
100
AcDbLine
 10
387.20681438483086
 20
184.67868458979777
 30
0.0
 11
387.11150710727532
 21
185.16951706920898
 31
0.0
  0
LINE
  5
8A
100
AcDbEntity
  8
0
  6
Continuous
 62
               4
100
AcDbLine
 10
393.22416872291421
 20
314.73052435548487
 30
0.0
 11
424.50041471533632
 21
283.45427836306266
 31
0.0
  0
LINE
  5
8B
100
AcDbEntity
  8
0
  6
Continuous
 62
               4
100
AcDbLine
 10
393.22416872291421
 20
314.73052435548487
 30
0.0
 11
400.59653712151521
 21
309.56833642832549
 31
0.0
  0
LINE
  5
8C
100
AcDbEntity
  8
0
  6
Continuous
 62
               4
100
AcDbLine
 10
393.22416872291421
 20
314.73052435548487
 30
0.0
 11
398.38635665007359
 21
307.35815595688388
 31
0.0
  0
LINE
  5
8D
100
AcDbEntity
  8
0
  6
Continuous
 62
               4
100
AcDbLine
 10
424.50041471533632
 20
283.45427836306266
 30
0.0
 11
490.99304163018644
 21
283.45427836306266
 31
0.0
  0
LINE
  5
8E
100
AcDbEntity
  8
0
  6
DASHED
 62
               6
100
AcDbLine
 10
407.92507228513091
 20
354.17796509648161
 30
0.0
 11
432.59483453118867
 21
361.16128150994251
 31
0.0
  0
LINE
  5
8F
100
AcDbEntity
  8
0
  6
Continuous
 62
               7
100
AcDbLine
 10
363.90112966451386
 20
302.6290603927302
 30
0.0
 11
353.5566057841263
 21
337.11080666069182
 31
0.0
  0
LINE
  5
90
100
AcDbEntity
  8
0
  6
Continuous
 62
               7
100
AcDbLine
 10
350.44367035715754
 20
338.78700265982894
 30
0.0
 11
350.5873442999407
 21
338.30808951721832
 31
0.0
  0
LINE
  5
91
100
AcDbEntity
  8
0
  6
Continuous
 62
               7
100
AcDbLine
 10
368.69026109061963
 20
304.06579982056172
 30
0.0
 11
358.34573721023196
 21
338.54754608852346
 31
0.0
  0
LINE
  5
92
100
AcDbEntity
  8
0
  6
Continuous
 62
               7
100
AcDbLine
 10
360.02193320936908
 20
341.66048151549222
 30
0.0
 11
360.16560715215223
 21
341.1815683728816
 31
0.0
  0
LINE
  5
93
100
AcDbEntity
  8
0
  6
Continuous
 62
               7
100
AcDbLine
 10
350.44367035715754
 20
338.78700265982894
 30
0.0
 11
360.02193320936908
 21
341.66048151549222
 31
0.0
  0
LINE
  5
94
100
AcDbEntity
  8
0
  6
Continuous
 62
               7
100
AcDbLine
 10
353.5566057841263
 20
337.11080666069182
 30
0.0
 11
358.34573721023196
 21
338.54754608852346
 31
0.0
  0
LINE
  5
95
100
AcDbEntity
  8
0
  6
Continuous
 62
               7
100
AcDbLine
 10
350.5873442999407
 20
338.30808951721832
 30
0.0
 11
353.5566057841263
 21
337.11080666069182
 31
0.0
  0
LINE
  5
96
100
AcDbEntity
  8
0
  6
Continuous
 62
               7
100
AcDbLine
 10
358.34573721023196
 20
338.54754608852346
 30
0.0
 11
360.16560715215223
 21
341.1815683728816
 31
0.0
  0
LINE
  5
97
100
AcDbEntity
  8
0
  6
Continuous
 62
               7
100
AcDbLine
 10
350.5873442999407
 20
338.30808951721832
 30
0.0
 11
360.16560715215223
 21
341.18156837288149
 31
0.0
  0
LINE
  5
98
100
AcDbEntity
  8
0
  6
Continuous
 62
               7
100
AcDbLine
 10
363.90112966451386
 20
302.6290603927302
 30
0.0
 11
366.7267172059162
 21
301.91069067881432
 31
0.0
  0
LINE
  5
99
100
AcDbEntity
  8
0
  6
Continuous
 62
               7
100
AcDbLine
 10
368.69026109061963
 20
304.06579982056172
 30
0.0
 11
366.7267172059162
 21
301.91069067881432
 31
0.0
  0
LINE
  5
9A
100
AcDbEntity
  8
0
  6
Continuous
 62
               7
100
AcDbLine
 10
355.56804098309044
 20
330.40602266414379
 30
0.0
 11
359.7824766380636
 21
333.75841466241769
 31
0.0
  0
LINE
  5
9B
100
AcDbEntity
  8
0
  6
Continuous
 62
               7
100
AcDbLine
 10
356.14273675422305
 20
328.49037009370142
 30
0.0
 11
360.35717240919621
 21
331.84276209197532
 31
0.0
  0
LINE
  5
9C
100
AcDbEntity
  8
0
  6
Continuous
 62
               7
100
AcDbLine
 10
356.71743252535578
 20
326.57471752325904
 30
0.0
 11
360.93186818032893
 21
329.92710952153305
 31
0.0
  0
LINE
  5
9D
100
AcDbEntity
  8
0
  6
Continuous
 62
               7
100
AcDbLine
 10
357.29212829648839
 20
324.65906495281678
 30
0.0
 11
361.50656395146154
 21
328.01145695109068
 31
0.0
  0
LINE
  5
9E
100
AcDbEntity
  8
0
  6
Continuous
 62
               7
100
AcDbLine
 10
357.86682406762111
 20
322.74341238237452
 30
0.0
 11
362.08125972259427
 21
326.09580438064842
 31
0.0
  0
LINE
  5
9F
100
AcDbEntity
  8
0
  6
Continuous
 62
               7
100
AcDbLine
 10
358.44151983875361
 20
320.82775981193225
 30
0.0
 11
362.65595549372676
 21
324.18015181020616
 31
0.0
  0
LINE
  5
A0
100
AcDbEntity
  8
0
  6
Continuous
 62
               7
100
AcDbLine
 10
359.01621560988633
 20
318.91210724148988
 30
0.0
 11
363.23065126485949
 21
322.26449923976378
 31
0.0
  0
LINE
  5
A1
100
AcDbEntity
  8
0
  6
Continuous
 62
               7
100
AcDbLine
 10
359.59091138101894
 20
316.9964546710475
 30
0.0
 11
363.8053470359921
 21
320.34884666932152
 31
0.0
  0
LINE
  5
A2
100
AcDbEntity
  8
0
  6
Continuous
 62
               7
100
AcDbLine
 10
360.16560715215155
 20
315.08080210060524
 30
0.0
 11
364.38004280712471
 21
318.43319409887926
 31
0.0
  0
LINE
  5
A3
100
AcDbEntity
  8
0
  6
Continuous
 62
               7
100
AcDbLine
 10
360.74030292328416
 20
313.16514953016286
 30
0.0
 11
364.95473857825732
 21
316.51754152843699
 31
0.0
  0
LINE
  5
A4
100
AcDbEntity
  8
0
  6
Continuous
 62
               7
100
AcDbLine
 10
361.31499869441689
 20
311.2494969597206
 30
0.0
 11
365.52943434938993
 21
314.6018889579945
 31
0.0
  0
LINE
  5
A5
100
AcDbEntity
  8
0
  6
Continuous
 62
               7
100
AcDbLine
 10
361.8896944655495
 20
309.33384438927834
 30
0.0
 11
364.41835585853346
 21
311.3452795882427
 31
0.0
  0
LINE
  5
A6
100
AcDbEntity
  8
0
  6
Continuous
 62
               7
100
AcDbLine
 10
368.06767400522585
 20
304.40103902038931
 30
0.0
 11
365.68268655502538
 21
312.35099718772489
 31
0.0
  0
LINE
  5
A7
100
AcDbEntity
  8
0
  6
Continuous
 62
               7
100
AcDbLine
 10
364.41835585853346
 20
311.3452795882427
 30
0.0
 11
365.122358178171
 21
312.65271246756964
 31
0.0
  0
LINE
  5
A8
100
AcDbEntity
  8
0
  6
Continuous
 62
               7
100
AcDbLine
 10
365.68268655502538
 20
312.35099718772489
 30
0.0
 11
365.122358178171
 21
312.65271246756964
 31
0.0
  0
LINE
  5
A9
100
AcDbEntity
  8
0
  6
Continuous
 62
               7
100
AcDbLine
 10
365.68268655502538
 20
312.35099718772489
 30
0.0
 11
366.10413012052254
 21
312.68623638755224
 31
0.0
  0
LINE
  5
AA
100
AcDbEntity
  8
0
  6
Continuous
 62
               7
100
AcDbLine
 10
368.69026109061963
 20
304.06579982056172
 30
0.0
 11
368.06767400522585
 21
304.40103902038931
 31
0.0
  0
LINE
  5
AB
100
AcDbEntity
  8
0
  6
Continuous
 62
               7
100
AcDbLine
 10
383.47177834139211
 20
306.20148038930319
 30
0.0
 11
373.12725446100444
 21
340.68322665726481
 31
0.0
  0
LINE
  5
AC
100
AcDbEntity
  8
0
  6
Continuous
 62
               7
100
AcDbLine
 10
370.01431903403579
 20
342.35942265640193
 30
0.0
 11
370.15799297681895
 21
341.88050951379131
 31
0.0
  0
LINE
  5
AD
100
AcDbEntity
  8
0
  6
Continuous
 62
               7
100
AcDbLine
 10
388.26090976749788
 20
307.63821981713483
 30
0.0
 11
377.91638588711021
 21
342.11996608509645
 31
0.0
  0
LINE
  5
AE
100
AcDbEntity
  8
0
  6
Continuous
 62
               7
100
AcDbLine
 10
379.59258188624733
 20
345.23290151206521
 30
0.0
 11
379.73625582903048
 21
344.75398836945459
 31
0.0
  0
LINE
  5
AF
100
AcDbEntity
  8
0
  6
Continuous
 62
               7
100
AcDbLine
 10
370.01431903403579
 20
342.35942265640193
 30
0.0
 11
379.59258188624733
 21
345.23290151206521
 31
0.0
  0
LINE
  5
B0
100
AcDbEntity
  8
0
  6
Continuous
 62
               7
100
AcDbLine
 10
373.12725446100444
 20
340.68322665726481
 30
0.0
 11
377.91638588711021
 21
342.11996608509645
 31
0.0
  0
LINE
  5
B1
100
AcDbEntity
  8
0
  6
Continuous
 62
               7
100
AcDbLine
 10
370.15799297681895
 20
341.88050951379131
 30
0.0
 11
373.12725446100444
 21
340.68322665726481
 31
0.0
  0
LINE
  5
B2
100
AcDbEntity
  8
0
  6
Continuous
 62
               7
100
AcDbLine
 10
377.91638588711021
 20
342.11996608509645
 30
0.0
 11
379.73625582903048
 21
344.75398836945459
 31
0.0
  0
LINE
  5
B3
100
AcDbEntity
  8
0
  6
Continuous
 62
               7
100
AcDbLine
 10
370.15799297681895
 20
341.88050951379131
 30
0.0
 11
379.73625582903048
 21
344.75398836945448
 31
0.0
  0
LINE
  5
B4
100
AcDbEntity
  8
0
  6
Continuous
 62
               7
100
AcDbLine
 10
383.47177834139211
 20
306.20148038930319
 30
0.0
 11
386.29736588279445
 21
305.48311067538731
 31
0.0
  0
LINE
  5
B5
100
AcDbEntity
  8
0
  6
Continuous
 62
               7
100
AcDbLine
 10
388.26090976749788
 20
307.63821981713483
 30
0.0
 11
386.29736588279445
 21
305.48311067538731
 31
0.0
  0
LINE
  5
B6
100
AcDbEntity
  8
0
  6
Continuous
 62
               7
100
AcDbLine
 10
375.13868965996869
 20
333.97844266071678
 30
0.0
 11
379.35312531494185
 21
337.33083465899068
 31
0.0
  0
LINE
  5
B7
100
AcDbEntity
  8
0
  6
Continuous
 62
               7
100
AcDbLine
 10
375.7133854311013
 20
332.0627900902744
 30
0.0
 11
379.92782108607446
 21
335.41518208854842
 31
0.0
  0
LINE
  5
B8
100
AcDbEntity
  8
0
  6
Continuous
 62
               7
100
AcDbLine
 10
376.28808120223403
 20
330.14713751983214
 30
0.0
 11
380.50251685720718
 21
333.49952951810604
 31
0.0
  0
LINE
  5
B9
100
AcDbEntity
  8
0
  6
Continuous
 62
               7
100
AcDbLine
 10
376.86277697336664
 20
328.23148494938977
 30
0.0
 11
381.07721262833979
 21
331.58387694766378
 31
0.0
  0
LINE
  5
BA
100
AcDbEntity
  8
0
  6
Continuous
 62
               7
100
AcDbLine
 10
377.43747274449925
 20
326.3158323789475
 30
0.0
 11
381.6519083994724
 21
329.66822437722152
 31
0.0
  0
LINE
  5
BB
100
AcDbEntity
  8
0
  6
Continuous
 62
               7
100
AcDbLine
 10
378.01216851563186
 20
324.40017980850524
 30
0.0
 11
382.22660417060501
 21
327.75257180677914
 31
0.0
  0
LINE
  5
BC
100
AcDbEntity
  8
0
  6
Continuous
 62
               7
100
AcDbLine
 10
378.58686428676458
 20
322.48452723806287
 30
0.0
 11
382.80129994173762
 21
325.83691923633677
 31
0.0
  0
LINE
  5
BD
100
AcDbEntity
  8
0
  6
Continuous
 62
               7
100
AcDbLine
 10
379.16156005789719
 20
320.56887466762061
 30
0.0
 11
383.37599571287024
 21
323.92126666589451
 31
0.0
  0
LINE
  5
BE
100
AcDbEntity
  8
0
  6
Continuous
 62
               7
100
AcDbLine
 10
379.7362558290298
 20
318.65322209717823
 30
0.0
 11
383.95069148400296
 21
322.00561409545224
 31
0.0
  0
LINE
  5
BF
100
AcDbEntity
  8
0
  6
Continuous
 62
               7
100
AcDbLine
 10
380.31095160016241
 20
316.73756952673585
 30
0.0
 11
384.52538725513557
 21
320.08996152500998
 31
0.0
  0
LINE
  5
C0
100
AcDbEntity
  8
0
  6
Continuous
 62
               7
100
AcDbLine
 10
380.88564737129514
 20
314.82191695629359
 30
0.0
 11
385.10008302626818
 21
318.17430895456761
 31
0.0
  0
LINE
  5
C1
100
AcDbEntity
  8
0
  6
Continuous
 62
               7
100
AcDbLine
 10
381.46034314242775
 20
312.90626438585133
 30
0.0
 11
383.98900453541171
 21
314.91769958481569
 31
0.0
  0
LINE
  5
C2
100
AcDbEntity
  8
0
  6
Continuous
 62
               7
100
AcDbLine
 10
387.6383226821041
 20
307.97345901696218
 30
0.0
 11
385.25333523190363
 21
315.92341718429799
 31
0.0
  0
LINE
  5
C3
100
AcDbEntity
  8
0
  6
Continuous
 62
               7
100
AcDbLine
 10
383.98900453541171
 20
314.91769958481569
 30
0.0
 11
384.69300685504925
 21
316.22513246414263
 31
0.0
  0
LINE
  5
C4
100
AcDbEntity
  8
0
  6
Continuous
 62
               7
100
AcDbLine
 10
385.25333523190363
 20
315.92341718429788
 30
0.0
 11
384.69300685504925
 21
316.22513246414263
 31
0.0
  0
LINE
  5
C5
100
AcDbEntity
  8
0
  6
Continuous
 62
               7
100
AcDbLine
 10
385.25333523190363
 20
315.92341718429799
 30
0.0
 11
385.67477879740079
 21
316.25865638412523
 31
0.0
  0
LINE
  5
C6
100
AcDbEntity
  8
0
  6
Continuous
 62
               7
100
AcDbLine
 10
388.26090976749788
 20
307.63821981713483
 30
0.0
 11
387.6383226821041
 21
307.97345901696218
 31
0.0
  0
LINE
  5
C7
100
AcDbEntity
  8
0
  6
Continuous
 62
               7
100
AcDbLine
 10
391.73556444590895
 20
184.09323680799994
 30
0.0
 11
397.05150032888582
 21
166.37345053140805
 31
0.0
  0
LINE
  5
C8
100
AcDbEntity
  8
0
  6
Continuous
 62
               7
100
AcDbLine
 10
395.23163038696543
 20
163.73942824704997
 30
0.0
 11
394.65693461583282
 21
165.65508081749229
 31
0.0
  0
LINE
  5
C9
100
AcDbEntity
  8
0
  6
Continuous
 62
               7
100
AcDbLine
 10
396.52469587201483
 20
185.52997623583158
 30
0.0
 11
401.8406317549917
 21
167.81018995923975
 31
0.0
  0
LINE
  5
CA
100
AcDbEntity
  8
0
  6
Continuous
 62
               7
100
AcDbLine
 10
404.8098932391772
 20
166.61290710271319
 30
0.0
 11
404.23519746804459
 21
168.52855967315574
 31
0.0
  0
LINE
  5
CB
100
AcDbEntity
  8
0
  6
Continuous
 62
               7
100
AcDbLine
 10
396.52469587201483
 20
185.52997623583158
 30
0.0
 11
393.69910833061226
 21
186.24834594974746
 31
0.0
  0
LINE
  5
CC
100
AcDbEntity
  8
0
  6
Continuous
 62
               7
100
AcDbLine
 10
391.73556444590895
 20
184.09323680799994
 30
0.0
 11
393.69910833061226
 21
186.24834594974746
 31
0.0
  0
LINE
  5
CD
100
AcDbEntity
  8
0
  6
Continuous
 62
               7
100
AcDbLine
 10
404.23519746804459
 20
168.52855967315574
 30
0.0
 11
394.65693461583282
 21
165.65508081749229
 31
0.0
  0
LINE
  5
CE
100
AcDbEntity
  8
0
  6
Continuous
 62
               7
100
AcDbLine
 10
395.90210878662049
 20
170.20475567229298
 30
0.0
 11
400.11654444159376
 21
173.55714767056705
 31
0.0
  0
LINE
  5
CF
100
AcDbEntity
  8
0
  6
Continuous
 62
               7
100
AcDbLine
 10
399.54184867046115
 20
175.47280024100937
 30
0.0
 11
395.32741301548776
 21
172.12040824273535
 31
0.0
  0
LINE
  5
D0
100
AcDbEntity
  8
0
  6
Continuous
 62
               7
100
AcDbLine
 10
394.75271724435527
 20
174.03606081317778
 30
0.0
 11
398.96715289932843
 21
177.38845281145169
 31
0.0
  0
LINE
  5
D1
100
AcDbEntity
  8
0
  6
Continuous
 62
               7
100
AcDbLine
 10
398.39245712819582
 20
179.30410538189395
 30
0.0
 11
394.17802147322266
 21
175.95171338362016
 31
0.0
  0
LINE
  5
D2
100
AcDbEntity
  8
0
  6
Continuous
 62
               7
100
AcDbLine
 10
397.8177613570632
 20
181.21975795233627
 30
0.0
 11
395.28909996407913
 21
179.20832275337196
 31
0.0
  0
LINE
  5
D3
100
AcDbEntity
  8
0
  6
Continuous
 62
               7
100
AcDbLine
 10
392.35815153130261
 20
183.75799760817247
 30
0.0
 11
394.0247692675872
 21
178.20260515388989
 31
0.0
  0
LINE
  5
D4
100
AcDbEntity
  8
0
  6
Continuous
 62
               7
100
AcDbLine
 10
391.73556444590895
 20
184.09323680799994
 30
0.0
 11
392.35815153130261
 21
183.75799760817247
 31
0.0
  0
LINE
  5
D5
100
AcDbEntity
  8
0
  6
Continuous
 62
               7
100
AcDbLine
 10
394.0247692675872
 20
178.20260515388995
 30
0.0
 11
394.58509764444159
 21
177.90088987404519
 31
0.0
  0
LINE
  5
D6
100
AcDbEntity
  8
0
  6
Continuous
 62
               7
100
AcDbLine
 10
395.28909996407913
 20
179.20832275337196
 30
0.0
 11
394.58509764444159
 21
177.90088987404519
 31
0.0
  0
LINE
  5
D7
100
AcDbEntity
  8
0
  6
Continuous
 62
               7
100
AcDbLine
 10
394.0247692675872
 20
178.20260515388989
 30
0.0
 11
393.60332570208993
 21
177.86736595406236
 31
0.0
  0
LINE
  5
D8
100
AcDbEntity
  8
0
  6
Continuous
 62
               4
100
AcDbLine
 10
337.39074464144528
 20
310.88421700448561
 30
0.0
 11
259.15578343064999
 21
331.84721168079847
 31
0.0
  0
LINE
  5
D9
100
AcDbEntity
  8
0
  6
Continuous
 62
               4
100
AcDbLine
 10
337.39074464144528
 20
310.88421700448561
 30
0.0
 11
328.42499235861965
 21
311.6686186892145
 31
0.0
  0
LINE
  5
DA
100
AcDbEntity
  8
0
  6
Continuous
 62
               4
100
AcDbLine
 10
337.39074464144528
 20
310.88421700448561
 30
0.0
 11
329.23397455811551
 21
314.68778136015186
 31
0.0
  0
LINE
  5
DB
100
AcDbEntity
  8
0
  6
Continuous
 62
               3
100
AcDbLine
 10
343.38673718692974
 20
313.51823928884374
 30
0.0
 11
668.0860151464409
 21
410.92802267511883
 31
0.0
  0
LINE
  5
DC
100
AcDbEntity
  8
0
  6
Continuous
 62
               7
100
AcDbLine
 10
584.85974449547609
 20
401.15335503127352
 30
0.0
 11
575.10300259196208
 21
383.03311891035327
 31
0.0
  0
LINE
  5
DD
100
AcDbEntity
  8
0
  6
Continuous
 62
               7
100
AcDbLine
 10
580.39839367814477
 20
403.41428795224721
 30
0.0
 11
568.33023731345929
 21
381.00128932680235
 31
0.0
  0
LINE
  5
DE
100
AcDbEntity
  8
0
  6
Continuous
 62
               7
100
AcDbLine
 10
573.62562839964187
 20
401.3824583686964
 30
0.0
 11
561.55747203495707
 21
378.96945974325166
 31
0.0
  0
LINE
  5
DF
100
AcDbEntity
  8
0
  6
Continuous
 62
               7
100
AcDbLine
 10
566.85286312113953
 20
399.35062878514572
 30
0.0
 11
554.78470675645463
 21
376.93763015970097
 31
0.0
  0
LINE
  5
E0
100
AcDbEntity
  8
0
  6
Continuous
 62
               7
100
AcDbLine
 10
560.0800978426372
 20
397.3187992015948
 30
0.0
 11
548.01194147795229
 21
374.90580057615028
 31
0.0
  0
LINE
  5
E1
100
AcDbEntity
  8
0
  6
Continuous
 62
               7
100
AcDbLine
 10
553.30733256413475
 20
395.28696961804411
 30
0.0
 11
541.23917619944984
 21
372.8739709925996
 31
0.0
  0
LINE
  5
E2
100
AcDbEntity
  8
0
  6
Continuous
 62
               7
100
AcDbLine
 10
546.53456728563231
 20
393.25514003449342
 30
0.0
 11
534.46641092094751
 21
370.84214140904891
 31
0.0
  0
LINE
  5
E3
100
AcDbEntity
  8
0
  6
Continuous
 62
               7
100
AcDbLine
 10
539.76180200712997
 20
391.22331045094273
 30
0.0
 11
527.69364564244506
 21
368.81031182549822
 31
0.0
  0
LINE
  5
E4
100
AcDbEntity
  8
0
  6
Continuous
 62
               7
100
AcDbLine
 10
532.98903672862764
 20
389.19148086739193
 30
0.0
 11
520.92088036394262
 21
366.77848224194742
 31
0.0
  0
LINE
  5
E5
100
AcDbEntity
  8
0
  6
Continuous
 62
               7
100
AcDbLine
 10
526.21627145012519
 20
387.15965128384124
 30
0.0
 11
514.14811508544017
 21
364.74665265839673
 31
0.0
  0
LINE
  5
E6
100
AcDbEntity
  8
0
  6
Continuous
 62
               7
100
AcDbLine
 10
519.44350617162274
 20
385.12782170029055
 30
0.0
 11
507.37534980693772
 21
362.71482307484604
 31
0.0
  0
LINE
  5
E7
100
AcDbEntity
  8
0
  6
Continuous
 62
               7
100
AcDbLine
 10
512.6707408931203
 20
383.09599211673986
 30
0.0
 11
500.60258452843539
 21
360.68299349129535
 31
0.0
  0
LINE
  5
E8
100
AcDbEntity
  8
0
  6
Continuous
 62
               7
100
AcDbLine
 10
505.89797561461796
 20
381.06416253318918
 30
0.0
 11
493.82981924993305
 21
358.65116390774466
 31
0.0
  0
LINE
  5
E9
100
AcDbEntity
  8
0
  6
Continuous
 62
               7
100
AcDbLine
 10
499.12521033611552
 20
379.03233294963837
 30
0.0
 11
487.05705397143061
 21
356.61933432419386
 31
0.0
  0
LINE
  5
EA
100
AcDbEntity
  8
0
  6
Continuous
 62
               7
100
AcDbLine
 10
492.35244505761318
 20
377.00050336608768
 30
0.0
 11
480.28428869292827
 21
354.58750474064317
 31
0.0
  0
LINE
  5
EB
100
AcDbEntity
  8
0
  6
Continuous
 62
               7
100
AcDbLine
 10
485.57967977911073
 20
374.968673782537
 30
0.0
 11
473.51152341442594
 21
352.55567515709248
 31
0.0
  0
LINE
  5
EC
100
AcDbEntity
  8
0
  6
Continuous
 62
               7
100
AcDbLine
 10
478.8069145006084
 20
372.93684419898631
 30
0.0
 11
466.7387581359236
 21
350.52384557354179
 31
0.0
  0
LINE
  5
ED
100
AcDbEntity
  8
0
  6
Continuous
 62
               7
100
AcDbLine
 10
472.03414922210607
 20
370.90501461543562
 30
0.0
 11
459.96599285742127
 21
348.4920159899911
 31
0.0
  0
LINE
  5
EE
100
AcDbEntity
  8
0
  6
Continuous
 62
               7
100
AcDbLine
 10
465.26138394360373
 20
368.87318503188493
 30
0.0
 11
453.19322757891882
 21
346.46018640644041
 31
0.0
  0
LINE
  5
EF
100
AcDbEntity
  8
0
  6
Continuous
 62
               7
100
AcDbLine
 10
458.48861866510128
 20
366.84135544833424
 30
0.0
 11
446.42046230041649
 21
344.42835682288973
 31
0.0
  0
LINE
  5
F0
100
AcDbEntity
  8
0
  6
Continuous
 62
               7
100
AcDbLine
 10
451.71585338659895
 20
364.80952586478344
 30
0.0
 11
439.64769702191415
 21
342.39652723933904
 31
0.0
  0
LINE
  5
F1
100
AcDbEntity
  8
0
  6
Continuous
 62
               7
100
AcDbLine
 10
444.94308810809662
 20
362.77769628123275
 30
0.0
 11
432.87493174341171
 21
340.36469765578823
 31
0.0
  0
LINE
  5
F2
100
AcDbEntity
  8
0
  6
Continuous
 62
               7
100
AcDbLine
 10
438.17032282959417
 20
360.74586669768206
 30
0.0
 11
426.10216646490937
 21
338.33286807223755
 31
0.0
  0
LINE
  5
F3
100
AcDbEntity
  8
0
  6
Continuous
 62
               7
100
AcDbLine
 10
431.39755755109184
 20
358.71403711413137
 30
0.0
 11
419.32940118640704
 21
336.30103848868686
 31
0.0
  0
LINE
  5
F4
100
AcDbEntity
  8
0
  6
Continuous
 62
               7
100
AcDbLine
 10
424.6247922725895
 20
356.68220753058068
 30
0.0
 11
412.55663590790471
 21
334.26920890513617
 31
0.0
  0
LINE
  5
F5
100
AcDbEntity
  8
0
  6
Continuous
 62
               7
100
AcDbLine
 10
417.85202699408705
 20
354.65037794702988
 30
0.0
 11
405.78387062940226
 21
332.23737932158548
 31
0.0
  0
LINE
  5
F6
100
AcDbEntity
  8
0
  6
Continuous
 62
               7
100
AcDbLine
 10
411.07926171558472
 20
352.61854836347919
 30
0.0
 11
399.01110535089992
 21
330.20554973803468
 31
0.0
  0
LINE
  5
F7
100
AcDbEntity
  8
0
  6
Continuous
 62
               7
100
AcDbLine
 10
404.30649643708239
 20
350.5867187799285
 30
0.0
 11
392.23834007239748
 21
328.17372015448399
 31
0.0
  0
LINE
  5
F8
100
AcDbEntity
  8
0
  6
Continuous
 62
               7
100
AcDbLine
 10
397.53373115857994
 20
348.55488919637781
 30
0.0
 11
385.46557479389514
 21
326.1418905709333
 31
0.0
  0
LINE
  5
F9
100
AcDbEntity
  8
0
  6
Continuous
 62
               7
100
AcDbLine
 10
390.76096588007761
 20
346.52305961282713
 30
0.0
 11
378.69280951539281
 21
324.11006098738261
 31
0.0
  0
LINE
  5
FA
100
AcDbEntity
  8
0
  6
Continuous
 62
               7
100
AcDbLine
 10
383.98820060157527
 20
344.49123002927632
 30
0.0
 11
371.92004423689048
 21
322.07823140383192
 31
0.0
  0
LINE
  5
FB
100
AcDbEntity
  8
0
  6
Continuous
 62
               7
100
AcDbLine
 10
377.21543532307294
 20
342.45940044572563
 30
0.0
 11
365.14727895838814
 21
320.04640182028123
 31
0.0
  0
LINE
  5
FC
100
AcDbEntity
  8
0
  6
Continuous
 62
               7
100
AcDbLine
 10
370.4426700445706
 20
340.42757086217495
 30
0.0
 11
358.37451367988569
 21
318.01457223673054
 31
0.0
  0
LINE
  5
FD
100
AcDbEntity
  8
0
  6
Continuous
 62
               7
100
AcDbLine
 10
363.66990476606816
 20
338.39574127862426
 30
0.0
 11
351.60174840138336
 21
315.98274265317974
 31
0.0
  0
LINE
  5
FE
100
AcDbEntity
  8
0
  6
Continuous
 62
               7
100
AcDbLine
 10
356.89713948756582
 20
336.36391169507357
 30
0.0
 11
344.82898312288103
 21
313.95091306962905
 31
0.0
  0
LINE
  5
FF
100
AcDbEntity
  8
0
  6
Continuous
 62
               7
100
AcDbLine
 10
350.12437420906349
 20
334.33208211152277
 30
0.0
 11
341.78753919594237
 21
318.84889925880196
 31
0.0
  0
LINE
  5
100
100
AcDbEntity
  8
0
  6
Continuous
 62
               7
100
AcDbLine
 10
343.35160893056104
 20
332.30025252797208
 30
0.0
 11
339.75565600956088
 21
325.62184321340686
 31
0.0
  0
LINE
  5
101
100
AcDbEntity
  8
0
  6
Continuous
 62
               7
100
AcDbLine
 10
586.89162768185759
 20
394.38041107666839
 30
0.0
 11
581.87576787046464
 21
385.06494849390396
 31
0.0
  0
LINE
  5
102
100
AcDbEntity
  8
0
  6
Continuous
 62
               7
100
AcDbLine
 10
627.80775062766179
 20
417.63709503710237
 30
0.0
 11
620.33163590020035
 21
403.75244322727013
 31
0.0
  0
LINE
  5
103
100
AcDbEntity
  8
0
  6
Continuous
 62
               7
100
AcDbLine
 10
621.03498534915946
 20
415.60526545355168
 30
0.0
 11
618.29975271381898
 21
410.52538718187515
 31
0.0
  0
LINE
  5
104
100
AcDbEntity
  8
0
  6
Continuous
 62
               7
100
AcDbLine
 10
634.58051590616355
 20
419.66892462065294
 30
0.0
 11
622.51235954147967
 21
397.25592599520843
 31
0.0
  0
LINE
  5
105
100
AcDbEntity
  8
0
  6
Continuous
 62
               4
100
AcDbLine
 10
586.43508542373263
 20
410.44544873037893
 30
0.0
 11
593.04408679213759
 21
388.41544416902883
 31
0.0
  0
LINE
  5
106
100
AcDbEntity
  8
0
  6
Continuous
 62
               4
100
AcDbLine
 10
602.35782761608743
 20
415.22227138939667
 30
0.0
 11
603.79456704391919
 21
410.4331399632909
 31
0.0
  0
LINE
  5
107
100
AcDbEntity
  8
0
  6
Continuous
 62
               4
100
AcDbLine
 10
603.79456704391919
 20
410.4331399632909
 30
0.0
 11
608.96682898449239
 21
393.19226682804657
 31
0.0
  0
LINE
  5
108
100
AcDbEntity
  8
0
  6
Continuous
 62
               4
100
AcDbLine
 10
602.35782761608743
 20
415.22227138939667
 30
0.0
 11
600.66254557055061
 21
420.87321154118632
 31
0.0
  0
LINE
  5
109
100
AcDbEntity
  8
0
  6
Continuous
 62
               7
100
AcDbLine
 10
641.35328118466623
 20
421.70075420420375
 30
0.0
 11
629.28512481998234
 21
399.28775557875946
 31
0.0
  0
LINE
  5
10A
100
AcDbEntity
  8
0
  6
Continuous
 62
               7
100
AcDbLine
 10
648.1260464631689
 20
423.73258378775455
 30
0.0
 11
636.05789009848502
 21
401.31958516231026
 31
0.0
  0
LINE
  5
10B
100
AcDbEntity
  8
0
  6
Continuous
 62
               7
100
AcDbLine
 10
654.89881174167147
 20
425.76441337130535
 30
0.0
 11
642.83065537698769
 21
403.35141474586106
 31
0.0
  0
LINE
  5
10C
100
AcDbEntity
  8
0
  6
Continuous
 62
               7
100
AcDbLine
 10
661.67157702017414
 20
427.79624295485615
 30
0.0
 11
649.60342065549025
 21
405.38324432941187
 31
0.0
  0
LINE
  5
10D
100
AcDbEntity
  8
0
  6
Continuous
 62
               7
100
AcDbLine
 10
668.0860151464409
 20
429.16258679826313
 30
0.0
 11
656.37618593399293
 21
407.41507391296267
 31
0.0
  0
LINE
  5
10E
100
AcDbEntity
  8
0
  6
Continuous
 62
               7
100
AcDbLine
 10
668.0860151464409
 20
418.61602625407619
 30
0.0
 11
663.1489512124956
 21
409.44690349651358
 31
0.0
  0
LINE
  5
10F
100
AcDbEntity
  8
0
  6
Continuous
 62
               4
100
AcDbLine
 10
714.78679656440374
 20
21.213203435596483
 30
0.0
 11
714.78679656440374
 21
41.213203435596483
 31
0.0
  0
LINE
  5
110
100
AcDbEntity
  8
0
  6
Continuous
 62
               4
100
AcDbLine
 10
864.78679656440374
 20
21.213203435596483
 30
0.0
 11
714.78679656440374
 21
21.213203435596483
 31
0.0
  0
LINE
  5
111
100
AcDbEntity
  8
0
  6
Continuous
 62
               4
100
AcDbLine
 10
864.78679656440374
 20
41.213203435596483
 30
0.0
 11
864.78679656440374
 21
21.213203435596483
 31
0.0
  0
LINE
  5
112
100
AcDbEntity
  8
0
  6
Continuous
 62
               4
100
AcDbLine
 10
864.78679656440374
 20
41.213203435596483
 30
0.0
 11
714.78679656440374
 21
41.213203435596483
 31
0.0
  0
LINE
  5
113
100
AcDbEntity
  8
0
  6
Continuous
 62
               4
100
AcDbLine
 10
14.142135623730949
 20
595.85786437626905
 30
0.0
 11
14.142135623730949
 21
615.85786437626905
 31
0.0
  0
LINE
  5
114
100
AcDbEntity
  8
0
  6
Continuous
 62
               4
100
AcDbLine
 10
164.14213562373095
 20
595.85786437626905
 30
0.0
 11
14.142135623730949
 21
595.85786437626905
 31
0.0
  0
LINE
  5
115
100
AcDbEntity
  8
0
  6
Continuous
 62
               4
100
AcDbLine
 10
164.14213562373095
 20
615.85786437626905
 30
0.0
 11
164.14213562373095
 21
595.85786437626905
 31
0.0
  0
LINE
  5
116
100
AcDbEntity
  8
0
  6
Continuous
 62
               4
100
AcDbLine
 10
164.14213562373095
 20
615.85786437626905
 30
0.0
 11
14.142135623730949
 21
615.85786437626905
 31
0.0
  0
LINE
  5
117
100
AcDbEntity
  8
0
  6
Continuous
 62
               4
100
AcDbLine
 10
287.37730555152132
 20
492.62261440705663
 30
0.0
 11
432.37730555152132
 21
492.62261440705663
 31
0.0
  0
LINE
  5
118
100
AcDbEntity
  8
0
  6
Continuous
 62
               4
100
AcDbLine
 10
287.37730555152132
 20
476.62261440705663
 30
0.0
 11
441.61490985855528
 21
476.62261440705663
 31
0.0
  0
LINE
  5
119
100
AcDbEntity
  8
0
  6
Continuous
 62
               4
100
AcDbLine
 10
287.37730555152132
 20
460.62261440705663
 30
0.0
 11
450.85251416558935
 21
460.62261440705663
 31
0.0
  0
LINE
  5
11A
100
AcDbEntity
  8
0
  6
Continuous
 62
               4
100
AcDbLine
 10
432.37730555152149
 20
492.62261440705669
 30
0.0
 11
502.75493991913856
 21
370.72497596583725
 31
0.0
  0
LINE
  5
11B
100
AcDbEntity
  8
0
  6
DASHED
 62
               4
100
AcDbLine
 10
659.73327955660795
 20
465.84388779875525
 30
0.0
 11
299.80564120936737
 21
357.86559629458316
 31
0.0
  0
LINE
  5
11C
100
AcDbEntity
  8
0
  6
Continuous
 62
               4
100
AcDbLine
 10
287.92859741768257
 20
388.75548684277413
 30
0.0
 11
311.87425454821141
 21
395.93918398193279
 31
0.0
  0
LINE
  5
11D
100
AcDbEntity
  8
0
  6
Continuous
 62
               4
100
AcDbLine
 10
573.50443057324719
 20
453.54763156533073
 30
0.0
 11
586.43508542373263
 21
410.44544873037893
 31
0.0
  0
LINE
  5
11E
100
AcDbEntity
  8
0
  6
Continuous
 62
               4
100
AcDbLine
 10
329.68982130826748
 20
336.55396144841239
 30
0.0
 11
311.01221089151238
 21
398.81266283759618
 31
0.0
  0
LINE
  5
11F
100
AcDbEntity
  8
0
  6
Continuous
 62
               4
100
AcDbLine
 10
287.06655376098371
 20
391.62896569843764
 30
0.0
 11
305.74416417773853
 21
329.37026430925374
 31
0.0
  0
LINE
  5
120
100
AcDbEntity
  8
0
  6
Continuous
 62
               4
100
AcDbLine
 10
296.07011869700472
 20
370.31733800245803
 30
0.0
 11
655.99775704424542
 21
478.29562950663018
 31
0.0
  0
LINE
  5
121
100
AcDbEntity
  8
0
  6
Continuous
 62
               4
100
AcDbLine
 10
296.07011869700472
 20
370.31733800245803
 30
0.0
 11
309.00077354749044
 21
327.21515516750623
 31
0.0
  0
CIRCLE
  5
122
100
AcDbEntity
  8
0
  6
Continuous
 62
               4
100
AcDbCircle
 10
586.43508542373263
 20
410.44544873037893
 30
0.0
 40
1.500000000000002
  0
CIRCLE
  5
123
100
AcDbEntity
  8
0
  6
Continuous
 62
               4
100
AcDbCircle
 10
573.50443057324719
 20
453.54763156533085
 30
0.0
 40
1.500000000000002
  0
CIRCLE
  5
124
100
AcDbEntity
  8
0
  6
Continuous
 62
               4
100
AcDbCircle
 10
502.75493991913856
 20
370.72497596583725
 30
0.0
 40
1.5
  0
CIRCLE
  5
125
100
AcDbEntity
  8
0
  6
Continuous
 62
               4
100
AcDbCircle
 10
497.1033405015877
 20
380.51383330106222
 30
0.0
 40
1.5
  0
CIRCLE
  5
126
100
AcDbEntity
  8
0
  6
Continuous
 62
               4
100
AcDbCircle
 10
495.56199520598443
 20
383.18352166505434
 30
0.0
 40
1.5
  0
CIRCLE
  5
127
100
AcDbEntity
  8
0
  6
Continuous
 62
               4
100
AcDbCircle
 10
287.58378554902839
 20
316.82274229458159
 30
0.0
 40
1.5
  0
CIRCLE
  5
128
100
AcDbEntity
  8
0
  6
Continuous
 62
               4
100
AcDbCircle
 10
299.07770097168219
 20
278.50969088573532
 30
0.0
 40
1.5
  0
CIRCLE
  5
129
100
AcDbEntity
  8
0
  6
Continuous
 62
               4
100
AcDbCircle
 10
357.79243501084477
 20
242.87858243982018
 30
0.0
 40
1.5
  0
CIRCLE
  5
12A
100
AcDbEntity
  8
0
  6
Continuous
 62
               4
100
AcDbCircle
 10
362.58156643695065
 20
244.31532186765187
 30
0.0
 40
1.5
  0
CIRCLE
  5
12B
100
AcDbEntity
  8
0
  6
Continuous
 62
               4
100
AcDbCircle
 10
586.43508786646328
 20
410.44544946319814
 30
0.0
 40
1.5
  0
CIRCLE
  5
12C
100
AcDbEntity
  8
0
  6
Continuous
 62
               4
100
AcDbCircle
 10
586.43508542373263
 20
410.44544873037893
 30
0.0
 40
1.5
  0
CIRCLE
  5
12D
100
AcDbEntity
  8
0
  6
Continuous
 62
               4
100
AcDbCircle
 10
593.04408679213759
 20
388.41544416902883
 30
0.0
 40
1.5
  0
CIRCLE
  5
12E
100
AcDbEntity
  8
0
  6
Continuous
 62
               4
100
AcDbCircle
 10
602.35782761608743
 20
415.22227138939667
 30
0.0
 40
1.5
  0
CIRCLE
  5
12F
100
AcDbEntity
  8
0
  6
Continuous
 62
               4
100
AcDbCircle
 10
603.79456704391919
 20
410.4331399632909
 30
0.0
 40
1.5
  0
CIRCLE
  5
130
100
AcDbEntity
  8
0
  6
Continuous
 62
               4
100
AcDbCircle
 10
603.79456704391919
 20
410.4331399632909
 30
0.0
 40
1.5
  0
CIRCLE
  5
131
100
AcDbEntity
  8
0
  6
Continuous
 62
               4
100
AcDbCircle
 10
608.96682898449239
 20
393.19226682804657
 30
0.0
 40
1.5
  0
CIRCLE
  5
132
100
AcDbEntity
  8
0
  6
Continuous
 62
               4
100
AcDbCircle
 10
287.92859741768257
 20
388.75548684277413
 30
0.0
 40
1.5
  0
CIRCLE
  5
133
100
AcDbEntity
  8
0
  6
Continuous
 62
               4
100
AcDbCircle
 10
311.87425454821141
 20
395.93918398193279
 30
0.0
 40
1.5
  0
ARC
  5
134
100
AcDbEntity
  8
0
  6
Continuous
 62
               6
100
AcDbCircle
 10
375.20572631803464
 20
223.46341183360167
 30
0.0
 40
2.2999999523162842
100
AcDbArc
 50
196.69924423399354
 51
286.69924423399368
  0
ARC
  5
135
100
AcDbEntity
  8
0
  6
Continuous
 62
               6
100
AcDbCircle
 10
375.20572631803464
 20
223.46341183360167
 30
0.0
 40
4.5999999046325684
100
AcDbArc
 50
196.69924423399354
 51
286.69924423399368
  0
ARC
  5
136
100
AcDbEntity
  8
0
  6
Continuous
 62
               6
100
AcDbCircle
 10
414.28503893774871
 20
235.18720561951588
 30
0.0
 40
2.2999999523162842
100
AcDbArc
 50
286.69924423399368
 51
16.699244233993603
  0
ARC
  5
137
100
AcDbEntity
  8
0
  6
Continuous
 62
               6
100
AcDbCircle
 10
414.28503893774871
 20
235.18720561951588
 30
0.0
 40
4.5999999046325684
100
AcDbArc
 50
286.69924423399368
 51
16.699244233993603
  0
ARC
  5
138
100
AcDbEntity
  8
0
  6
Continuous
 62
               6
100
AcDbCircle
 10
388.19385087351702
 20
322.15783250028761
 30
0.0
 40
4.5999999046325684
100
AcDbArc
 50
16.699244233993618
 51
106.6992442339936
  0
ARC
  5
139
100
AcDbEntity
  8
0
  6
Continuous
 62
               6
100
AcDbCircle
 10
388.19385087351702
 20
322.15783250028761
 30
0.0
 40
2.2999999523162842
100
AcDbArc
 50
16.699244233993618
 51
106.6992442339936
  0
ARC
  5
13A
100
AcDbEntity
  8
0
  6
Continuous
 62
               6
100
AcDbCircle
 10
349.11453825380318
 20
310.43403871437346
 30
0.0
 40
2.2999999523162842
100
AcDbArc
 50
106.6992442339936
 51
196.69924423399354
  0
ARC
  5
13B
100
AcDbEntity
  8
0
  6
Continuous
 62
               6
100
AcDbCircle
 10
349.11453825380318
 20
310.43403871437346
 30
0.0
 40
4.5999999046325684
100
AcDbArc
 50
106.6992442339936
 51
196.69924423399354
  0
ARC
  5
13C
100
AcDbEntity
  8
0
  6
Continuous
 62
               2
100
AcDbCircle
 10
309.71914326140632
 20
324.82058945445334
 30
0.0
 40
2.5000000000000031
100
AcDbArc
 50
106.6992442339936
 51
286.69924423399351
  0
ARC
  5
13D
100
AcDbEntity
  8
0
  6
Continuous
 62
               2
100
AcDbCircle
 10
343.61092345166992
 20
292.60653048372961
 30
0.0
 40
0.705796188425076
100
AcDbArc
 50
196.69924423399448
 51
356.69924423399448
  0
ARC
  5
13E
100
AcDbEntity
  8
0
  6
Continuous
 62
               2
100
AcDbCircle
 10
398.12650938731838
 20
131.05233195421394
 30
0.0
 40
1.500000000000004
100
AcDbArc
 50
196.69924423399337
 51
16.699244233993554
  0
ARC
  5
13F
100
AcDbEntity
  8
0
  6
Continuous
 62
               2
100
AcDbCircle
 10
309.37911493015281
 20
325.08399168288901
 30
0.0
 40
0.75000000000002
100
AcDbArc
 50
106.69924423399428
 51
286.69924423399374
  0
ARC
  5
140
100
AcDbEntity
  8
0
  6
Continuous
 62
               7
100
AcDbCircle
 10
336.1727477116583
 20
301.23658924709736
 30
0.0
 40
30.0
100
AcDbArc
 50
1.5620294067002536
 51
19.691546246868189
  0
ARC
  5
141
100
AcDbEntity
  8
0
  6
Continuous
 62
               7
100
AcDbCircle
 10
355.74339638853655
 20
304.80900924367035
 30
0.0
 40
30.0
100
AcDbArc
 50
1.5620294067002536
 51
19.691546246868189
  0
ARC
  5
142
100
AcDbEntity
  8
0
  6
Continuous
 62
               7
100
AcDbCircle
 10
396.57258718627554
 20
176.67008309753598
 30
0.0
 40
13.0
100
AcDbArc
 50
264.07937928595436
 51
309.31910918203499
  0
ARC
  5
143
100
AcDbEntity
  8
0
  6
Continuous
 62
               7
100
AcDbCircle
 10
414.25657241166198
 20
185.55142837681817
 30
0.0
 40
20.0
100
AcDbArc
 50
178.41487154792969
 51
198.49097529111998
  0
TEXT
  5
144
100
AcDbEntity
  8
0
 62
               7
100
AcDbText
 10
293.39204777005648
 20
302.69887617013927
 30
0.0
 40
9.600000381469739
  1
40
 50
286.69921214727952
 41
0.7695
  7
FontTableH_0
 72
               5
 11
296.15058243166021
 21
293.50374192180175
 31
0.0
100
AcDbText
  0
TEXT
  5
145
100
AcDbEntity
  8
0
 62
               7
100
AcDbText
 10
164.15632999661898
 20
333.35363080881115
 30
0.0
 40
8.9999997615814333
  1
軒先唐草：屋根同材
 41
0.7695
  7
FontTableH_0
 72
               5
 11
245.15632785085188
 21
333.35363080881115
 31
0.0
100
AcDbText
  0
TEXT
  5
146
100
AcDbEntity
  8
0
 62
               7
100
AcDbText
 10
234.30998600247835
 20
157.73098066232674
 30
0.0
 40
8.9999997615814333
  1
軒先役物：屋根同材
 41
0.7695
  7
FontTableH_0
 72
               5
 11
315.30998385671126
 21
157.73098066232674
 31
0.0
100
AcDbText
  0
TEXT
  5
147
100
AcDbEntity
  8
0
 62
               7
100
AcDbText
 10
450.77211368802523
 20
128.41616132638924
 30
0.0
 40
8.9999997615814333
  1
力板
 41
0.7695
  7
FontTableH_0
 72
               5
 11
468.77211321118807
 21
128.41616132638924
 31
0.0
100
AcDbText
  0
TEXT
  5
148
100
AcDbEntity
  8
0
 62
               7
100
AcDbText
 10
357.45662296536898
 20
244.34606244943612
 30
0.0
 40
9.600000381469739
  1
5
 50
16.699255860263833
 41
0.7695
  7
FontTableH_0
 72
               5
 11
362.05418903724438
 21
245.72533328788478
 31
0.0
100
AcDbText
  0
TEXT
  5
149
100
AcDbEntity
  8
0
 62
               7
100
AcDbText
 10
430.39638126615023
 20
284.95729902170177
 30
0.0
 40
9.600000381469739
  1
母屋（別途）
 41
0.7695
  7
FontTableH_0
 72
               5
 11
487.99638355496865
 21
284.95729902170177
 31
0.0
100
AcDbText
  0
TEXT
  5
14A
100
AcDbEntity
  8
0
 62
               7
100
AcDbText
 10
589.79780948880648
 20
404.4595268049049
 30
0.0
 40
9.600000381469739
  1
23
 50
286.69921214727952
 41
0.7695
  7
FontTableH_0
 72
               5
 11
592.55634415041027
 21
395.26439255656737
 31
0.0
100
AcDbText
  0
TEXT
  5
14B
100
AcDbEntity
  8
0
 62
               7
100
AcDbText
 10
602.09981144193148
 20
421.3042533674049
 30
0.0
 40
9.600000381469739
  1
5
 50
286.69921214727952
 41
0.7695
  7
FontTableH_0
 72
               5
 11
603.47907877273337
 21
416.70668624323611
 31
0.0
100
AcDbText
  0
TEXT
  5
14C
100
AcDbEntity
  8
0
 62
               7
100
AcDbText
 10
606.43880069974398
 20
406.8414848127174
 30
0.0
 40
9.600000381469739
  1
18
 50
286.69921214727952
 41
0.7695
  7
FontTableH_0
 72
               5
 11
609.19733536134777
 21
397.64635056437987
 31
0.0
100
AcDbText
  0
TEXT
  5
14D
100
AcDbEntity
  8
0
 62
               7
100
AcDbText
 10
733.53679805451975
 20
26.713203554805766
 30
0.0
 40
8.9999997615814333
  1
軒先詳細図（1） 【S=1/3】
 41
0.7695
  7
FontTableH_0
 72
               5
 11
846.03679507428762
 21
26.713203554805766
 31
0.0
100
AcDbText
  0
TEXT
  5
14E
100
AcDbEntity
  8
0
 62
               7
100
AcDbText
 10
290.38014524027778
 20
478.12196890294865
 30
0.0
 40
8.9999997615814866
  1
アスファルトルーフィング 22kg
 41
0.7695
  7
FontTableH_0
 72
               5
 11
401.68896307569315
 21
478.12196890294865
 31
0.0
100
AcDbText
  0
TEXT
  5
14F
100
AcDbEntity
  8
0
 62
               7
100
AcDbText
 10
290.38014524027778
 20
462.12196890294865
 30
0.0
 40
8.9999997615814866
  1
硬質木片セメント板 18mm
 41
0.7695
  7
FontTableH_0
 72
               5
 11
375.3980027748226
 21
462.12196890294865
 31
0.0
100
AcDbText
  0
TEXT
  5
150
100
AcDbEntity
  8
0
 62
               7
100
AcDbText
 10
290.38014524027778
 20
494.12196890294871
 30
0.0
 40
8.9999997615814866
  1
ストロングルーフ 400：各種金属板
 41
0.7695
  7
FontTableH_0
 72
               5
 11
421.67425587502566
 21
494.12196890294871
 31
0.0
100
AcDbText
  0
TEXT
  5
151
100
AcDbEntity
  8
0
 62
               7
100
AcDbText
 10
23.892137352265575
 20
601.35786449547834
 30
0.0
 40
8.9999997615814333
  1
ハーパーズストロングルーフ400
 41
0.7695
  7
FontTableH_0
 72
               5
 11
154.39213389519637
 21
601.35786449547834
 31
0.0
100
AcDbText
  0
TEXT
  5
152
100
AcDbEntity
  8
0
 62
               7
100
AcDbText
 10
294.87577479906145
 20
392.40846405197232
 30
0.0
 40
9.6000003814697887
  1
25
 50
16.699255860263776
 41
0.7695
  7
FontTableH_0
 72
               5
 11
304.07090694281231
 21
395.16700572886964
 31
0.0
100
AcDbText
  0
TEXT
  5
153
100
AcDbEntity
  8
0
 62
               7
100
AcDbText
 10
579.0988234422972
 20
434.89965533516306
 30
0.0
 40
9.6000000000000103
  1
45
 50
286.6992442339938
 41
0.7695
  7
FontTableH_0
 72
               5
 11
581.85736314373412
 21
425.70452299704004
 31
0.0
100
AcDbText
  0
ENDSEC
  0
SECTION
  2
OBJECTS
  0
DICTIONARY
  5
19
100
AcDbDictionary
  3
ACAD_GROUP
350
1A
  3
ACAD_MLINESTYLE
350
1B
  3
DWGPROPS
350
154
  0
DICTIONARY
  5
1A
102
{ACAD_REACTORS
330
19
102
}
100
AcDbDictionary
  0
DICTIONARY
  5
1B
102
{ACAD_REACTORS
330
19
102
}
100
AcDbDictionary
  3
STANDARD
350
1C
  0
MLINESTYLE
  5
1C
102
{ACAD_REACTORS
330
1B
102
}
100
AcDbMlineStyle
  2
Standard
 70
               0
  3

 62
               0
 51
90.0
 52
90.0
 71
               2
 49
0.5
 62
             256
  6
ByLayer
 49
-0.5
 62
             256
  6
ByLayer
  0
XRECORD
  5
154
100
AcDbXrecord
  1
DWGPROPS COOKIE
  2

  3

  4

  6

  7

  0
ENDSEC
  0
EOF
