  0
SECTION
  2
HEADER
  9
$ACADVER
  1
AC1014
  9
$ACADMAINTVER
 70
               0
  9
$DWGCODEPAGE
  3
ANSI_932
  9
$INSBASE
 10
0.0
 20
0.0
 30
0.0
  9
$EXTMIN
 10
0.0
 20
0.0
 30
0.0
  9
$EXTMAX
 10
891.00000000000091
 20
630.00000000000068
 30
0.0
  9
$LIMMIN
 10
0.0
 20
0.0
  9
$LIMMAX
 10
891.00000000000091
 20
630.00000000000068
  9
$ORTHOMODE
 70
               0
  9
$REGENMODE
 70
               1
  9
$FILLMODE
 70
               1
  9
$QTEXTMODE
 70
               0
  9
$MIRRTEXT
 70
               1
  9
$DRAGMODE
 70
               2
  9
$LTSCALE
 40
3.0000000000000031
  9
$OSMODE
 70
               0
  9
$ATTMODE
 70
               1
  9
$TEXTSIZE
 40
0.2
  9
$TRACEWID
 40
0.05
  9
$TEXTSTYLE
  7
Standard
  9
$CLAYER
  8
0
  9
$CELTYPE
  6
Continuous
  9
$CECOLOR
 62
             256
  9
$CELTSCALE
 40
1.0
  9
$DELOBJ
 70
               1
  9
$DISPSILH
 70
               0
  9
$DIMSCALE
 40
1.0
  9
$DIMASZ
 40
0.18
  9
$DIMEXO
 40
0.0625
  9
$DIMDLI
 40
0.38
  9
$DIMRND
 40
0.0
  9
$DIMDLE
 40
0.0
  9
$DIMEXE
 40
0.18
  9
$DIMTP
 40
0.0
  9
$DIMTM
 40
0.0
  9
$DIMTXT
 40
0.18
  9
$DIMCEN
 40
0.09
  9
$DIMTSZ
 40
0.0
  9
$DIMTOL
 70
               0
  9
$DIMLIM
 70
               0
  9
$DIMTIH
 70
               1
  9
$DIMTOH
 70
               1
  9
$DIMSE1
 70
               0
  9
$DIMSE2
 70
               0
  9
$DIMTAD
 70
               0
  9
$DIMZIN
 70
               0
  9
$DIMBLK
  1

  9
$DIMASO
 70
               1
  9
$DIMSHO
 70
               1
  9
$DIMPOST
  1

  9
$DIMAPOST
  1

  9
$DIMALT
 70
               0
  9
$DIMALTD
 70
               2
  9
$DIMALTF
 40
25.399999999999999
  9
$DIMLFAC
 40
1.0
  9
$DIMTOFL
 70
               0
  9
$DIMTVP
 40
0.0
  9
$DIMTIX
 70
               0
  9
$DIMSOXD
 70
               0
  9
$DIMSAH
 70
               0
  9
$DIMBLK1
  1

  9
$DIMBLK2
  1

  9
$DIMSTYLE
  2
Standard
  9
$DIMCLRD
 70
               0
  9
$DIMCLRE
 70
               0
  9
$DIMCLRT
 70
               0
  9
$DIMTFAC
 40
1.0
  9
$DIMGAP
 40
0.09
  9
$DIMJUST
 70
               0
  9
$DIMSD1
 70
               0
  9
$DIMSD2
 70
               0
  9
$DIMTOLJ
 70
               1
  9
$DIMTZIN
 70
               0
  9
$DIMALTZ
 70
               0
  9
$DIMALTTZ
 70
               0
  9
$DIMFIT
 70
               3
  9
$DIMUPT
 70
               0
  9
$DIMUNIT
 70
               2
  9
$DIMDEC
 70
               4
  9
$DIMTDEC
 70
               4
  9
$DIMALTU
 70
               2
  9
$DIMALTTD
 70
               2
  9
$DIMTXSTY
  7
Standard
  9
$DIMAUNIT
 70
               0
  9
$LUNITS
 70
               2
  9
$LUPREC
 70
               4
  9
$SKETCHINC
 40
0.1
  9
$FILLETRAD
 40
0.0
  9
$AUNITS
 70
               0
  9
$AUPREC
 70
               0
  9
$MENU
  1
acad
  9
$ELEVATION
 40
0.0
  9
$PELEVATION
 40
0.0
  9
$THICKNESS
 40
0.0
  9
$LIMCHECK
 70
               0
  9
$BLIPMODE
 70
               1
  9
$CHAMFERA
 40
0.0
  9
$CHAMFERB
 40
0.0
  9
$CHAMFERC
 40
0.0
  9
$CHAMFERD
 40
0.0
  9
$SKPOLY
 70
               0
  9
$TDCREATE
 40
0.000000000
  9
$TDUPDATE
 40
0.000000000
  9
$TDINDWG
 40
0.0000000000
  9
$TDUSRTIMER
 40
0.0000000000
  9
$USRTIMER
 70
               1
  9
$ANGBASE
 50
0.0
  9
$ANGDIR
 70
               0
  9
$PDMODE
 70
               0
  9
$PDSIZE
 40
0.0
  9
$PLINEWID
 40
0.0
  9
$COORDS
 70
               0
  9
$SPLFRAME
 70
               0
  9
$SPLINETYPE
 70
               6
  9
$SPLINESEGS
 70
               8
  9
$ATTDIA
 70
               0
  9
$ATTREQ
 70
               1
  9
$HANDLING
 70
               1
  9
$HANDSEED
  5
12E
  9
$SURFTAB1
 70
               6
  9
$SURFTAB2
 70
               6
  9
$SURFTYPE
 70
               6
  9
$SURFU
 70
               6
  9
$SURFV
 70
               6
  9
$UCSNAME
  2

  9
$UCSORG
 10
0.0
 20
0.0
 30
0.0
  9
$UCSXDIR
 10
1.0
 20
0.0
 30
0.0
  9
$UCSYDIR
 10
0.0
 20
1.0
 30
0.0
  9
$PUCSNAME
  2

  9
$PUCSORG
 10
0.0
 20
0.0
 30
0.0
  9
$PUCSXDIR
 10
1.0
 20
0.0
 30
0.0
  9
$PUCSYDIR
 10
0.0
 20
1.0
 30
0.0
  9
$USERI1
 70
               0
  9
$USERI2
 70
               0
  9
$USERI3
 70
               0
  9
$USERI4
 70
               0
  9
$USERI5
 70
               0
  9
$USERR1
 40
0.0
  9
$USERR2
 40
0.0
  9
$USERR3
 40
0.0
  9
$USERR4
 40
0.0
  9
$USERR5
 40
0.0
  9
$WORLDVIEW
 70
               1
  9
$SHADEDGE
 70
               3
  9
$SHADEDIF
 70
              70
  9
$TILEMODE
 70
               1
  9
$MAXACTVP
 70
              16
  9
$PINSBASE
 10
0.0
 20
0.0
 30
0.0
  9
$PLIMCHECK
 70
               0
  9
$PEXTMIN
 10
1.0000000000000000E+20
 20
1.0000000000000000E+20
 30
1.0000000000000000E+20
  9
$PEXTMAX
 10
-1.0000000000000000E+20
 20
-1.0000000000000000E+20
 30
-1.0000000000000000E+20
  9
$PLIMMIN
 10
0.0
 20
0.0
  9
$PLIMMAX
 10
12.0
 20
9.0
  9
$UNITMODE
 70
               0
  9
$VISRETAIN
 70
               0
  9
$PLINEGEN
 70
               1
  9
$PSLTSCALE
 70
               0
  9
$TREEDEPTH
 70
            3020
  9
$PICKSTYLE
 70
               1
  9
$CMLSTYLE
  2
Standard
  9
$CMLJUST
 70
               0
  9
$CMLSCALE
 40
1.0
  9
$PROXYGRAPHICS
 70
               0
  9
$MEASUREMENT
 70
               0
  0
ENDSEC
  0
SECTION
  2
CLASSES
  0
CLASS
  1
LWPOLYLINE
  2
AcDbPolyline
  3
"AutoCAD"
 90
        0
280
               0
281
               1
  0
CLASS
  1
IMAGE
  2
AcDbRasterImage
  3
ISM
 90
      127
280
               0
281
               1
  0
CLASS
  1
OLE2FRAME
  2
AcDbOle2Frame
  3
""
 90
        0
280
               0
281
               1
  0
CLASS
  1
HATCH
  2
AcDbHatch
  3
"ACAD_SEDONA"
 90
        0
280
               0
281
               1
  0
CLASS
  1
DICTIONARYVAR
  2
AcDbDictionaryVar
  3
"AutoCAD"
 90
        0
280
               0
281
               0
  0
CLASS
  1
RASTERVARIABLES
  2
AcDbRasterVariables
  3
ISM
 90
        0
280
               0
281
               0
  0
CLASS
  1
IMAGEDEF
  2
AcDbRasterImageDef
  3
ISM
 90
        0
280
               0
281
               0
  0
CLASS
  1
IMAGEDEF_REACTOR
  2
AcDbRasterImageDefReactor
  3
ISM
 90
        1
280
               0
281
               0
  0
CLASS
  1
IDBUFFER
  2
AcDbIdBuffer
  3
"Acad"
 90
        0
280
               0
281
               0
  0
CLASS
  1
SPATIAL_FILTER
  2
AcDbSpatialFilter
  3
"Acad"
 90
        0
280
               0
281
               0
  0
CLASS
  1
XRECORD
  2
AcDbXrecord
  3
"<Built In>"
 90
        0
280
               0
281
               0
  0
CLASS
  1
SORTENTSTABLE
  2
AcDbSortentsTable
  3
"AutoCAD"
 90
        0
280
               0
281
               0
  0
CLASS
  1
LAYER_INDEX
  2
AcDbLayerIndex
  3
"Acad"
 90
        0
280
               0
281
               0
  0
CLASS
  1
SPATIAL_INDEX
  2
AcDbSpatialIndex
  3
"Acad"
 90
        0
280
               0
281
               0
  0
CLASS
  1
OBJECT_PTR
  2
CAseDLPNTableRecord
  3
"ASE-LPNTableRecord"
 90
        1
280
               0
281
               0
  0
CLASS
  1
LAYOUT
  2
AcDbLayout
  3
"AutoCAD 2000"
 90
        0
280
               0
281
               0
  0
CLASS
  1
PLOTSETTINGS
  2
AcDbPlotSettings
  3
"AutoCAD 2000"
 90
        0
280
               0
281
               0
  0
CLASS
  1
ACDBDICTIONARYWDFLT
  2
AcDbDictionaryWithDefault
  3
"AutoCAD 2000"
 90
        0
280
               0
281
               0
  0
CLASS
  1
ACDBPLACEHOLDER
  2
AcDbPlaceHolder
  3
"AutoCAD 2000"
 90
        0
280
               0
281
               0
  0
CLASS
  1
VBA_PROJECT
  2
AcDbVbaProject
  3
"acadvba"
 90
        0
280
               0
281
               0
  0
CLASS
  1
WIPEOUT
  2
AcDbWipeout
  3
WipeOut|AutoCAD Express Tool|expresstools@autodesk.com
 90
      127
280
               0
281
               1
  0
CLASS
  1
WIPEOUTVARIABLES
  2
AcDbWipeoutVariables
  3
WipeOut|AutoCAD Express Tool|expresstools@autodesk.com
 90
        0
280
               0
281
               0
  0
CLASS
  1
RTEXT
  2
RText
  3
RText|AutoCAD Express Tool|expresstools@autodesk.com
 90
        0
280
               0
281
               1
  0
CLASS
  1
ARCALIGNEDTEXT
  2
AcDbArcAlignedText
  3
ATEXT|AutoCAD Express Tool|expresstools@autodesk.com
 90
        0
280
               0
281
               1
  0
ENDSEC
  0
SECTION
  2
TABLES
  0
TABLE
  2
VPORT
  5
7
100
AcDbSymbolTable
 70
               1
  0
VPORT
  5
15
100
AcDbSymbolTableRecord
100
AcDbViewportTableRecord
  2
*ACTIVE
 70
               0
 10
0.0
 20
0.0
 11
1.0
 21
1.0
 12
445.50000000000045
 22
315.00000000000034
 13
0.0
 23
0.0
 14
10.0
 24
10.0
 15
10.0
 25
10.0
 16
0.0
 26
0.0
 36
1.0
 17
0.0
 27
0.0
 37
0.0
 40
630.00000000000068
 41
1.4142857142857141
 42
50.0
 43
0.0
 44
0.0
 50
0.0
 51
0.0
 71
               0
 72
             100
 73
               1
 74
               1
 75
               0
 76
               0
 77
               0
 78
               0
  0
ENDTAB
  0
TABLE
  2
LTYPE
  5
4
100
AcDbSymbolTable
 70
              24
  0
LTYPE
  5
11
100
AcDbSymbolTableRecord
100
AcDbLinetypeTableRecord
  2
ByBlock
 70
              64
  3

 72
              65
 73
               0
 40
0.0
  0
LTYPE
  5
12
100
AcDbSymbolTableRecord
100
AcDbLinetypeTableRecord
  2
ByLayer
 70
              64
  3

 72
              65
 73
               0
 40
0.0
  0
LTYPE
  5
13
100
AcDbSymbolTableRecord
100
AcDbLinetypeTableRecord
  2
Continuous
 70
              64
  3
Solid line
 72
              65
 73
               0
 40
0.0
  0
LTYPE
  5
1D
100
AcDbSymbolTableRecord
100
AcDbLinetypeTableRecord
  2
DOT
 70
              64
  3
Dot . . . . . . . . . . . . . . . . . . . . . .
 72
              65
 73
               2
 40
6.3499999999999996
 49
0.35
 74
               0
 49
-6.0
 74
               0
  0
LTYPE
  5
1E
100
AcDbSymbolTableRecord
100
AcDbLinetypeTableRecord
  2
DASHED
 70
              64
  3
Dashed __ __ __ __ __ __ __ __ __ __ __ __ __ _
 72
              65
 73
               2
 40
12.699999999999999
 49
6.3499999999999996
 74
               0
 49
-6.3499999999999996
 74
               0
  0
LTYPE
  5
1F
100
AcDbSymbolTableRecord
100
AcDbLinetypeTableRecord
  2
DASHDOT
 70
              64
  3
Dash dot __ . __ . __ . __ . __ . __ . __ . __
 72
              65
 73
               4
 40
25.399999999999999
 49
12.699999999999999
 74
               0
 49
-6.0
 74
               0
 49
0.7
 74
               0
 49
-6.0
 74
               0
  0
LTYPE
  5
20
100
AcDbSymbolTableRecord
100
AcDbLinetypeTableRecord
  2
DIVIDE
 70
              64
  3
Divide ____ . . ____ . . ____ . . ____ . . ____
 72
              65
 73
               6
 40
31.75
 49
12.699999999999999
 74
               0
 49
-6.0
 74
               0
 49
0.875
 74
               0
 49
-6.0
 74
               0
 49
0.875
 74
               0
 49
-6.0
 74
               0
  0
LTYPE
  5
21
100
AcDbSymbolTableRecord
100
AcDbLinetypeTableRecord
  2
HIDDEN
 70
              64
  3
Hidden __ __ __ __ __ __ __ __ __ __ __ __ __ _
 72
              65
 73
               2
 40
9.5250000000000004
 49
6.3499999999999996
 74
               0
 49
-3.1749999999999998
 74
               0
  0
LTYPE
  5
22
100
AcDbSymbolTableRecord
100
AcDbLinetypeTableRecord
  2
CENTER
 70
              64
  3
Center ____ _ ____ _ ____ _ ____ _ ____ _ ____
 72
              65
 73
               4
 40
50.799999999999997
 49
31.75
 74
               0
 49
-6.3499999999999996
 74
               0
 49
6.3499999999999996
 74
               0
 49
-6.3499999999999996
 74
               0
  0
LTYPE
  5
23
100
AcDbSymbolTableRecord
100
AcDbLinetypeTableRecord
  2
PHANTOM
 70
              64
  3
Phantom ______  __  __  ______  __  __  ______
 72
              65
 73
               6
 40
63.5
 49
31.75
 74
               0
 49
-6.3499999999999996
 74
               0
 49
6.3499999999999996
 74
               0
 49
-6.3499999999999996
 74
               0
 49
6.3499999999999996
 74
               0
 49
-6.3499999999999996
 74
               0
  0
LTYPE
  5
24
100
AcDbSymbolTableRecord
100
AcDbLinetypeTableRecord
  2
ACAD_ISO02W100
 70
              64
  3
ISO dash __ __ __ __ __ __ __ __ __ __ __ __ __
 72
              65
 73
               2
 40
15.0
 49
12.0
 74
               0
 49
-3.0
 74
               0
  0
LTYPE
  5
25
100
AcDbSymbolTableRecord
100
AcDbLinetypeTableRecord
  2
ACAD_ISO03W100
 70
              64
  3
ISO dash space __ __ __ __ __ __ __ __ __ __ __ __ __ __
 72
              65
 73
               2
 40
30.0
 49
12.0
 74
               0
 49
-18.0
 74
               0
  0
LTYPE
  5
26
100
AcDbSymbolTableRecord
100
AcDbLinetypeTableRecord
  2
ACAD_ISO04W100
 70
              64
  3
ISO long-dash dot ____ . ____ . ____ . ____ . _
 72
              65
 73
               4
 40
30.0
 49
24.0
 74
               0
 49
-3.0
 74
               0
 49
0.0
 74
               0
 49
-3.0
 74
               0
  0
LTYPE
  5
27
100
AcDbSymbolTableRecord
100
AcDbLinetypeTableRecord
  2
ACAD_ISO05W100
 70
              64
  3
ISO long-dash double-dot ____ .. ____ .. ____ .
 72
              65
 73
               6
 40
33.0
 49
24.0
 74
               0
 49
-3.0
 74
               0
 49
0.0
 74
               0
 49
-3.0
 74
               0
 49
0.0
 74
               0
 49
-3.0
 74
               0
  0
LTYPE
  5
28
100
AcDbSymbolTableRecord
100
AcDbLinetypeTableRecord
  2
ACAD_ISO06W100
 70
              64
  3
ISO long-dash triple-dot ____ ... ____ ... ____
 72
              65
 73
               8
 40
36.0
 49
24.0
 74
               0
 49
-3.0
 74
               0
 49
0.0
 74
               0
 49
-3.0
 74
               0
 49
0.0
 74
               0
 49
-3.0
 74
               0
 49
0.0
 74
               0
 49
-3.0
 74
               0
  0
LTYPE
  5
29
100
AcDbSymbolTableRecord
100
AcDbLinetypeTableRecord
  2
ACAD_ISO07W100
 70
              64
  3
ISO dot . . . . . . . . . . . . . . . . . . . .
 72
              65
 73
               2
 40
3.0
 49
0.0
 74
               0
 49
-3.0
 74
               0
  0
LTYPE
  5
2A
100
AcDbSymbolTableRecord
100
AcDbLinetypeTableRecord
  2
ACAD_ISO08W100
 70
              64
  3
ISO long-dash short-dash ____ __ ____ __ ____ _
 72
              65
 73
               4
 40
36.0
 49
24.0
 74
               0
 49
-3.0
 74
               0
 49
6.0
 74
               0
 49
-3.0
 74
               0
  0
LTYPE
  5
2B
100
AcDbSymbolTableRecord
100
AcDbLinetypeTableRecord
  2
ACAD_ISO09W100
 70
              64
  3
ISO long-dash double-short-dash ____ __ __ ____
 72
              65
 73
               6
 40
45.0
 49
24.0
 74
               0
 49
-3.0
 74
               0
 49
6.0
 74
               0
 49
-3.0
 74
               0
 49
6.0
 74
               0
 49
-3.0
 74
               0
  0
LTYPE
  5
2C
100
AcDbSymbolTableRecord
100
AcDbLinetypeTableRecord
  2
ACAD_ISO10W100
 70
              64
  3
ISO dash dot __ . __ . __ . __ . __ . __ . __ .
 72
              65
 73
               4
 40
18.0
 49
12.0
 74
               0
 49
-3.0
 74
               0
 49
0.0
 74
               0
 49
-3.0
 74
               0
  0
LTYPE
  5
2D
100
AcDbSymbolTableRecord
100
AcDbLinetypeTableRecord
  2
ACAD_ISO11W100
 70
              64
  3
ISO double-dash dot __ __ . __ __ . __ __ . __ 
 72
              65
 73
               6
 40
33.0
 49
12.0
 74
               0
 49
-3.0
 74
               0
 49
12.0
 74
               0
 49
-3.0
 74
               0
 49
0.0
 74
               0
 49
-3.0
 74
               0
  0
LTYPE
  5
2E
100
AcDbSymbolTableRecord
100
AcDbLinetypeTableRecord
  2
ACAD_ISO12W100
 70
              64
  3
ISO dash double-dot __ . . __ . . __ . . __ . .
 72
              65
 73
               6
 40
21.0
 49
12.0
 74
               0
 49
-3.0
 74
               0
 49
0.0
 74
               0
 49
-3.0
 74
               0
 49
0.0
 74
               0
 49
-3.0
 74
               0
  0
LTYPE
  5
2F
100
AcDbSymbolTableRecord
100
AcDbLinetypeTableRecord
  2
ACAD_ISO13W100
 70
              64
  3
ISO double-dash double-dot __ __ . . __ __ . . 
 72
              65
 73
               8
 40
36.0
 49
12.0
 74
               0
 49
-3.0
 74
               0
 49
12.0
 74
               0
 49
-3.0
 74
               0
 49
0.0
 74
               0
 49
-3.0
 74
               0
 49
0.0
 74
               0
 49
-3.0
 74
               0
  0
LTYPE
  5
30
100
AcDbSymbolTableRecord
100
AcDbLinetypeTableRecord
  2
ACAD_ISO14W100
 70
              64
  3
ISO dash triple-dot __ . . . __ . . . __ . . . 
 72
              65
 73
               8
 40
24.0
 49
12.0
 74
               0
 49
-3.0
 74
               0
 49
0.0
 74
               0
 49
-3.0
 74
               0
 49
0.0
 74
               0
 49
-3.0
 74
               0
 49
0.0
 74
               0
 49
-3.0
 74
               0
  0
LTYPE
  5
31
100
AcDbSymbolTableRecord
100
AcDbLinetypeTableRecord
  2
ACAD_ISO15W100
 70
              64
  3
ISO double-dash double-dot __ __ . . __ __ . . 
 72
              65
 73
              10
 40
39.0
 49
12.0
 74
               0
 49
-3.0
 74
               0
 49
12.0
 74
               0
 49
-3.0
 74
               0
 49
0.0
 74
               0
 49
-3.0
 74
               0
 49
0.0
 74
               0
 49
-3.0
 74
               0
 49
0.0
 74
               0
 49
-3.0
 74
               0
  0
ENDTAB
  0
TABLE
  2
LAYER
  5
2
100
AcDbSymbolTable
 70
              16
  0
LAYER
  5
14
100
AcDbSymbolTableRecord
100
AcDbLayerTableRecord
  2
0
 70
               0
 62
               7
  6
Continuous
  0
LAYER
  5
35
100
AcDbSymbolTableRecord
100
AcDbLayerTableRecord
  2
Layer00001
 70
               0
 62
               7
  6
Continuous
  0
LAYER
  5
36
100
AcDbSymbolTableRecord
100
AcDbLayerTableRecord
  2
Layer00002
 70
               0
 62
               7
  6
Continuous
  0
LAYER
  5
37
100
AcDbSymbolTableRecord
100
AcDbLayerTableRecord
  2
Layer00003
 70
               0
 62
               7
  6
Continuous
  0
LAYER
  5
38
100
AcDbSymbolTableRecord
100
AcDbLayerTableRecord
  2
Layer00004
 70
               0
 62
               7
  6
Continuous
  0
LAYER
  5
39
100
AcDbSymbolTableRecord
100
AcDbLayerTableRecord
  2
Layer00005
 70
               0
 62
               7
  6
Continuous
  0
LAYER
  5
3A
100
AcDbSymbolTableRecord
100
AcDbLayerTableRecord
  2
Layer00006
 70
               0
 62
               7
  6
Continuous
  0
LAYER
  5
3B
100
AcDbSymbolTableRecord
100
AcDbLayerTableRecord
  2
Layer00007
 70
               0
 62
               7
  6
Continuous
  0
LAYER
  5
3C
100
AcDbSymbolTableRecord
100
AcDbLayerTableRecord
  2
Layer00008
 70
               0
 62
               7
  6
Continuous
  0
LAYER
  5
3D
100
AcDbSymbolTableRecord
100
AcDbLayerTableRecord
  2
Layer00009
 70
               0
 62
               7
  6
Continuous
  0
LAYER
  5
3E
100
AcDbSymbolTableRecord
100
AcDbLayerTableRecord
  2
Layer00010
 70
               0
 62
               7
  6
Continuous
  0
LAYER
  5
3F
100
AcDbSymbolTableRecord
100
AcDbLayerTableRecord
  2
Layer00011
 70
               0
 62
               7
  6
Continuous
  0
LAYER
  5
40
100
AcDbSymbolTableRecord
100
AcDbLayerTableRecord
  2
Layer00012
 70
               0
 62
               7
  6
Continuous
  0
LAYER
  5
41
100
AcDbSymbolTableRecord
100
AcDbLayerTableRecord
  2
Layer00013
 70
               0
 62
               7
  6
Continuous
  0
LAYER
  5
42
100
AcDbSymbolTableRecord
100
AcDbLayerTableRecord
  2
Layer00014
 70
               0
 62
               7
  6
Continuous
  0
LAYER
  5
43
100
AcDbSymbolTableRecord
100
AcDbLayerTableRecord
  2
Layer00015
 70
               0
 62
               7
  6
Continuous
  0
ENDTAB
  0
TABLE
  2
STYLE
  5
3
100
AcDbSymbolTable
 70
               4
  0
STYLE
  5
17
100
AcDbSymbolTableRecord
100
AcDbTextStyleTableRecord
  2
Standard
 70
               0
 40
0.0
 41
1.0
 50
0.0
 71
               0
 42
0.0
  3
txt.shx
  4
bigfont.shx
  0
STYLE
  5
32
100
AcDbSymbolTableRecord
100
AcDbTextStyleTableRecord
  2
STANDARD_T
 70
               4
 40
0.0
 41
1.0
 50
0.0
 71
               0
 42
0.0
  3
txt.shx
  4
bigfont.shx
  0
STYLE
  5
33
100
AcDbSymbolTableRecord
100
AcDbTextStyleTableRecord
  2
FontTableH_0
 70
               0
 40
0.0
 41
1.0
 50
0.0
 71
               0
 42
0.0
  3
MS Gothic.ttf
  4

1001
ACAD
1000
MS Gothic
1071
    32817
  0
STYLE
  5
34
100
AcDbSymbolTableRecord
100
AcDbTextStyleTableRecord
  2
FontTableV_0
 70
               0
 40
0.0
 41
1.0
 50
0.0
 71
               0
 42
0.0
  3
@MS Gothic.ttf
  4

1001
ACAD
1000
@MS Gothic
1071
    32817
  0
ENDTAB
  0
TABLE
  2
VIEW
  5
5
100
AcDbSymbolTable
 70
               0
  0
ENDTAB
  0
TABLE
  2
UCS
  5
6
100
AcDbSymbolTable
 70
               0
  0
ENDTAB
  0
TABLE
  2
APPID
  5
8
100
AcDbSymbolTable
 70
               1
  0
APPID
  5
16
100
AcDbSymbolTableRecord
100
AcDbRegAppTableRecord
  2
ACAD
 70
               0
  0
ENDTAB
  0
TABLE
  2
DIMSTYLE
  5
9
100
AcDbSymbolTable
 70
               1
  0
DIMSTYLE
105
18
100
AcDbSymbolTableRecord
100
AcDbDimStyleTableRecord
  2
Standard
 70
               0
  3

  4

  5

  6

  7

 40
1.0
 41
0.18
 42
0.0625
 43
0.38
 44
0.18
 45
0.0
 46
0.0
 47
0.0
 48
0.0
 71
               0
 72
               0
 73
               1
 74
               1
 75
               0
 76
               0
 77
               0
 78
               0
140
0.18
141
0.09
142
0.0
143
25.399999999999999
144
1.0
145
0.0
146
1.0
147
0.09
170
               0
171
               2
172
               0
173
               0
174
               0
175
               0
176
               0
177
               0
178
               0
270
               2
271
               4
272
               4
273
               2
274
               2
275
               0
280
               0
281
               0
282
               0
283
               1
284
               0
285
               0
286
               0
287
               0
288
               0
340
17
  0
ENDTAB
  0
TABLE
  2
BLOCK_RECORD
  5
1
100
AcDbSymbolTable
 70
               0
  0
BLOCK_RECORD
  5
A
100
AcDbSymbolTableRecord
100
AcDbBlockTableRecord
  2
*MODEL_SPACE
  0
BLOCK_RECORD
  5
B
100
AcDbSymbolTableRecord
100
AcDbBlockTableRecord
  2
*PAPER_SPACE
  0
ENDTAB
  0
ENDSEC
  0
SECTION
  2
BLOCKS
  0
BLOCK
  5
D
100
AcDbEntity
  8
0
100
AcDbBlockBegin
  2
*MODEL_SPACE
 70
               0
 10
0.0
 20
0.0
 30
0.0
  3
*MODEL_SPACE
  1

  0
ENDBLK
  5
E
100
AcDbEntity
  8
0
100
AcDbBlockEnd
  0
BLOCK
  5
F
100
AcDbEntity
 67
               1
  8
0
100
AcDbBlockBegin
  2
*PAPER_SPACE
 70
               0
 10
0.0
 20
0.0
 30
0.0
  3
*PAPER_SPACE
  1

  0
ENDBLK
  5
10
100
AcDbEntity
 67
               1
  8
0
100
AcDbBlockEnd
  0
ENDSEC
  0
SECTION
  2
ENTITIES
  0
LINE
  5
44
100
AcDbEntity
  8
0
  6
Continuous
 62
               3
100
AcDbLine
 10
689.34212064110432
 20
281.92324773801749
 30
0.0
 11
443.70776189175825
 21
343.33183742535414
 31
0.0
  0
LINE
  5
45
100
AcDbEntity
  8
0
  6
Continuous
 62
               3
100
AcDbLine
 10
189.34212064110426
 20
281.9232244298264
 30
0.0
 11
434.97647945467048
 21
343.33183716847327
 31
0.0
  0
LINE
  5
46
100
AcDbEntity
  8
0
  6
Continuous
 62
               7
100
AcDbLine
 10
673.10020840080722
 20
267.42975048281232
 30
0.0
 11
659.98117814771729
 21
289.26348336136425
 31
0.0
  0
LINE
  5
47
100
AcDbEntity
  8
0
  6
Continuous
 62
               2
100
AcDbLine
 10
189.34212064110426
 20
286.04633014642286
 30
0.0
 11
436.34212064110437
 21
347.79635330974588
 31
0.0
  0
LINE
  5
48
100
AcDbEntity
  8
0
  6
Continuous
 62
               2
100
AcDbLine
 10
689.34212064110432
 20
286.04635336363526
 30
0.0
 11
442.34212064110437
 21
347.79635336363526
 31
0.0
  0
LINE
  5
49
100
AcDbEntity
  8
0
  6
DASHED
 62
               6
100
AcDbLine
 10
689.34212064110432
 20
283.98480055082632
 30
0.0
 11
442.34212064110437
 21
345.73480055082644
 31
0.0
  0
LINE
  5
4A
100
AcDbEntity
  8
0
  6
DASHED
 62
               6
100
AcDbLine
 10
189.34212064110426
 20
283.98477728812463
 30
0.0
 11
436.34212064110437
 21
345.73480045144777
 31
0.0
  0
LINE
  5
4B
100
AcDbEntity
  8
0
  6
Continuous
 62
               7
100
AcDbLine
 10
689.34212064110432
 20
269.52272958330479
 30
0.0
 11
680.57403886556733
 21
284.11526818190168
 31
0.0
  0
LINE
  5
4C
100
AcDbEntity
  8
0
  6
Continuous
 62
               7
100
AcDbLine
 10
679.96449530675716
 20
265.71367875632484
 30
0.0
 11
666.84546505366814
 21
287.54741163487643
 31
0.0
  0
LINE
  5
4D
100
AcDbEntity
  8
0
  6
Continuous
 62
               7
100
AcDbLine
 10
686.82878221270687
 20
263.99760702983735
 30
0.0
 11
673.70975195961785
 21
285.83133990838917
 31
0.0
  0
LINE
  5
4E
100
AcDbEntity
  8
0
  6
Continuous
 62
               7
100
AcDbLine
 10
689.34212064110432
 20
279.23074971535732
 30
0.0
 11
687.43832577151818
 21
282.39919645541397
 31
0.0
  0
LINE
  5
4F
100
AcDbEntity
  8
0
  6
Continuous
 62
               7
100
AcDbLine
 10
196.32193401428691
 20
265.11422576603377
 30
0.0
 11
189.34212064110426
 21
269.30812075014092
 31
0.0
  0
LINE
  5
50
100
AcDbEntity
  8
0
  6
Continuous
 62
               6
100
AcDbLine
 10
432.98152710054734
 20
218.52146474050593
 30
0.0
 11
393.39971290957789
 21
208.62601119276334
 31
0.0
  0
LINE
  5
51
100
AcDbEntity
  8
0
  6
Continuous
 62
               6
100
AcDbLine
 10
387.82139364939218
 20
211.97300274887473
 30
0.0
 11
384.08634500070269
 21
226.91319734363285
 31
0.0
  0
LINE
  5
52
100
AcDbEntity
  8
0
  6
Continuous
 62
               6
100
AcDbLine
 10
384.08634500070269
 20
226.91319734363285
 30
0.0
 11
386.31767270477695
 21
227.47102926965144
 31
0.0
  0
LINE
  5
53
100
AcDbEntity
  8
0
  6
Continuous
 62
               6
100
AcDbLine
 10
386.31767270477695
 20
227.47102926965144
 30
0.0
 11
390.05272135346655
 21
212.53083467489333
 31
0.0
  0
LINE
  5
54
100
AcDbEntity
  8
0
  6
Continuous
 62
               6
100
AcDbLine
 10
392.84188098355929
 20
210.8573388968376
 30
0.0
 11
432.42369517452886
 21
220.75279244458002
 31
0.0
  0
LINE
  5
55
100
AcDbEntity
  8
0
  6
Continuous
 62
               6
100
AcDbLine
 10
434.09719095258453
 20
223.54195207467282
 30
0.0
 11
412.07495615302543
 21
311.63089127290903
 31
0.0
  0
LINE
  5
56
100
AcDbEntity
  8
0
  6
Continuous
 62
               6
100
AcDbLine
 10
409.28579652293257
 20
313.30438705096481
 30
0.0
 11
369.70398233196312
 21
303.40893350322233
 31
0.0
  0
LINE
  5
57
100
AcDbEntity
  8
0
  6
Continuous
 62
               6
100
AcDbLine
 10
368.03048655390745
 20
300.61977387312947
 30
0.0
 11
371.76553520259694
 21
285.67957927837131
 31
0.0
  0
LINE
  5
58
100
AcDbEntity
  8
0
  6
Continuous
 62
               6
100
AcDbLine
 10
371.76553520259694
 20
285.67957927837131
 30
0.0
 11
369.53420749852268
 21
285.12174735235283
 31
0.0
  0
LINE
  5
59
100
AcDbEntity
  8
0
  6
Continuous
 62
               6
100
AcDbLine
 10
369.53420749852268
 20
285.12174735235283
 30
0.0
 11
365.79915884983319
 21
300.06194194711088
 31
0.0
  0
LINE
  5
5A
100
AcDbEntity
  8
0
  6
Continuous
 62
               6
100
AcDbLine
 10
369.14615040594452
 20
305.64026120729648
 30
0.0
 11
408.72796459691409
 21
315.53571475503907
 31
0.0
  0
LINE
  5
5B
100
AcDbEntity
  8
0
  6
Continuous
 62
               6
100
AcDbLine
 10
414.3062838570998
 20
312.18872319892762
 30
0.0
 11
436.32851865665879
 21
224.09978400069141
 31
0.0
  0
LINE
  5
5C
100
AcDbEntity
  8
0
  6
Continuous
 62
               3
100
AcDbLine
 10
189.34212064110426
 20
263.36927242273805
 30
0.0
 11
439.34212064110437
 21
325.86927242273816
 31
0.0
  0
LINE
  5
5D
100
AcDbEntity
  8
0
  6
Continuous
 62
               3
100
AcDbLine
 10
439.34212064110437
 20
325.86927242273816
 30
0.0
 11
434.97647945467048
 21
343.33183716847327
 31
0.0
  0
LINE
  5
5E
100
AcDbEntity
  8
0
  6
Continuous
 62
               6
100
AcDbLine
 10
445.70271418166129
 20
218.52146474050599
 30
0.0
 11
485.28452837263075
 21
208.6260111927634
 31
0.0
  0
LINE
  5
5F
100
AcDbEntity
  8
0
  6
Continuous
 62
               6
100
AcDbLine
 10
490.86284763281634
 20
211.97300274887479
 30
0.0
 11
494.59789628150594
 21
226.91319734363285
 31
0.0
  0
LINE
  5
60
100
AcDbEntity
  8
0
  6
Continuous
 62
               6
100
AcDbLine
 10
494.59789628150594
 20
226.91319734363285
 30
0.0
 11
492.36656857743168
 21
227.47102926965144
 31
0.0
  0
LINE
  5
61
100
AcDbEntity
  8
0
  6
Continuous
 62
               6
100
AcDbLine
 10
492.36656857743168
 20
227.47102926965144
 30
0.0
 11
488.63151992874208
 21
212.53083467489333
 31
0.0
  0
LINE
  5
62
100
AcDbEntity
  8
0
  6
Continuous
 62
               6
100
AcDbLine
 10
485.84236029864934
 20
210.8573388968376
 30
0.0
 11
446.26054610767977
 21
220.75279244458014
 31
0.0
  0
LINE
  5
63
100
AcDbEntity
  8
0
  6
Continuous
 62
               6
100
AcDbLine
 10
444.58705032962411
 20
223.54195207467293
 30
0.0
 11
466.60928512918309
 21
311.63089127290914
 31
0.0
  0
LINE
  5
64
100
AcDbEntity
  8
0
  6
Continuous
 62
               6
100
AcDbLine
 10
469.39844475927595
 20
313.30438705096481
 30
0.0
 11
508.98025895024551
 21
303.40893350322233
 31
0.0
  0
LINE
  5
65
100
AcDbEntity
  8
0
  6
Continuous
 62
               6
100
AcDbLine
 10
510.65375472830118
 20
300.61977387312947
 30
0.0
 11
506.9187060796117
 21
285.67957927837142
 31
0.0
  0
LINE
  5
66
100
AcDbEntity
  8
0
  6
Continuous
 62
               6
100
AcDbLine
 10
506.9187060796117
 20
285.67957927837142
 30
0.0
 11
509.15003378368596
 21
285.12174735235283
 31
0.0
  0
LINE
  5
67
100
AcDbEntity
  8
0
  6
Continuous
 62
               6
100
AcDbLine
 10
509.15003378368596
 20
285.12174735235283
 30
0.0
 11
512.88508243237538
 21
300.06194194711088
 31
0.0
  0
LINE
  5
68
100
AcDbEntity
  8
0
  6
Continuous
 62
               6
100
AcDbLine
 10
509.53809087626399
 20
305.64026120729659
 30
0.0
 11
469.95627668529454
 21
315.53571475503907
 31
0.0
  0
LINE
  5
69
100
AcDbEntity
  8
0
  6
Continuous
 62
               6
100
AcDbLine
 10
464.37795742510883
 20
312.18872319892773
 30
0.0
 11
442.35572262554984
 21
224.09978400069141
 31
0.0
  0
LINE
  5
6A
100
AcDbEntity
  8
0
  6
Continuous
 62
               3
100
AcDbLine
 10
689.34212064110432
 20
263.36927242273805
 30
0.0
 11
439.34212064110437
 21
325.86927242273816
 31
0.0
  0
LINE
  5
6B
100
AcDbEntity
  8
0
  6
Continuous
 62
               3
100
AcDbLine
 10
439.34212064110437
 20
325.86927242273816
 30
0.0
 11
443.70776189175825
 21
343.33183742535414
 31
0.0
  0
LINE
  5
6C
100
AcDbEntity
  8
0
  6
Continuous
 62
               7
100
AcDbLine
 10
278.58923169803649
 20
285.68105018697099
 30
0.0
 11
269.63470209140968
 21
291.0614743895095
 31
0.0
  0
LINE
  5
6D
100
AcDbEntity
  8
0
  6
Continuous
 62
               7
100
AcDbLine
 10
285.44483983834897
 20
287.39495222204926
 30
0.0
 11
267.91862960740866
 21
297.92576175061913
 31
0.0
  0
LINE
  5
6E
100
AcDbEntity
  8
0
  6
Continuous
 62
               7
100
AcDbLine
 10
292.3004479786614
 20
289.10885425712718
 30
0.0
 11
270.49433872584638
 21
302.21128656135636
 31
0.0
  0
LINE
  5
6F
100
AcDbEntity
  8
0
  6
Continuous
 62
               7
100
AcDbLine
 10
299.15605611897382
 20
290.82275629220544
 30
0.0
 11
277.34994611055976
 21
303.92518905044426
 31
0.0
  0
LINE
  5
70
100
AcDbEntity
  8
0
  6
Continuous
 62
               7
100
AcDbLine
 10
306.01166425928631
 20
292.53665832728348
 30
0.0
 11
284.20555349527319
 21
305.63909153953205
 31
0.0
  0
LINE
  5
71
100
AcDbEntity
  8
0
  6
Continuous
 62
               7
100
AcDbLine
 10
312.86727239959879
 20
294.25056036236163
 30
0.0
 11
291.06116087998646
 21
307.35299402861983
 31
0.0
  0
LINE
  5
72
100
AcDbEntity
  8
0
  6
Continuous
 62
               7
100
AcDbLine
 10
319.72288053991127
 20
295.96446239743977
 30
0.0
 11
297.9167682646999
 21
309.06689651770773
 31
0.0
  0
LINE
  5
73
100
AcDbEntity
  8
0
  6
Continuous
 62
               7
100
AcDbLine
 10
326.57848868022376
 20
297.67836443251781
 30
0.0
 11
304.77237564941328
 21
310.78079900679563
 31
0.0
  0
LINE
  5
74
100
AcDbEntity
  8
0
  6
Continuous
 62
               7
100
AcDbLine
 10
333.43409682053624
 20
299.39226646759607
 30
0.0
 11
311.62798303412666
 21
312.49470149588353
 31
0.0
  0
LINE
  5
75
100
AcDbEntity
  8
0
  6
Continuous
 62
               7
100
AcDbLine
 10
340.28970496084872
 20
301.10616850267411
 30
0.0
 11
318.48359041884015
 21
314.20860398497132
 31
0.0
  0
LINE
  5
76
100
AcDbEntity
  8
0
  6
Continuous
 62
               7
100
AcDbLine
 10
347.14531310116121
 20
302.82007053775226
 30
0.0
 11
325.33919780355342
 21
315.92250647405922
 31
0.0
  0
LINE
  5
77
100
AcDbEntity
  8
0
  6
Continuous
 62
               7
100
AcDbLine
 10
354.00092124147369
 20
304.53397257283029
 30
0.0
 11
332.1948051882668
 21
317.63640896314712
 31
0.0
  0
LINE
  5
78
100
AcDbEntity
  8
0
  6
Continuous
 62
               7
100
AcDbLine
 10
360.85652938178606
 20
306.24787460790844
 30
0.0
 11
339.05041257298018
 21
319.35031145223491
 31
0.0
  0
LINE
  5
79
100
AcDbEntity
  8
0
  6
Continuous
 62
               7
100
AcDbLine
 10
367.71213752209854
 20
307.96177664298648
 30
0.0
 11
345.90601995769367
 21
321.06421394132281
 31
0.0
  0
LINE
  5
7A
100
AcDbEntity
  8
0
  6
Continuous
 62
               7
100
AcDbLine
 10
374.56774566241114
 20
309.67567867806463
 30
0.0
 11
352.76162734240694
 21
322.77811643041059
 31
0.0
  0
LINE
  5
7B
100
AcDbEntity
  8
0
  6
Continuous
 62
               7
100
AcDbLine
 10
381.42335380272362
 20
311.38958071314278
 30
0.0
 11
359.61723472712043
 21
324.49201891949849
 31
0.0
  0
LINE
  5
7C
100
AcDbEntity
  8
0
  6
Continuous
 62
               7
100
AcDbLine
 10
388.27896194303611
 20
313.10348274822104
 30
0.0
 11
366.47284211183381
 21
326.20592140858628
 31
0.0
  0
LINE
  5
7D
100
AcDbEntity
  8
0
  6
Continuous
 62
               7
100
AcDbLine
 10
395.13457008334859
 20
314.81738478329908
 30
0.0
 11
373.32844949654719
 21
327.91982389767418
 31
0.0
  0
LINE
  5
7E
100
AcDbEntity
  8
0
  6
Continuous
 62
               7
100
AcDbLine
 10
401.99017822366108
 20
316.53128681837723
 30
0.0
 11
380.18405688126057
 21
329.63372638676208
 31
0.0
  0
LINE
  5
7F
100
AcDbEntity
  8
0
  6
Continuous
 62
               7
100
AcDbLine
 10
408.84578636397356
 20
318.24518885345537
 30
0.0
 11
387.03966426597395
 21
331.34762887584986
 31
0.0
  0
LINE
  5
80
100
AcDbEntity
  8
0
  6
Continuous
 62
               7
100
AcDbLine
 10
415.70139450428604
 20
319.95909088853352
 30
0.0
 11
393.89527165068733
 21
333.06153136493776
 31
0.0
  0
LINE
  5
81
100
AcDbEntity
  8
0
  6
Continuous
 62
               7
100
AcDbLine
 10
422.55700264459853
 20
321.67299292361167
 30
0.0
 11
400.75087903540071
 21
334.77543385402566
 31
0.0
  0
LINE
  5
82
100
AcDbEntity
  8
0
  6
Continuous
 62
               7
100
AcDbLine
 10
429.41261078491101
 20
323.38689495868971
 30
0.0
 11
407.60648642011421
 21
336.48933634311356
 31
0.0
  0
LINE
  5
83
100
AcDbEntity
  8
0
  6
Continuous
 62
               7
100
AcDbLine
 10
436.26821892522349
 20
325.10079699376797
 30
0.0
 11
414.46209380482759
 21
338.20323883220146
 31
0.0
  0
LINE
  5
84
100
AcDbEntity
  8
0
  6
Continuous
 62
               7
100
AcDbLine
 10
438.3954971848014
 20
329.65576624795062
 30
0.0
 11
421.31770118954097
 21
339.91714132128936
 31
0.0
  0
LINE
  5
85
100
AcDbEntity
  8
0
  6
Continuous
 62
               7
100
AcDbLine
 10
436.67942545831403
 20
336.52005315390022
 30
0.0
 11
428.17330857425446
 21
341.63104381037715
 31
0.0
  0
LINE
  5
86
100
AcDbEntity
  8
0
  6
Continuous
 62
               7
100
AcDbLine
 10
439.71445359852027
 20
325.77618918338408
 30
0.0
 11
439.43508619195978
 21
326.24113462616015
 31
0.0
  0
LINE
  5
87
100
AcDbEntity
  8
0
  6
Continuous
 62
               7
100
AcDbLine
 10
446.57874050446986
 20
324.06011745689671
 30
0.0
 11
441.14898822703793
 21
333.09674276647263
 31
0.0
  0
LINE
  5
88
100
AcDbEntity
  8
0
  6
Continuous
 62
               7
100
AcDbLine
 10
453.44302741041935
 20
322.34404573040933
 30
0.0
 11
442.86289026211608
 21
339.95235090678511
 31
0.0
  0
LINE
  5
89
100
AcDbEntity
  8
0
  6
Continuous
 62
               7
100
AcDbLine
 10
460.30731431636895
 20
320.62797400392196
 30
0.0
 11
447.18828406327992
 21
342.46170688247366
 31
0.0
  0
LINE
  5
8A
100
AcDbEntity
  8
0
  6
Continuous
 62
               7
100
AcDbLine
 10
467.17160122231854
 20
318.91190227743448
 30
0.0
 11
454.05257096922952
 21
340.74563515598629
 31
0.0
  0
LINE
  5
8B
100
AcDbEntity
  8
0
  6
Continuous
 62
               7
100
AcDbLine
 10
474.03588812826803
 20
317.19583055094722
 30
0.0
 11
460.91685787517912
 21
339.02956342949892
 31
0.0
  0
LINE
  5
8C
100
AcDbEntity
  8
0
  6
Continuous
 62
               7
100
AcDbLine
 10
480.90017503421763
 20
315.47975882445974
 30
0.0
 11
467.7811447811286
 21
337.31349170301155
 31
0.0
  0
LINE
  5
8D
100
AcDbEntity
  8
0
  6
Continuous
 62
               7
100
AcDbLine
 10
487.76446194016722
 20
313.76368709797237
 30
0.0
 11
474.6454316870782
 21
335.59741997652407
 31
0.0
  0
LINE
  5
8E
100
AcDbEntity
  8
0
  6
Continuous
 62
               7
100
AcDbLine
 10
494.62874884611671
 20
312.04761537148488
 30
0.0
 11
481.5097185930278
 21
333.88134825003669
 31
0.0
  0
LINE
  5
8F
100
AcDbEntity
  8
0
  6
Continuous
 62
               7
100
AcDbLine
 10
501.49303575206631
 20
310.33154364499751
 30
0.0
 11
488.3740054989774
 21
332.16527652354932
 31
0.0
  0
LINE
  5
90
100
AcDbEntity
  8
0
  6
Continuous
 62
               7
100
AcDbLine
 10
508.3573226580159
 20
308.61547191851014
 30
0.0
 11
495.23829240492688
 21
330.44920479706195
 31
0.0
  0
LINE
  5
91
100
AcDbEntity
  8
0
  6
Continuous
 62
               7
100
AcDbLine
 10
515.22160956396544
 20
306.89940019202277
 30
0.0
 11
502.10257931087648
 21
328.73313307057447
 31
0.0
  0
LINE
  5
92
100
AcDbEntity
  8
0
  6
Continuous
 62
               7
100
AcDbLine
 10
522.08589646991493
 20
305.18332846553528
 30
0.0
 11
508.96686621682608
 21
327.01706134408721
 31
0.0
  0
LINE
  5
93
100
AcDbEntity
  8
0
  6
Continuous
 62
               7
100
AcDbLine
 10
528.95018337586464
 20
303.46725673904791
 30
0.0
 11
515.83115312277562
 21
325.30098961759973
 31
0.0
  0
LINE
  5
94
100
AcDbEntity
  8
0
  6
Continuous
 62
               7
100
AcDbLine
 10
535.81447028181412
 20
301.75118501256065
 30
0.0
 11
522.6954400287251
 21
323.58491789111247
 31
0.0
  0
LINE
  5
95
100
AcDbEntity
  8
0
  6
Continuous
 62
               7
100
AcDbLine
 10
542.67875718776384
 20
300.03511328607317
 30
0.0
 11
529.55972693467481
 21
321.86884616462487
 31
0.0
  0
LINE
  5
96
100
AcDbEntity
  8
0
  6
Continuous
 62
               7
100
AcDbLine
 10
549.54304409371332
 20
298.3190415595858
 30
0.0
 11
536.4240138406243
 21
320.15277443813761
 31
0.0
  0
LINE
  5
97
100
AcDbEntity
  8
0
  6
Continuous
 62
               7
100
AcDbLine
 10
556.4073309996628
 20
296.60296983309831
 30
0.0
 11
543.28830074657378
 21
318.43670271165024
 31
0.0
  0
LINE
  5
98
100
AcDbEntity
  8
0
  6
Continuous
 62
               7
100
AcDbLine
 10
563.27161790561252
 20
294.88689810661106
 30
0.0
 11
550.15258765252349
 21
316.72063098516287
 31
0.0
  0
LINE
  5
99
100
AcDbEntity
  8
0
  6
Continuous
 62
               7
100
AcDbLine
 10
570.135904811562
 20
293.17082638012357
 30
0.0
 11
557.01687455847298
 21
315.00455925867539
 31
0.0
  0
LINE
  5
9A
100
AcDbEntity
  8
0
  6
Continuous
 62
               7
100
AcDbLine
 10
577.00019171751148
 20
291.4547546536362
 30
0.0
 11
563.88116146442246
 21
313.28848753218801
 31
0.0
  0
LINE
  5
9B
100
AcDbEntity
  8
0
  6
Continuous
 62
               7
100
AcDbLine
 10
583.8644786234612
 20
289.73868292714883
 30
0.0
 11
570.74544837037217
 21
311.57241580570064
 31
0.0
  0
LINE
  5
9C
100
AcDbEntity
  8
0
  6
Continuous
 62
               7
100
AcDbLine
 10
590.72876552941068
 20
288.02261120066146
 30
0.0
 11
577.60973527632166
 21
309.85634407921316
 31
0.0
  0
LINE
  5
9D
100
AcDbEntity
  8
0
  6
Continuous
 62
               7
100
AcDbLine
 10
597.59305243536016
 20
286.30653947417397
 30
0.0
 11
584.47402218227114
 21
308.14027235272567
 31
0.0
  0
LINE
  5
9E
100
AcDbEntity
  8
0
  6
Continuous
 62
               7
100
AcDbLine
 10
604.45733934130988
 20
284.5904677476866
 30
0.0
 11
591.33830908822085
 21
306.42420062623842
 31
0.0
  0
LINE
  5
9F
100
AcDbEntity
  8
0
  6
Continuous
 62
               7
100
AcDbLine
 10
611.32162624725936
 20
282.87439602119923
 30
0.0
 11
598.20259599417034
 21
304.70812889975093
 31
0.0
  0
LINE
  5
A0
100
AcDbEntity
  8
0
  6
Continuous
 62
               7
100
AcDbLine
 10
618.18591315320907
 20
281.15832429471186
 30
0.0
 11
605.06688290012028
 21
302.99205717326356
 31
0.0
  0
LINE
  5
A1
100
AcDbEntity
  8
0
  6
Continuous
 62
               7
100
AcDbLine
 10
625.05020005915878
 20
279.44225256822438
 30
0.0
 11
611.93116980606976
 21
301.27598544677608
 31
0.0
  0
LINE
  5
A2
100
AcDbEntity
  8
0
  6
Continuous
 62
               7
100
AcDbLine
 10
631.91448696510827
 20
277.72618084173712
 30
0.0
 11
618.79545671201947
 21
299.55991372028871
 31
0.0
  0
LINE
  5
A3
100
AcDbEntity
  8
0
  6
Continuous
 62
               6
100
AcDbLine
 10
361.34265910604023
 20
305.85402280134304
 30
0.0
 11
439.34212064110437
 21
325.35388421953587
 31
0.0
  0
LINE
  5
A4
100
AcDbEntity
  8
0
  6
Continuous
 62
               6
100
AcDbLine
 10
361.73072062947773
 20
304.3017919663821
 30
0.0
 11
439.34212064110437
 21
323.7046419692889
 31
0.0
  0
LINE
  5
A5
100
AcDbEntity
  8
0
  6
Continuous
 62
               6
100
AcDbLine
 10
517.34157765278917
 20
305.8540199666146
 30
0.0
 11
439.34212064110437
 21
325.35388421953587
 31
0.0
  0
LINE
  5
A6
100
AcDbEntity
  8
0
  6
Continuous
 62
               6
100
AcDbLine
 10
516.95352065273084
 20
304.3017919663821
 30
0.0
 11
439.34212064110437
 21
323.7046419692889
 31
0.0
  0
LINE
  5
A7
100
AcDbEntity
  8
0
  6
Continuous
 62
               6
100
AcDbLine
 10
516.95352065273084
 20
304.3017919663821
 30
0.0
 11
517.34157765278917
 21
305.8540199666146
 31
0.0
  0
LINE
  5
A8
100
AcDbEntity
  8
0
  6
Continuous
 62
               6
100
AcDbLine
 10
361.73072062947773
 20
304.3017919663821
 30
0.0
 11
361.34266362941963
 21
305.8540199666146
 31
0.0
  0
LINE
  5
A9
100
AcDbEntity
  8
0
  6
Continuous
 62
               7
100
AcDbLine
 10
638.77877387105821
 20
276.01010911524963
 30
0.0
 11
625.65974361796918
 21
297.84384199380122
 31
0.0
  0
LINE
  5
AA
100
AcDbEntity
  8
0
  6
Continuous
 62
               7
100
AcDbLine
 10
645.64306077700769
 20
274.29403738876226
 30
0.0
 11
632.52403052391867
 21
296.12777026731396
 31
0.0
  0
LINE
  5
AB
100
AcDbEntity
  8
0
  6
Continuous
 62
               7
100
AcDbLine
 10
652.5073476829574
 20
272.57796566227478
 30
0.0
 11
639.38831742986838
 21
294.41169854082648
 31
0.0
  0
LINE
  5
AC
100
AcDbEntity
  8
0
  6
Continuous
 62
               7
100
AcDbLine
 10
659.37163458890711
 20
270.86189393578741
 30
0.0
 11
646.25260433581832
 21
292.69562681433899
 31
0.0
  0
LINE
  5
AD
100
AcDbEntity
  8
0
  6
Continuous
 62
               7
100
AcDbLine
 10
666.23592149485705
 20
269.14582220929992
 30
0.0
 11
653.1168912417678
 21
290.97955508785162
 31
0.0
  0
LINE
  5
AE
100
AcDbEntity
  8
0
  6
Continuous
 62
               7
100
AcDbLine
 10
237.45558585509667
 20
275.39763617456038
 30
0.0
 11
215.6494796481395
 21
288.5000666486535
 31
0.0
  0
LINE
  5
AF
100
AcDbEntity
  8
0
  6
Continuous
 62
               7
100
AcDbLine
 10
236.20033552425036
 20
281.98503365146394
 30
0.0
 11
222.50508703285277
 21
290.21396913774129
 31
0.0
  0
LINE
  5
B0
100
AcDbEntity
  8
0
  6
Continuous
 62
               7
100
AcDbLine
 10
234.48426304024946
 20
288.84932101257357
 30
0.0
 11
229.36069441756621
 21
291.92787162682907
 31
0.0
  0
LINE
  5
B1
100
AcDbEntity
  8
0
  6
Continuous
 62
               7
100
AcDbLine
 10
216.8887644330942
 20
270.25592826738409
 30
0.0
 11
195.08265749399931
 21
283.35835918138991
 31
0.0
  0
LINE
  5
B2
100
AcDbEntity
  8
0
  6
Continuous
 62
               7
100
AcDbLine
 10
223.74437257340668
 20
271.96983030246236
 30
0.0
 11
201.93826487871269
 21
285.0722616704777
 31
0.0
  0
LINE
  5
B3
100
AcDbEntity
  8
0
  6
Continuous
 62
               7
100
AcDbLine
 10
230.59998071371916
 20
273.68373233754028
 30
0.0
 11
208.79387226342607
 21
286.7861641595656
 31
0.0
  0
LINE
  5
B4
100
AcDbEntity
  8
0
  6
Continuous
 62
               7
100
AcDbLine
 10
203.17755115140426
 20
266.82812239528607
 30
0.0
 11
189.34212064110426
 21
275.14128773621758
 31
0.0
  0
LINE
  5
B5
100
AcDbEntity
  8
0
  6
Continuous
 62
               7
100
AcDbLine
 10
210.03315929171669
 20
268.54202443036411
 30
0.0
 11
189.34212064110426
 21
280.97445472229424
 31
0.0
  0
LINE
  5
B6
100
AcDbEntity
  8
0
  6
Continuous
 62
               4
100
AcDbLine
 10
237.36417121790146
 20
298.05184729406449
 30
0.0
 11
242.69995127188139
 21
276.70873508425677
 31
0.0
  0
LINE
  5
B7
100
AcDbEntity
  8
0
  6
Continuous
 62
               4
100
AcDbLine
 10
252.88645077068526
 20
301.93241909281187
 30
0.0
 11
253.85659361333836
 21
298.05184917785743
 31
0.0
  0
LINE
  5
B8
100
AcDbEntity
  8
0
  6
Continuous
 62
               4
100
AcDbLine
 10
253.85659361333836
 20
298.05184917785743
 30
0.0
 11
258.22223249140757
 21
280.5893002160368
 31
0.0
  0
LINE
  5
B9
100
AcDbEntity
  8
0
  6
Continuous
 62
               4
100
AcDbLine
 10
252.88645077068526
 20
301.93241909281187
 30
0.0
 11
251.33420803530436
 21
308.14138770526063
 31
0.0
  0
LINE
  5
BA
100
AcDbEntity
  8
0
  6
Continuous
 62
               4
100
AcDbLine
 10
455.41344414996598
 20
320.14276492424437
 30
0.0
 11
500.9541477451898
 21
241.26395248488203
 31
0.0
  0
LINE
  5
BB
100
AcDbEntity
  8
0
  6
Continuous
 62
               4
100
AcDbLine
 10
455.41344414996598
 20
320.14276492424437
 30
0.0
 11
461.19853263714475
 21
313.24836493617352
 31
0.0
  0
LINE
  5
BC
100
AcDbEntity
  8
0
  6
Continuous
 62
               4
100
AcDbLine
 10
455.41344414996598
 20
320.14276492424437
 30
0.0
 11
458.49162543989695
 21
311.68553133717126
 31
0.0
  0
LINE
  5
BD
100
AcDbEntity
  8
0
  6
Continuous
 62
               4
100
AcDbLine
 10
500.9541477451898
 20
241.26395248488203
 30
0.0
 11
610.90773016542619
 21
241.26395248488203
 31
0.0
  0
LINE
  5
BE
100
AcDbEntity
  8
0
  6
Continuous
 62
               4
100
AcDbLine
 10
714.78679656440374
 20
21.213203435596483
 30
0.0
 11
714.78679656440374
 21
41.213203435596483
 31
0.0
  0
LINE
  5
BF
100
AcDbEntity
  8
0
  6
Continuous
 62
               4
100
AcDbLine
 10
864.78679656440374
 20
21.213203435596483
 30
0.0
 11
714.78679656440374
 21
21.213203435596483
 31
0.0
  0
LINE
  5
C0
100
AcDbEntity
  8
0
  6
Continuous
 62
               4
100
AcDbLine
 10
864.78679656440374
 20
41.213203435596483
 30
0.0
 11
864.78679656440374
 21
21.213203435596483
 31
0.0
  0
LINE
  5
C1
100
AcDbEntity
  8
0
  6
Continuous
 62
               4
100
AcDbLine
 10
864.78679656440374
 20
41.213203435596483
 30
0.0
 11
714.78679656440374
 21
41.213203435596483
 31
0.0
  0
LINE
  5
C2
100
AcDbEntity
  8
0
  6
Continuous
 62
               4
100
AcDbLine
 10
14.142135623730949
 20
595.85786437626905
 30
0.0
 11
14.142135623730949
 21
615.85786437626905
 31
0.0
  0
LINE
  5
C3
100
AcDbEntity
  8
0
  6
Continuous
 62
               4
100
AcDbLine
 10
164.14213562373095
 20
595.85786437626905
 30
0.0
 11
14.142135623730949
 21
595.85786437626905
 31
0.0
  0
LINE
  5
C4
100
AcDbEntity
  8
0
  6
Continuous
 62
               4
100
AcDbLine
 10
164.14213562373095
 20
615.85786437626905
 30
0.0
 11
164.14213562373095
 21
595.85786437626905
 31
0.0
  0
LINE
  5
C5
100
AcDbEntity
  8
0
  6
Continuous
 62
               4
100
AcDbLine
 10
164.14213562373095
 20
615.85786437626905
 30
0.0
 11
14.142135623730949
 21
615.85786437626905
 31
0.0
  0
LINE
  5
C6
100
AcDbEntity
  8
0
  6
DASHDOT
 62
               4
100
AcDbLine
 10
439.34212064110437
 20
181.66178820846531
 30
0.0
 11
439.34212064110437
 21
450.47894961550998
 31
0.0
  0
LINE
  5
C7
100
AcDbEntity
  8
0
  6
Continuous
 62
               2
100
AcDbLine
 10
439.34212064110437
 20
378.43887071874508
 30
0.0
 11
343.8466224884192
 21
354.56498722513618
 31
0.0
  0
LINE
  5
C8
100
AcDbEntity
  8
0
  6
Continuous
 62
               2
100
AcDbLine
 10
358.85690667873376
 20
353.78782102828325
 30
0.0
 11
344.47218504801702
 21
351.50017513158821
 31
0.0
  0
LINE
  5
C9
100
AcDbEntity
  8
0
  6
Continuous
 62
               4
100
AcDbLine
 10
433.52127398771535
 20
401.7222485983674
 30
0.0
 11
437.8869063771246
 21
384.25972559117656
 31
0.0
  0
LINE
  5
CA
100
AcDbEntity
  8
0
  6
Continuous
 62
               4
100
AcDbLine
 10
336.5070261138564
 20
377.46867753203878
 30
0.0
 11
341.25234607598537
 21
358.48740480367417
 31
0.0
  0
LINE
  5
CB
100
AcDbEntity
  8
0
  6
Continuous
 62
               4
100
AcDbLine
 10
434.24888111970523
 20
398.81182116215155
 30
0.0
 11
337.23463324584628
 21
374.55825009582304
 31
0.0
  0
LINE
  5
CC
100
AcDbEntity
  8
0
  6
Continuous
 62
               4
100
AcDbLine
 10
423.86908232052889
 20
374.5706096875607
 30
0.0
 11
395.55336418669987
 21
423.6148721481519
 31
0.0
  0
LINE
  5
CD
100
AcDbEntity
  8
0
  6
Continuous
 62
               4
100
AcDbLine
 10
395.55337216359391
 20
423.6148721481519
 30
0.0
 11
305.34920711695105
 21
423.6148721481519
 31
0.0
  0
LINE
  5
CE
100
AcDbEntity
  8
0
  6
Continuous
 62
               4
100
AcDbLine
 10
326.7988562782586
 20
388.84431698051878
 30
0.0
 11
250.57391679175987
 21
388.84431698051878
 31
0.0
  0
LINE
  5
CF
100
AcDbEntity
  8
0
  6
Continuous
 62
               4
100
AcDbLine
 10
423.86908232052889
 20
374.5706096875607
 30
0.0
 11
418.08399383335001
 21
381.46500967563156
 31
0.0
  0
LINE
  5
D0
100
AcDbEntity
  8
0
  6
Continuous
 62
               4
100
AcDbLine
 10
423.86908232052889
 20
374.5706096875607
 30
0.0
 11
420.79090103059781
 21
383.02784327463394
 31
0.0
  0
LINE
  5
D1
100
AcDbEntity
  8
0
  6
Continuous
 62
               4
100
AcDbLine
 10
372.37197434882029
 20
343.27119890995698
 30
0.0
 11
326.7988562782586
 21
388.84431698051878
 31
0.0
  0
LINE
  5
D2
100
AcDbEntity
  8
0
  6
Continuous
 62
               4
100
AcDbLine
 10
372.37197434882029
 20
343.27119890995698
 30
0.0
 11
364.9996059502194
 21
348.43338683711647
 31
0.0
  0
LINE
  5
D3
100
AcDbEntity
  8
0
  6
Continuous
 62
               4
100
AcDbLine
 10
372.37197434882029
 20
343.27119890995698
 30
0.0
 11
367.20978642166091
 21
350.64356730855798
 31
0.0
  0
LINE
  5
D4
100
AcDbEntity
  8
0
  6
Continuous
 62
               2
100
AcDbLine
 10
368.40045201981292
 20
359.15728226688566
 30
0.0
 11
344.63196129071747
 21
353.21515735563514
 31
0.0
  0
LINE
  5
D5
100
AcDbEntity
  8
0
  6
Continuous
 62
               2
100
AcDbLine
 10
368.64298773047614
 20
358.18713978814719
 30
0.0
 11
344.87449700138069
 21
352.24501487689656
 31
0.0
  0
LINE
  5
D6
100
AcDbEntity
  8
0
  6
Continuous
 62
               2
100
AcDbLine
 10
368.40045201981292
 20
359.15728226688566
 30
0.0
 11
416.11287400587281
 21
369.47758932790339
 31
0.0
  0
LINE
  5
D7
100
AcDbEntity
  8
0
  6
Continuous
 62
               2
100
AcDbLine
 10
439.34212064110437
 20
378.43887071874508
 30
0.0
 11
534.83761879378937
 21
354.56498722513618
 31
0.0
  0
LINE
  5
D8
100
AcDbEntity
  8
0
  6
Continuous
 62
               2
100
AcDbLine
 10
519.82733460347492
 20
353.78782102828325
 30
0.0
 11
534.21205623419166
 21
351.50017513158821
 31
0.0
  0
LINE
  5
D9
100
AcDbEntity
  8
0
  6
Continuous
 62
               4
100
AcDbLine
 10
445.16296729449328
 20
401.7222485983674
 30
0.0
 11
440.79733490508403
 21
384.25972559117656
 31
0.0
  0
LINE
  5
DA
100
AcDbEntity
  8
0
  6
Continuous
 62
               4
100
AcDbLine
 10
542.17721516835229
 20
377.46867753203878
 30
0.0
 11
537.4318952062232
 21
358.48740480367417
 31
0.0
  0
LINE
  5
DB
100
AcDbEntity
  8
0
  6
Continuous
 62
               4
100
AcDbLine
 10
444.43536016250351
 20
398.81182116215155
 30
0.0
 11
541.44960803636252
 21
374.55825009582304
 31
0.0
  0
LINE
  5
DC
100
AcDbEntity
  8
0
  6
Continuous
 62
               2
100
AcDbLine
 10
510.28378926239571
 20
359.15728226688566
 30
0.0
 11
534.05227999149122
 21
353.21515735563514
 31
0.0
  0
LINE
  5
DD
100
AcDbEntity
  8
0
  6
Continuous
 62
               2
100
AcDbLine
 10
510.0412535517325
 20
358.18713978814719
 30
0.0
 11
533.80974428082789
 21
352.24501487689656
 31
0.0
  0
LINE
  5
DE
100
AcDbEntity
  8
0
  6
Continuous
 62
               2
100
AcDbLine
 10
510.28378926239571
 20
359.15728226688566
 30
0.0
 11
462.57136727633593
 21
369.47758932790339
 31
0.0
  0
LINE
  5
DF
100
AcDbEntity
  8
0
  6
Continuous
 62
               2
100
AcDbLine
 10
446.28359949782731
 20
372.58039380956478
 30
0.0
 11
442.34212064110437
 21
347.79635336363526
 31
0.0
  0
LINE
  5
E0
100
AcDbEntity
  8
0
  6
Continuous
 62
               4
100
AcDbLine
 10
448.4055159049322
 20
372.04991470778856
 30
0.0
 11
442.34213409368607
 21
347.79637103685286
 31
0.0
  0
LINE
  5
E1
100
AcDbEntity
  8
0
  6
Continuous
 62
               2
100
AcDbLine
 10
503.97786062459971
 20
333.93357717748006
 30
0.0
 11
510.04125355173244
 21
358.18713978814719
 31
0.0
  0
LINE
  5
E2
100
AcDbEntity
  8
0
  6
Continuous
 62
               2
100
AcDbLine
 10
502.36706335658215
 20
343.54607220546018
 30
0.0
 11
502.52264690649184
 21
334.29738074347495
 31
0.0
  0
LINE
  5
E3
100
AcDbEntity
  8
0
  6
Continuous
 62
               2
100
AcDbLine
 10
432.40064178438143
 20
372.58039380956478
 30
0.0
 11
436.34212064110437
 21
347.79635336363526
 31
0.0
  0
LINE
  5
E4
100
AcDbEntity
  8
0
  6
Continuous
 62
               4
100
AcDbLine
 10
430.27872537727654
 20
372.04991470778856
 30
0.0
 11
436.34210718852268
 21
347.79637103685286
 31
0.0
  0
LINE
  5
E5
100
AcDbEntity
  8
0
  6
Continuous
 62
               2
100
AcDbLine
 10
374.70638065760903
 20
333.93357717748006
 30
0.0
 11
368.64298773047631
 21
358.18713978814719
 31
0.0
  0
LINE
  5
E6
100
AcDbEntity
  8
0
  6
Continuous
 62
               2
100
AcDbLine
 10
376.31717792562659
 20
343.54607220546018
 30
0.0
 11
376.1615943757169
 21
334.29738074347495
 31
0.0
  0
LINE
  5
E7
100
AcDbEntity
  8
0
  6
Continuous
 62
               4
100
AcDbLine
 10
189.34212064110426
 20
311.81576352374549
 30
0.0
 11
430.27873001519612
 21
372.04991586726851
 31
0.0
  0
LINE
  5
E8
100
AcDbEntity
  8
0
  6
Continuous
 62
               4
100
AcDbLine
 10
189.34212064110426
 20
291.20023539565722
 30
0.0
 11
435.12944251592273
 21
352.64706586436188
 31
0.0
  0
LINE
  5
E9
100
AcDbEntity
  8
0
  6
Continuous
 62
               4
100
AcDbLine
 10
689.34212064110443
 20
291.20023539565727
 30
0.0
 11
443.55479876628601
 21
352.64706586436188
 31
0.0
  0
LINE
  5
EA
100
AcDbEntity
  8
0
  6
Continuous
 62
               4
100
AcDbLine
 10
689.34212064110443
 20
311.8157635237456
 30
0.0
 11
448.40551126701263
 21
372.04991586726851
 31
0.0
  0
LINE
  5
EB
100
AcDbEntity
  8
0
  6
Continuous
 62
               4
100
AcDbLine
 10
231.30076819826857
 20
322.30542541303657
 30
0.0
 11
237.36416536809236
 21
298.05184583161167
 31
0.0
  0
LINE
  5
EC
100
AcDbEntity
  8
0
  6
Continuous
 62
               7
100
AcDbLine
 10
396.32737861605591
 20
365.88728454608832
 30
0.0
 11
386.14088258930087
 21
363.34065958412378
 31
0.0
  0
LINE
  5
ED
100
AcDbEntity
  8
0
  6
Continuous
 62
               7
100
AcDbLine
 10
386.01961473396926
 20
363.82573082349296
 30
0.0
 11
386.14088258930087
 21
363.34065958412378
 31
0.0
  0
LINE
  5
EE
100
AcDbEntity
  8
0
  6
Continuous
 62
               7
100
AcDbLine
 10
395.59977166602334
 20
366.73615916949529
 30
0.0
 11
386.38341811800689
 21
364.43206991819397
 31
0.0
  0
LINE
  5
EF
100
AcDbEntity
  8
0
  6
Continuous
 62
               7
100
AcDbLine
 10
396.2061107607243
 20
366.37235578545761
 30
0.0
 11
396.32737861605591
 21
365.88728454608832
 31
0.0
  0
LINE
  5
F0
100
AcDbEntity
  8
0
  6
Continuous
 62
               7
100
AcDbLine
 10
392.68934559448729
 20
350.54690594143909
 30
0.0
 11
389.29384564520143
 21
364.12890064377945
 31
0.0
  0
LINE
  5
F1
100
AcDbEntity
  8
0
  6
Continuous
 62
               7
100
AcDbLine
 10
395.11470197329095
 20
349.09169240528854
 30
0.0
 11
392.68934559448729
 21
350.54690594143909
 31
0.0
  0
LINE
  5
F2
100
AcDbEntity
  8
0
  6
Continuous
 62
               7
100
AcDbLine
 10
396.56991550944156
 20
351.5170487840922
 30
0.0
 11
395.11470197329095
 21
349.09169240528854
 31
0.0
  0
LINE
  5
F3
100
AcDbEntity
  8
0
  6
Continuous
 62
               7
100
AcDbLine
 10
396.56991550944156
 20
351.5170487840922
 30
0.0
 11
393.17441556015552
 21
365.09904348643255
 31
0.0
  0
LINE
  5
F4
100
AcDbEntity
  8
0
  6
Continuous
 62
               7
100
AcDbLine
 10
482.35686266615284
 20
365.88728454608832
 30
0.0
 11
492.54335869290787
 21
363.34065958412378
 31
0.0
  0
LINE
  5
F5
100
AcDbEntity
  8
0
  6
Continuous
 62
               7
100
AcDbLine
 10
492.66462654823948
 20
363.82573082349296
 30
0.0
 11
492.54335869290787
 21
363.34065958412378
 31
0.0
  0
LINE
  5
F6
100
AcDbEntity
  8
0
  6
Continuous
 62
               7
100
AcDbLine
 10
483.0844696161854
 20
366.73615916949529
 30
0.0
 11
492.30082316420186
 21
364.43206991819397
 31
0.0
  0
LINE
  5
F7
100
AcDbEntity
  8
0
  6
Continuous
 62
               7
100
AcDbLine
 10
482.47813052148445
 20
366.37235578545761
 30
0.0
 11
482.35686266615284
 21
365.88728454608832
 31
0.0
  0
LINE
  5
F8
100
AcDbEntity
  8
0
  6
Continuous
 62
               7
100
AcDbLine
 10
485.99489568772145
 20
350.54690594143909
 30
0.0
 11
489.39039563700732
 21
364.12890064377945
 31
0.0
  0
LINE
  5
F9
100
AcDbEntity
  8
0
  6
Continuous
 62
               7
100
AcDbLine
 10
483.5695393089178
 20
349.09169240528854
 30
0.0
 11
485.99489568772145
 21
350.54690594143909
 31
0.0
  0
LINE
  5
FA
100
AcDbEntity
  8
0
  6
Continuous
 62
               7
100
AcDbLine
 10
482.11432577276719
 20
351.5170487840922
 30
0.0
 11
483.5695393089178
 21
349.09169240528854
 31
0.0
  0
LINE
  5
FB
100
AcDbEntity
  8
0
  6
Continuous
 62
               7
100
AcDbLine
 10
482.11432577276719
 20
351.5170487840922
 30
0.0
 11
485.50982572205322
 21
365.09904348643255
 31
0.0
  0
CIRCLE
  5
FC
100
AcDbEntity
  8
0
  6
Continuous
 62
               4
100
AcDbCircle
 10
237.36416536809236
 20
298.05184583161167
 30
0.0
 40
1.5
  0
CIRCLE
  5
FD
100
AcDbEntity
  8
0
  6
Continuous
 62
               4
100
AcDbCircle
 10
237.36417121790146
 20
298.05184729406449
 30
0.0
 40
1.5
  0
CIRCLE
  5
FE
100
AcDbEntity
  8
0
  6
Continuous
 62
               4
100
AcDbCircle
 10
242.69995127188139
 20
276.70873508425677
 30
0.0
 40
1.5
  0
CIRCLE
  5
FF
100
AcDbEntity
  8
0
  6
Continuous
 62
               4
100
AcDbCircle
 10
252.88645077068526
 20
301.93241909281187
 30
0.0
 40
1.5
  0
CIRCLE
  5
100
100
AcDbEntity
  8
0
  6
Continuous
 62
               4
100
AcDbCircle
 10
253.85659361333836
 20
298.05184917785743
 30
0.0
 40
1.5
  0
CIRCLE
  5
101
100
AcDbEntity
  8
0
  6
Continuous
 62
               4
100
AcDbCircle
 10
253.85659361333836
 20
298.05184917785743
 30
0.0
 40
1.5
  0
CIRCLE
  5
102
100
AcDbEntity
  8
0
  6
Continuous
 62
               4
100
AcDbCircle
 10
258.22223249140757
 20
280.5893002160368
 30
0.0
 40
1.5
  0
CIRCLE
  5
103
100
AcDbEntity
  8
0
  6
Continuous
 62
               4
100
AcDbCircle
 10
434.24888111970523
 20
398.81182116215155
 30
0.0
 40
1.5
  0
CIRCLE
  5
104
100
AcDbEntity
  8
0
  6
Continuous
 62
               4
100
AcDbCircle
 10
337.23463324584628
 20
374.55825009582304
 30
0.0
 40
1.5
  0
CIRCLE
  5
105
100
AcDbEntity
  8
0
  6
Continuous
 62
               4
100
AcDbCircle
 10
444.43536016250351
 20
398.81182116215155
 30
0.0
 40
1.5
  0
CIRCLE
  5
106
100
AcDbEntity
  8
0
  6
Continuous
 62
               4
100
AcDbCircle
 10
541.44960803636252
 20
374.55825009582304
 30
0.0
 40
1.5
  0
CIRCLE
  5
107
100
AcDbEntity
  8
0
  6
Continuous
 62
               4
100
AcDbCircle
 10
231.30076819826851
 20
322.30542541303652
 30
0.0
 40
1.5
  0
ARC
  5
108
100
AcDbEntity
  8
0
  6
Continuous
 62
               6
100
AcDbCircle
 10
431.86586324851027
 20
222.98412014865434
 30
0.0
 40
2.2999999523162842
100
AcDbArc
 50
284.03624346792651
 51
14.036243467926331
  0
ARC
  5
109
100
AcDbEntity
  8
0
  6
Continuous
 62
               6
100
AcDbCircle
 10
431.86586324851027
 20
222.98412014865434
 30
0.0
 40
4.5999999046325684
100
AcDbArc
 50
284.03624346792651
 51
14.036243467926331
  0
ARC
  5
10A
100
AcDbEntity
  8
0
  6
Continuous
 62
               6
100
AcDbCircle
 10
392.2840490575407
 20
213.08866660091181
 30
0.0
 40
2.2999999523162842
100
AcDbArc
 50
194.03624346792645
 51
284.03624346792651
  0
ARC
  5
10B
100
AcDbEntity
  8
0
  6
Continuous
 62
               6
100
AcDbCircle
 10
392.2840490575407
 20
213.08866660091181
 30
0.0
 40
4.5999999046325684
100
AcDbArc
 50
194.03624346792645
 51
284.03624346792651
  0
ARC
  5
10C
100
AcDbEntity
  8
0
  6
Continuous
 62
               6
100
AcDbCircle
 10
370.26181425798171
 20
301.17760579914807
 30
0.0
 40
4.5999999046325684
100
AcDbArc
 50
104.0362434679265
 51
194.03624346792645
  0
ARC
  5
10D
100
AcDbEntity
  8
0
  6
Continuous
 62
               6
100
AcDbCircle
 10
370.26181425798171
 20
301.17760579914807
 30
0.0
 40
2.2999999523162842
100
AcDbArc
 50
104.0362434679265
 51
194.03624346792645
  0
ARC
  5
10E
100
AcDbEntity
  8
0
  6
Continuous
 62
               6
100
AcDbCircle
 10
409.84362844895128
 20
311.07305934689043
 30
0.0
 40
2.2999999523162842
100
AcDbArc
 50
14.036243467926356
 51
104.0362434679265
  0
ARC
  5
10F
100
AcDbEntity
  8
0
  6
Continuous
 62
               6
100
AcDbCircle
 10
409.84362844895128
 20
311.07305934689043
 30
0.0
 40
4.5999999046325684
100
AcDbArc
 50
14.036243467926356
 51
104.0362434679265
  0
ARC
  5
110
100
AcDbEntity
  8
0
  6
Continuous
 62
               6
100
AcDbCircle
 10
446.81837803369837
 20
222.98412014865434
 30
0.0
 40
2.2999999523162842
100
AcDbArc
 50
165.9637565320736
 51
255.96375653207346
  0
ARC
  5
111
100
AcDbEntity
  8
0
  6
Continuous
 62
               6
100
AcDbCircle
 10
446.81837803369837
 20
222.98412014865434
 30
0.0
 40
4.5999999046325684
100
AcDbArc
 50
165.9637565320736
 51
255.96375653207346
  0
ARC
  5
112
100
AcDbEntity
  8
0
  6
Continuous
 62
               6
100
AcDbCircle
 10
486.40019222466782
 20
213.08866660091192
 30
0.0
 40
2.2999999523162842
100
AcDbArc
 50
255.96375653207346
 51
345.96375653207355
  0
ARC
  5
113
100
AcDbEntity
  8
0
  6
Continuous
 62
               6
100
AcDbCircle
 10
486.40019222466782
 20
213.08866660091192
 30
0.0
 40
4.5999999046325684
100
AcDbArc
 50
255.96375653207346
 51
345.96375653207355
  0
ARC
  5
114
100
AcDbEntity
  8
0
  6
Continuous
 62
               6
100
AcDbCircle
 10
508.42242702422692
 20
301.17760579914807
 30
0.0
 40
4.5999999046325684
100
AcDbArc
 50
345.96375653207355
 51
75.963756532073518
  0
ARC
  5
115
100
AcDbEntity
  8
0
  6
Continuous
 62
               6
100
AcDbCircle
 10
508.42242702422692
 20
301.17760579914807
 30
0.0
 40
2.2999999523162842
100
AcDbArc
 50
345.96375653207355
 51
75.963756532073518
  0
ARC
  5
116
100
AcDbEntity
  8
0
  6
Continuous
 62
               6
100
AcDbCircle
 10
468.84061283325747
 20
311.07305934689055
 30
0.0
 40
2.2999999523162842
100
AcDbArc
 50
75.963756532073504
 51
165.9637565320736
  0
ARC
  5
117
100
AcDbEntity
  8
0
  6
Continuous
 62
               6
100
AcDbCircle
 10
468.84061283325747
 20
311.07305934689055
 30
0.0
 40
4.5999999046325684
100
AcDbArc
 50
75.963756532073504
 51
165.9637565320736
  0
ARC
  5
118
100
AcDbEntity
  8
0
  6
Continuous
 62
               2
100
AcDbCircle
 10
344.22631006113903
 20
353.0462375039624
 30
0.0
 40
1.565491414362767
100
AcDbArc
 50
104.03624852498056
 51
279.03624852498041
  0
ARC
  5
119
100
AcDbEntity
  8
0
  6
Continuous
 62
               2
100
AcDbCircle
 10
344.75322914604914
 20
352.73008611626585
 30
0.0
 40
0.500000000000003
100
AcDbArc
 50
104.03624852498166
 51
284.03624852498172
  0
ARC
  5
11A
100
AcDbEntity
  8
0
  6
Continuous
 62
               2
100
AcDbCircle
 10
534.45793122106977
 20
353.0462375039624
 30
0.0
 40
1.565491414362767
100
AcDbArc
 50
260.96375147501948
 51
75.963751475019365
  0
ARC
  5
11B
100
AcDbEntity
  8
0
  6
Continuous
 62
               2
100
AcDbCircle
 10
533.93101213615967
 20
352.73008611626585
 30
0.0
 40
0.500000000000003
100
AcDbArc
 50
255.96375147501834
 51
75.963751475018341
  0
ARC
  5
11C
100
AcDbEntity
  8
0
  6
Continuous
 62
               2
100
AcDbCircle
 10
503.25025376554578
 20
334.1154789604775
 30
0.0
 40
0.749999999999996
100
AcDbArc
 50
165.96375147501973
 51
345.96375147501954
  0
ARC
  5
11D
100
AcDbEntity
  8
0
  6
Continuous
 62
               2
100
AcDbCircle
 10
375.43398751666297
 20
334.1154789604775
 30
0.0
 40
0.749999999999996
100
AcDbArc
 50
194.03624852498049
 51
14.036248524980335
  0
ARC
  5
11E
100
AcDbEntity
  8
0
  6
Continuous
 62
               7
100
AcDbCircle
 10
386.50468597333855
 20
363.94699867882457
 30
0.0
 40
0.5
100
AcDbArc
 50
104.03624852498051
 51
194.03624852498049
  0
ARC
  5
11F
100
AcDbEntity
  8
0
  6
Continuous
 62
               7
100
AcDbCircle
 10
395.72103952135501
 20
366.251087930126
 30
0.0
 40
0.5
100
AcDbArc
 50
14.036248524980484
 51
104.03624852498051
  0
ARC
  5
120
100
AcDbEntity
  8
0
  6
Continuous
 62
               7
100
AcDbCircle
 10
492.17955530887019
 20
363.94699867882457
 30
0.0
 40
0.5
100
AcDbArc
 50
345.96375147501954
 51
75.963751475019507
  0
ARC
  5
121
100
AcDbEntity
  8
0
  6
Continuous
 62
               7
100
AcDbCircle
 10
482.96320176085374
 20
366.251087930126
 30
0.0
 40
0.5
100
AcDbArc
 50
75.963751475019535
 51
165.96375147501951
  0
TEXT
  5
122
100
AcDbEntity
  8
0
 62
               7
100
AcDbText
 10
240.32344062250951
 20
292.40128728521654
 30
0.0
 40
9.600000381469739
  1
23
 50
284.03625799367495
 41
0.7695
  7
FontTableH_0
 72
               5
 11
242.65178507652328
 21
283.08791950402792
 31
0.0
100
AcDbText
  0
TEXT
  5
123
100
AcDbEntity
  8
0
 62
               7
100
AcDbText
 10
252.78993232172826
 20
308.50590154302904
 30
0.0
 40
9.600000381469739
  1
5
 50
284.03625799367495
 41
0.7695
  7
FontTableH_0
 72
               5
 11
253.95410454873516
 21
303.84921765243473
 31
0.0
100
AcDbText
  0
TEXT
  5
124
100
AcDbEntity
  8
0
 62
               7
100
AcDbText
 10
256.33097846430638
 20
294.34168645513842
 30
0.0
 40
9.600000381469739
  1
18
 50
284.03625799367495
 41
0.7695
  7
FontTableH_0
 72
               5
 11
258.65932291832019
 21
285.0283186739498
 31
0.0
100
AcDbText
  0
TEXT
  5
125
100
AcDbEntity
  8
0
 62
               7
100
AcDbText
 10
511.90763862055638
 20
242.76395818365407
 30
0.0
 40
9.600000381469739
  1
補強プレート（別途）
 41
0.7695
  7
FontTableH_0
 72
               5
 11
607.90764243525382
 21
242.76395818365407
 31
0.0
100
AcDbText
  0
TEXT
  5
126
100
AcDbEntity
  8
0
 62
               7
100
AcDbText
 10
749.28679763728735
 20
26.713203554805766
 30
0.0
 40
8.9999997615814333
  1
棟詳細図 【S=1/3】
 41
0.7695
  7
FontTableH_0
 72
               5
 11
830.28679549152025
 21
26.713203554805766
 31
0.0
100
AcDbText
  0
TEXT
  5
127
100
AcDbEntity
  8
0
 62
               7
100
AcDbText
 10
378.39286811274388
 20
386.39407273366317
 30
0.0
 40
9.6000003814697958
  1
100
 50
14.036262433071792
 41
0.7695
  7
FontTableH_0
 72
               5
 11
392.36291951391934
 21
389.88659049711265
 31
0.0
100
AcDbText
  0
TEXT
  5
128
100
AcDbEntity
  8
0
 62
               7
100
AcDbText
 10
306.62461860102513
 20
425.11624070241317
 30
0.0
 40
8.9999997615814866
  1
棟カバー：屋根同材
 41
0.7695
  7
FontTableH_0
 72
               5
 11
387.62461645525798
 21
425.11624070241317
 31
0.0
100
AcDbText
  0
TEXT
  5
129
100
AcDbEntity
  8
0
 62
               7
100
AcDbText
 10
252.25679023188451
 20
390.34585496022567
 30
0.0
 40
8.9999997615814866
  1
面戸：屋根同材
 41
0.7695
  7
FontTableH_0
 72
               5
 11
315.25678856295457
 21
390.34585496022567
 31
0.0
100
AcDbText
  0
TEXT
  5
12A
100
AcDbEntity
  8
0
 62
               7
100
AcDbText
 10
486.32115180415013
 20
389.88656540944442
 30
0.0
 40
9.6000003814694885
  1
100
 50
345.96372538672648
 41
0.7695
  7
FontTableH_0
 72
               5
 11
500.29120246286959
 21
386.39404467617692
 31
0.0
100
AcDbText
  0
TEXT
  5
12B
100
AcDbEntity
  8
0
 62
               7
100
AcDbText
 10
234.5252745208432
 20
315.59419802094169
 30
0.0
 40
9.600000381469739
  1
25
 50
284.03625799367495
 41
0.7695
  7
FontTableH_0
 72
               5
 11
236.85361897485697
 21
306.28083023975307
 31
0.0
100
AcDbText
  0
TEXT
  5
12C
100
AcDbEntity
  8
0
 62
               7
100
AcDbText
 10
23.892137352265575
 20
601.35786449547834
 30
0.0
 40
8.9999997615814333
  1
ハーパーズストロングルーフ380
 41
0.7695
  7
FontTableH_0
 72
               5
 11
154.39213389519637
 21
601.35786449547834
 31
0.0
100
AcDbText
  0
ENDSEC
  0
SECTION
  2
OBJECTS
  0
DICTIONARY
  5
19
100
AcDbDictionary
  3
ACAD_GROUP
350
1A
  3
ACAD_MLINESTYLE
350
1B
  3
DWGPROPS
350
12D
  0
DICTIONARY
  5
1A
102
{ACAD_REACTORS
330
19
102
}
100
AcDbDictionary
  0
DICTIONARY
  5
1B
102
{ACAD_REACTORS
330
19
102
}
100
AcDbDictionary
  3
STANDARD
350
1C
  0
MLINESTYLE
  5
1C
102
{ACAD_REACTORS
330
1B
102
}
100
AcDbMlineStyle
  2
Standard
 70
               0
  3

 62
               0
 51
90.0
 52
90.0
 71
               2
 49
0.5
 62
             256
  6
ByLayer
 49
-0.5
 62
             256
  6
ByLayer
  0
XRECORD
  5
12D
100
AcDbXrecord
  1
DWGPROPS COOKIE
  2

  3

  4

  6

  7

  0
ENDSEC
  0
EOF
