  0
SECTION
  2
HEADER
  9
$ACADVER
  1
AC1014
  9
$ACADMAINTVER
 70
               0
  9
$DWGCODEPAGE
  3
ANSI_932
  9
$INSBASE
 10
0.0
 20
0.0
 30
0.0
  9
$EXTMIN
 10
0.0
 20
0.0
 30
0.0
  9
$EXTMAX
 10
891.00000000000091
 20
630.00000000000068
 30
0.0
  9
$LIMMIN
 10
0.0
 20
0.0
  9
$LIMMAX
 10
891.00000000000091
 20
630.00000000000068
  9
$ORTHOMODE
 70
               0
  9
$REGENMODE
 70
               1
  9
$FILLMODE
 70
               1
  9
$QTEXTMODE
 70
               0
  9
$MIRRTEXT
 70
               1
  9
$DRAGMODE
 70
               2
  9
$LTSCALE
 40
3.0000000000000031
  9
$OSMODE
 70
               0
  9
$ATTMODE
 70
               1
  9
$TEXTSIZE
 40
0.2
  9
$TRACEWID
 40
0.05
  9
$TEXTSTYLE
  7
Standard
  9
$CLAYER
  8
0
  9
$CELTYPE
  6
Continuous
  9
$CECOLOR
 62
             256
  9
$CELTSCALE
 40
1.0
  9
$DELOBJ
 70
               1
  9
$DISPSILH
 70
               0
  9
$DIMSCALE
 40
1.0
  9
$DIMASZ
 40
0.18
  9
$DIMEXO
 40
0.0625
  9
$DIMDLI
 40
0.38
  9
$DIMRND
 40
0.0
  9
$DIMDLE
 40
0.0
  9
$DIMEXE
 40
0.18
  9
$DIMTP
 40
0.0
  9
$DIMTM
 40
0.0
  9
$DIMTXT
 40
0.18
  9
$DIMCEN
 40
0.09
  9
$DIMTSZ
 40
0.0
  9
$DIMTOL
 70
               0
  9
$DIMLIM
 70
               0
  9
$DIMTIH
 70
               1
  9
$DIMTOH
 70
               1
  9
$DIMSE1
 70
               0
  9
$DIMSE2
 70
               0
  9
$DIMTAD
 70
               0
  9
$DIMZIN
 70
               0
  9
$DIMBLK
  1

  9
$DIMASO
 70
               1
  9
$DIMSHO
 70
               1
  9
$DIMPOST
  1

  9
$DIMAPOST
  1

  9
$DIMALT
 70
               0
  9
$DIMALTD
 70
               2
  9
$DIMALTF
 40
25.399999999999999
  9
$DIMLFAC
 40
1.0
  9
$DIMTOFL
 70
               0
  9
$DIMTVP
 40
0.0
  9
$DIMTIX
 70
               0
  9
$DIMSOXD
 70
               0
  9
$DIMSAH
 70
               0
  9
$DIMBLK1
  1

  9
$DIMBLK2
  1

  9
$DIMSTYLE
  2
Standard
  9
$DIMCLRD
 70
               0
  9
$DIMCLRE
 70
               0
  9
$DIMCLRT
 70
               0
  9
$DIMTFAC
 40
1.0
  9
$DIMGAP
 40
0.09
  9
$DIMJUST
 70
               0
  9
$DIMSD1
 70
               0
  9
$DIMSD2
 70
               0
  9
$DIMTOLJ
 70
               1
  9
$DIMTZIN
 70
               0
  9
$DIMALTZ
 70
               0
  9
$DIMALTTZ
 70
               0
  9
$DIMFIT
 70
               3
  9
$DIMUPT
 70
               0
  9
$DIMUNIT
 70
               2
  9
$DIMDEC
 70
               4
  9
$DIMTDEC
 70
               4
  9
$DIMALTU
 70
               2
  9
$DIMALTTD
 70
               2
  9
$DIMTXSTY
  7
Standard
  9
$DIMAUNIT
 70
               0
  9
$LUNITS
 70
               2
  9
$LUPREC
 70
               4
  9
$SKETCHINC
 40
0.1
  9
$FILLETRAD
 40
0.0
  9
$AUNITS
 70
               0
  9
$AUPREC
 70
               0
  9
$MENU
  1
acad
  9
$ELEVATION
 40
0.0
  9
$PELEVATION
 40
0.0
  9
$THICKNESS
 40
0.0
  9
$LIMCHECK
 70
               0
  9
$BLIPMODE
 70
               1
  9
$CHAMFERA
 40
0.0
  9
$CHAMFERB
 40
0.0
  9
$CHAMFERC
 40
0.0
  9
$CHAMFERD
 40
0.0
  9
$SKPOLY
 70
               0
  9
$TDCREATE
 40
0.000000000
  9
$TDUPDATE
 40
0.000000000
  9
$TDINDWG
 40
0.0000000000
  9
$TDUSRTIMER
 40
0.0000000000
  9
$USRTIMER
 70
               1
  9
$ANGBASE
 50
0.0
  9
$ANGDIR
 70
               0
  9
$PDMODE
 70
               0
  9
$PDSIZE
 40
0.0
  9
$PLINEWID
 40
0.0
  9
$COORDS
 70
               0
  9
$SPLFRAME
 70
               0
  9
$SPLINETYPE
 70
               6
  9
$SPLINESEGS
 70
               8
  9
$ATTDIA
 70
               0
  9
$ATTREQ
 70
               1
  9
$HANDLING
 70
               1
  9
$HANDSEED
  5
13F
  9
$SURFTAB1
 70
               6
  9
$SURFTAB2
 70
               6
  9
$SURFTYPE
 70
               6
  9
$SURFU
 70
               6
  9
$SURFV
 70
               6
  9
$UCSNAME
  2

  9
$UCSORG
 10
0.0
 20
0.0
 30
0.0
  9
$UCSXDIR
 10
1.0
 20
0.0
 30
0.0
  9
$UCSYDIR
 10
0.0
 20
1.0
 30
0.0
  9
$PUCSNAME
  2

  9
$PUCSORG
 10
0.0
 20
0.0
 30
0.0
  9
$PUCSXDIR
 10
1.0
 20
0.0
 30
0.0
  9
$PUCSYDIR
 10
0.0
 20
1.0
 30
0.0
  9
$USERI1
 70
               0
  9
$USERI2
 70
               0
  9
$USERI3
 70
               0
  9
$USERI4
 70
               0
  9
$USERI5
 70
               0
  9
$USERR1
 40
0.0
  9
$USERR2
 40
0.0
  9
$USERR3
 40
0.0
  9
$USERR4
 40
0.0
  9
$USERR5
 40
0.0
  9
$WORLDVIEW
 70
               1
  9
$SHADEDGE
 70
               3
  9
$SHADEDIF
 70
              70
  9
$TILEMODE
 70
               1
  9
$MAXACTVP
 70
              16
  9
$PINSBASE
 10
0.0
 20
0.0
 30
0.0
  9
$PLIMCHECK
 70
               0
  9
$PEXTMIN
 10
1.0000000000000000E+20
 20
1.0000000000000000E+20
 30
1.0000000000000000E+20
  9
$PEXTMAX
 10
-1.0000000000000000E+20
 20
-1.0000000000000000E+20
 30
-1.0000000000000000E+20
  9
$PLIMMIN
 10
0.0
 20
0.0
  9
$PLIMMAX
 10
12.0
 20
9.0
  9
$UNITMODE
 70
               0
  9
$VISRETAIN
 70
               0
  9
$PLINEGEN
 70
               1
  9
$PSLTSCALE
 70
               0
  9
$TREEDEPTH
 70
            3020
  9
$PICKSTYLE
 70
               1
  9
$CMLSTYLE
  2
Standard
  9
$CMLJUST
 70
               0
  9
$CMLSCALE
 40
1.0
  9
$PROXYGRAPHICS
 70
               0
  9
$MEASUREMENT
 70
               0
  0
ENDSEC
  0
SECTION
  2
CLASSES
  0
CLASS
  1
LWPOLYLINE
  2
AcDbPolyline
  3
"AutoCAD"
 90
        0
280
               0
281
               1
  0
CLASS
  1
IMAGE
  2
AcDbRasterImage
  3
ISM
 90
      127
280
               0
281
               1
  0
CLASS
  1
OLE2FRAME
  2
AcDbOle2Frame
  3
""
 90
        0
280
               0
281
               1
  0
CLASS
  1
HATCH
  2
AcDbHatch
  3
"ACAD_SEDONA"
 90
        0
280
               0
281
               1
  0
CLASS
  1
DICTIONARYVAR
  2
AcDbDictionaryVar
  3
"AutoCAD"
 90
        0
280
               0
281
               0
  0
CLASS
  1
RASTERVARIABLES
  2
AcDbRasterVariables
  3
ISM
 90
        0
280
               0
281
               0
  0
CLASS
  1
IMAGEDEF
  2
AcDbRasterImageDef
  3
ISM
 90
        0
280
               0
281
               0
  0
CLASS
  1
IMAGEDEF_REACTOR
  2
AcDbRasterImageDefReactor
  3
ISM
 90
        1
280
               0
281
               0
  0
CLASS
  1
IDBUFFER
  2
AcDbIdBuffer
  3
"Acad"
 90
        0
280
               0
281
               0
  0
CLASS
  1
SPATIAL_FILTER
  2
AcDbSpatialFilter
  3
"Acad"
 90
        0
280
               0
281
               0
  0
CLASS
  1
XRECORD
  2
AcDbXrecord
  3
"<Built In>"
 90
        0
280
               0
281
               0
  0
CLASS
  1
SORTENTSTABLE
  2
AcDbSortentsTable
  3
"AutoCAD"
 90
        0
280
               0
281
               0
  0
CLASS
  1
LAYER_INDEX
  2
AcDbLayerIndex
  3
"Acad"
 90
        0
280
               0
281
               0
  0
CLASS
  1
SPATIAL_INDEX
  2
AcDbSpatialIndex
  3
"Acad"
 90
        0
280
               0
281
               0
  0
CLASS
  1
OBJECT_PTR
  2
CAseDLPNTableRecord
  3
"ASE-LPNTableRecord"
 90
        1
280
               0
281
               0
  0
CLASS
  1
LAYOUT
  2
AcDbLayout
  3
"AutoCAD 2000"
 90
        0
280
               0
281
               0
  0
CLASS
  1
PLOTSETTINGS
  2
AcDbPlotSettings
  3
"AutoCAD 2000"
 90
        0
280
               0
281
               0
  0
CLASS
  1
ACDBDICTIONARYWDFLT
  2
AcDbDictionaryWithDefault
  3
"AutoCAD 2000"
 90
        0
280
               0
281
               0
  0
CLASS
  1
ACDBPLACEHOLDER
  2
AcDbPlaceHolder
  3
"AutoCAD 2000"
 90
        0
280
               0
281
               0
  0
CLASS
  1
VBA_PROJECT
  2
AcDbVbaProject
  3
"acadvba"
 90
        0
280
               0
281
               0
  0
CLASS
  1
WIPEOUT
  2
AcDbWipeout
  3
WipeOut|AutoCAD Express Tool|expresstools@autodesk.com
 90
      127
280
               0
281
               1
  0
CLASS
  1
WIPEOUTVARIABLES
  2
AcDbWipeoutVariables
  3
WipeOut|AutoCAD Express Tool|expresstools@autodesk.com
 90
        0
280
               0
281
               0
  0
CLASS
  1
RTEXT
  2
RText
  3
RText|AutoCAD Express Tool|expresstools@autodesk.com
 90
        0
280
               0
281
               1
  0
CLASS
  1
ARCALIGNEDTEXT
  2
AcDbArcAlignedText
  3
ATEXT|AutoCAD Express Tool|expresstools@autodesk.com
 90
        0
280
               0
281
               1
  0
ENDSEC
  0
SECTION
  2
TABLES
  0
TABLE
  2
VPORT
  5
7
100
AcDbSymbolTable
 70
               1
  0
VPORT
  5
15
100
AcDbSymbolTableRecord
100
AcDbViewportTableRecord
  2
*ACTIVE
 70
               0
 10
0.0
 20
0.0
 11
1.0
 21
1.0
 12
445.50000000000045
 22
315.00000000000034
 13
0.0
 23
0.0
 14
10.0
 24
10.0
 15
10.0
 25
10.0
 16
0.0
 26
0.0
 36
1.0
 17
0.0
 27
0.0
 37
0.0
 40
630.00000000000068
 41
1.4142857142857141
 42
50.0
 43
0.0
 44
0.0
 50
0.0
 51
0.0
 71
               0
 72
             100
 73
               1
 74
               1
 75
               0
 76
               0
 77
               0
 78
               0
  0
ENDTAB
  0
TABLE
  2
LTYPE
  5
4
100
AcDbSymbolTable
 70
              24
  0
LTYPE
  5
11
100
AcDbSymbolTableRecord
100
AcDbLinetypeTableRecord
  2
ByBlock
 70
              64
  3

 72
              65
 73
               0
 40
0.0
  0
LTYPE
  5
12
100
AcDbSymbolTableRecord
100
AcDbLinetypeTableRecord
  2
ByLayer
 70
              64
  3

 72
              65
 73
               0
 40
0.0
  0
LTYPE
  5
13
100
AcDbSymbolTableRecord
100
AcDbLinetypeTableRecord
  2
Continuous
 70
              64
  3
Solid line
 72
              65
 73
               0
 40
0.0
  0
LTYPE
  5
1D
100
AcDbSymbolTableRecord
100
AcDbLinetypeTableRecord
  2
DOT
 70
              64
  3
Dot . . . . . . . . . . . . . . . . . . . . . .
 72
              65
 73
               2
 40
6.3499999999999996
 49
0.35
 74
               0
 49
-6.0
 74
               0
  0
LTYPE
  5
1E
100
AcDbSymbolTableRecord
100
AcDbLinetypeTableRecord
  2
DASHED
 70
              64
  3
Dashed __ __ __ __ __ __ __ __ __ __ __ __ __ _
 72
              65
 73
               2
 40
12.699999999999999
 49
6.3499999999999996
 74
               0
 49
-6.3499999999999996
 74
               0
  0
LTYPE
  5
1F
100
AcDbSymbolTableRecord
100
AcDbLinetypeTableRecord
  2
DASHDOT
 70
              64
  3
Dash dot __ . __ . __ . __ . __ . __ . __ . __
 72
              65
 73
               4
 40
25.399999999999999
 49
12.699999999999999
 74
               0
 49
-6.0
 74
               0
 49
0.7
 74
               0
 49
-6.0
 74
               0
  0
LTYPE
  5
20
100
AcDbSymbolTableRecord
100
AcDbLinetypeTableRecord
  2
DIVIDE
 70
              64
  3
Divide ____ . . ____ . . ____ . . ____ . . ____
 72
              65
 73
               6
 40
31.75
 49
12.699999999999999
 74
               0
 49
-6.0
 74
               0
 49
0.875
 74
               0
 49
-6.0
 74
               0
 49
0.875
 74
               0
 49
-6.0
 74
               0
  0
LTYPE
  5
21
100
AcDbSymbolTableRecord
100
AcDbLinetypeTableRecord
  2
HIDDEN
 70
              64
  3
Hidden __ __ __ __ __ __ __ __ __ __ __ __ __ _
 72
              65
 73
               2
 40
9.5250000000000004
 49
6.3499999999999996
 74
               0
 49
-3.1749999999999998
 74
               0
  0
LTYPE
  5
22
100
AcDbSymbolTableRecord
100
AcDbLinetypeTableRecord
  2
CENTER
 70
              64
  3
Center ____ _ ____ _ ____ _ ____ _ ____ _ ____
 72
              65
 73
               4
 40
50.799999999999997
 49
31.75
 74
               0
 49
-6.3499999999999996
 74
               0
 49
6.3499999999999996
 74
               0
 49
-6.3499999999999996
 74
               0
  0
LTYPE
  5
23
100
AcDbSymbolTableRecord
100
AcDbLinetypeTableRecord
  2
PHANTOM
 70
              64
  3
Phantom ______  __  __  ______  __  __  ______
 72
              65
 73
               6
 40
63.5
 49
31.75
 74
               0
 49
-6.3499999999999996
 74
               0
 49
6.3499999999999996
 74
               0
 49
-6.3499999999999996
 74
               0
 49
6.3499999999999996
 74
               0
 49
-6.3499999999999996
 74
               0
  0
LTYPE
  5
24
100
AcDbSymbolTableRecord
100
AcDbLinetypeTableRecord
  2
ACAD_ISO02W100
 70
              64
  3
ISO dash __ __ __ __ __ __ __ __ __ __ __ __ __
 72
              65
 73
               2
 40
15.0
 49
12.0
 74
               0
 49
-3.0
 74
               0
  0
LTYPE
  5
25
100
AcDbSymbolTableRecord
100
AcDbLinetypeTableRecord
  2
ACAD_ISO03W100
 70
              64
  3
ISO dash space __ __ __ __ __ __ __ __ __ __ __ __ __ __
 72
              65
 73
               2
 40
30.0
 49
12.0
 74
               0
 49
-18.0
 74
               0
  0
LTYPE
  5
26
100
AcDbSymbolTableRecord
100
AcDbLinetypeTableRecord
  2
ACAD_ISO04W100
 70
              64
  3
ISO long-dash dot ____ . ____ . ____ . ____ . _
 72
              65
 73
               4
 40
30.0
 49
24.0
 74
               0
 49
-3.0
 74
               0
 49
0.0
 74
               0
 49
-3.0
 74
               0
  0
LTYPE
  5
27
100
AcDbSymbolTableRecord
100
AcDbLinetypeTableRecord
  2
ACAD_ISO05W100
 70
              64
  3
ISO long-dash double-dot ____ .. ____ .. ____ .
 72
              65
 73
               6
 40
33.0
 49
24.0
 74
               0
 49
-3.0
 74
               0
 49
0.0
 74
               0
 49
-3.0
 74
               0
 49
0.0
 74
               0
 49
-3.0
 74
               0
  0
LTYPE
  5
28
100
AcDbSymbolTableRecord
100
AcDbLinetypeTableRecord
  2
ACAD_ISO06W100
 70
              64
  3
ISO long-dash triple-dot ____ ... ____ ... ____
 72
              65
 73
               8
 40
36.0
 49
24.0
 74
               0
 49
-3.0
 74
               0
 49
0.0
 74
               0
 49
-3.0
 74
               0
 49
0.0
 74
               0
 49
-3.0
 74
               0
 49
0.0
 74
               0
 49
-3.0
 74
               0
  0
LTYPE
  5
29
100
AcDbSymbolTableRecord
100
AcDbLinetypeTableRecord
  2
ACAD_ISO07W100
 70
              64
  3
ISO dot . . . . . . . . . . . . . . . . . . . .
 72
              65
 73
               2
 40
3.0
 49
0.0
 74
               0
 49
-3.0
 74
               0
  0
LTYPE
  5
2A
100
AcDbSymbolTableRecord
100
AcDbLinetypeTableRecord
  2
ACAD_ISO08W100
 70
              64
  3
ISO long-dash short-dash ____ __ ____ __ ____ _
 72
              65
 73
               4
 40
36.0
 49
24.0
 74
               0
 49
-3.0
 74
               0
 49
6.0
 74
               0
 49
-3.0
 74
               0
  0
LTYPE
  5
2B
100
AcDbSymbolTableRecord
100
AcDbLinetypeTableRecord
  2
ACAD_ISO09W100
 70
              64
  3
ISO long-dash double-short-dash ____ __ __ ____
 72
              65
 73
               6
 40
45.0
 49
24.0
 74
               0
 49
-3.0
 74
               0
 49
6.0
 74
               0
 49
-3.0
 74
               0
 49
6.0
 74
               0
 49
-3.0
 74
               0
  0
LTYPE
  5
2C
100
AcDbSymbolTableRecord
100
AcDbLinetypeTableRecord
  2
ACAD_ISO10W100
 70
              64
  3
ISO dash dot __ . __ . __ . __ . __ . __ . __ .
 72
              65
 73
               4
 40
18.0
 49
12.0
 74
               0
 49
-3.0
 74
               0
 49
0.0
 74
               0
 49
-3.0
 74
               0
  0
LTYPE
  5
2D
100
AcDbSymbolTableRecord
100
AcDbLinetypeTableRecord
  2
ACAD_ISO11W100
 70
              64
  3
ISO double-dash dot __ __ . __ __ . __ __ . __ 
 72
              65
 73
               6
 40
33.0
 49
12.0
 74
               0
 49
-3.0
 74
               0
 49
12.0
 74
               0
 49
-3.0
 74
               0
 49
0.0
 74
               0
 49
-3.0
 74
               0
  0
LTYPE
  5
2E
100
AcDbSymbolTableRecord
100
AcDbLinetypeTableRecord
  2
ACAD_ISO12W100
 70
              64
  3
ISO dash double-dot __ . . __ . . __ . . __ . .
 72
              65
 73
               6
 40
21.0
 49
12.0
 74
               0
 49
-3.0
 74
               0
 49
0.0
 74
               0
 49
-3.0
 74
               0
 49
0.0
 74
               0
 49
-3.0
 74
               0
  0
LTYPE
  5
2F
100
AcDbSymbolTableRecord
100
AcDbLinetypeTableRecord
  2
ACAD_ISO13W100
 70
              64
  3
ISO double-dash double-dot __ __ . . __ __ . . 
 72
              65
 73
               8
 40
36.0
 49
12.0
 74
               0
 49
-3.0
 74
               0
 49
12.0
 74
               0
 49
-3.0
 74
               0
 49
0.0
 74
               0
 49
-3.0
 74
               0
 49
0.0
 74
               0
 49
-3.0
 74
               0
  0
LTYPE
  5
30
100
AcDbSymbolTableRecord
100
AcDbLinetypeTableRecord
  2
ACAD_ISO14W100
 70
              64
  3
ISO dash triple-dot __ . . . __ . . . __ . . . 
 72
              65
 73
               8
 40
24.0
 49
12.0
 74
               0
 49
-3.0
 74
               0
 49
0.0
 74
               0
 49
-3.0
 74
               0
 49
0.0
 74
               0
 49
-3.0
 74
               0
 49
0.0
 74
               0
 49
-3.0
 74
               0
  0
LTYPE
  5
31
100
AcDbSymbolTableRecord
100
AcDbLinetypeTableRecord
  2
ACAD_ISO15W100
 70
              64
  3
ISO double-dash double-dot __ __ . . __ __ . . 
 72
              65
 73
              10
 40
39.0
 49
12.0
 74
               0
 49
-3.0
 74
               0
 49
12.0
 74
               0
 49
-3.0
 74
               0
 49
0.0
 74
               0
 49
-3.0
 74
               0
 49
0.0
 74
               0
 49
-3.0
 74
               0
 49
0.0
 74
               0
 49
-3.0
 74
               0
  0
ENDTAB
  0
TABLE
  2
LAYER
  5
2
100
AcDbSymbolTable
 70
              16
  0
LAYER
  5
14
100
AcDbSymbolTableRecord
100
AcDbLayerTableRecord
  2
0
 70
               0
 62
               7
  6
Continuous
  0
LAYER
  5
35
100
AcDbSymbolTableRecord
100
AcDbLayerTableRecord
  2
Layer00001
 70
               0
 62
               7
  6
Continuous
  0
LAYER
  5
36
100
AcDbSymbolTableRecord
100
AcDbLayerTableRecord
  2
Layer00002
 70
               0
 62
               7
  6
Continuous
  0
LAYER
  5
37
100
AcDbSymbolTableRecord
100
AcDbLayerTableRecord
  2
Layer00003
 70
               0
 62
               7
  6
Continuous
  0
LAYER
  5
38
100
AcDbSymbolTableRecord
100
AcDbLayerTableRecord
  2
Layer00004
 70
               0
 62
               7
  6
Continuous
  0
LAYER
  5
39
100
AcDbSymbolTableRecord
100
AcDbLayerTableRecord
  2
Layer00005
 70
               0
 62
               7
  6
Continuous
  0
LAYER
  5
3A
100
AcDbSymbolTableRecord
100
AcDbLayerTableRecord
  2
Layer00006
 70
               0
 62
               7
  6
Continuous
  0
LAYER
  5
3B
100
AcDbSymbolTableRecord
100
AcDbLayerTableRecord
  2
Layer00007
 70
               0
 62
               7
  6
Continuous
  0
LAYER
  5
3C
100
AcDbSymbolTableRecord
100
AcDbLayerTableRecord
  2
Layer00008
 70
               0
 62
               7
  6
Continuous
  0
LAYER
  5
3D
100
AcDbSymbolTableRecord
100
AcDbLayerTableRecord
  2
Layer00009
 70
               0
 62
               7
  6
Continuous
  0
LAYER
  5
3E
100
AcDbSymbolTableRecord
100
AcDbLayerTableRecord
  2
Layer00010
 70
               0
 62
               7
  6
Continuous
  0
LAYER
  5
3F
100
AcDbSymbolTableRecord
100
AcDbLayerTableRecord
  2
Layer00011
 70
               0
 62
               7
  6
Continuous
  0
LAYER
  5
40
100
AcDbSymbolTableRecord
100
AcDbLayerTableRecord
  2
Layer00012
 70
               0
 62
               7
  6
Continuous
  0
LAYER
  5
41
100
AcDbSymbolTableRecord
100
AcDbLayerTableRecord
  2
Layer00013
 70
               0
 62
               7
  6
Continuous
  0
LAYER
  5
42
100
AcDbSymbolTableRecord
100
AcDbLayerTableRecord
  2
Layer00014
 70
               0
 62
               7
  6
Continuous
  0
LAYER
  5
43
100
AcDbSymbolTableRecord
100
AcDbLayerTableRecord
  2
Layer00015
 70
               0
 62
               7
  6
Continuous
  0
ENDTAB
  0
TABLE
  2
STYLE
  5
3
100
AcDbSymbolTable
 70
               4
  0
STYLE
  5
17
100
AcDbSymbolTableRecord
100
AcDbTextStyleTableRecord
  2
Standard
 70
               0
 40
0.0
 41
1.0
 50
0.0
 71
               0
 42
0.0
  3
txt.shx
  4
bigfont.shx
  0
STYLE
  5
32
100
AcDbSymbolTableRecord
100
AcDbTextStyleTableRecord
  2
STANDARD_T
 70
               4
 40
0.0
 41
1.0
 50
0.0
 71
               0
 42
0.0
  3
txt.shx
  4
bigfont.shx
  0
STYLE
  5
33
100
AcDbSymbolTableRecord
100
AcDbTextStyleTableRecord
  2
FontTableH_0
 70
               0
 40
0.0
 41
1.0
 50
0.0
 71
               0
 42
0.0
  3
MS Gothic.ttf
  4

1001
ACAD
1000
MS Gothic
1071
    32817
  0
STYLE
  5
34
100
AcDbSymbolTableRecord
100
AcDbTextStyleTableRecord
  2
FontTableV_0
 70
               0
 40
0.0
 41
1.0
 50
0.0
 71
               0
 42
0.0
  3
@MS Gothic.ttf
  4

1001
ACAD
1000
@MS Gothic
1071
    32817
  0
ENDTAB
  0
TABLE
  2
VIEW
  5
5
100
AcDbSymbolTable
 70
               0
  0
ENDTAB
  0
TABLE
  2
UCS
  5
6
100
AcDbSymbolTable
 70
               0
  0
ENDTAB
  0
TABLE
  2
APPID
  5
8
100
AcDbSymbolTable
 70
               1
  0
APPID
  5
16
100
AcDbSymbolTableRecord
100
AcDbRegAppTableRecord
  2
ACAD
 70
               0
  0
ENDTAB
  0
TABLE
  2
DIMSTYLE
  5
9
100
AcDbSymbolTable
 70
               1
  0
DIMSTYLE
105
18
100
AcDbSymbolTableRecord
100
AcDbDimStyleTableRecord
  2
Standard
 70
               0
  3

  4

  5

  6

  7

 40
1.0
 41
0.18
 42
0.0625
 43
0.38
 44
0.18
 45
0.0
 46
0.0
 47
0.0
 48
0.0
 71
               0
 72
               0
 73
               1
 74
               1
 75
               0
 76
               0
 77
               0
 78
               0
140
0.18
141
0.09
142
0.0
143
25.399999999999999
144
1.0
145
0.0
146
1.0
147
0.09
170
               0
171
               2
172
               0
173
               0
174
               0
175
               0
176
               0
177
               0
178
               0
270
               2
271
               4
272
               4
273
               2
274
               2
275
               0
280
               0
281
               0
282
               0
283
               1
284
               0
285
               0
286
               0
287
               0
288
               0
340
17
  0
ENDTAB
  0
TABLE
  2
BLOCK_RECORD
  5
1
100
AcDbSymbolTable
 70
               0
  0
BLOCK_RECORD
  5
A
100
AcDbSymbolTableRecord
100
AcDbBlockTableRecord
  2
*MODEL_SPACE
  0
BLOCK_RECORD
  5
B
100
AcDbSymbolTableRecord
100
AcDbBlockTableRecord
  2
*PAPER_SPACE
  0
ENDTAB
  0
ENDSEC
  0
SECTION
  2
BLOCKS
  0
BLOCK
  5
D
100
AcDbEntity
  8
0
100
AcDbBlockBegin
  2
*MODEL_SPACE
 70
               0
 10
0.0
 20
0.0
 30
0.0
  3
*MODEL_SPACE
  1

  0
ENDBLK
  5
E
100
AcDbEntity
  8
0
100
AcDbBlockEnd
  0
BLOCK
  5
F
100
AcDbEntity
 67
               1
  8
0
100
AcDbBlockBegin
  2
*PAPER_SPACE
 70
               0
 10
0.0
 20
0.0
 30
0.0
  3
*PAPER_SPACE
  1

  0
ENDBLK
  5
10
100
AcDbEntity
 67
               1
  8
0
100
AcDbBlockEnd
  0
ENDSEC
  0
SECTION
  2
ENTITIES
  0
LINE
  5
44
100
AcDbEntity
  8
0
  6
Continuous
 62
               4
100
AcDbLine
 10
470.80448966282484
 20
338.77830690361731
 30
0.0
 11
471.13447174189736
 21
371.77665704157863
 31
0.0
  0
LINE
  5
45
100
AcDbEntity
  8
0
  6
Continuous
 62
               4
100
AcDbLine
 10
170.76948991292872
 20
336.77837971858423
 30
0.0
 11
171.14946941928144
 21
374.77649413473989
 31
0.0
  0
LINE
  5
46
100
AcDbEntity
  8
0
  6
Continuous
 62
               4
100
AcDbLine
 10
471.10447337107257
 20
368.77680702903672
 30
0.0
 11
171.11947104845666
 21
371.77664412219792
 31
0.0
  0
LINE
  5
47
100
AcDbEntity
  8
0
  6
Continuous
 62
               4
100
AcDbLine
 10
270.74956991292868
 20
334.29350971858446
 30
0.0
 11
270.96440838051052
 21
355.77744907764497
 31
0.0
  0
LINE
  5
48
100
AcDbEntity
  8
0
  6
Continuous
 62
               4
100
AcDbLine
 10
170.93948082350806
 20
353.77754404694622
 30
0.0
 11
270.93441000968573
 21
352.777599065103
 31
0.0
  0
LINE
  5
49
100
AcDbEntity
  8
0
  6
Continuous
 62
               4
100
AcDbLine
 10
776.07923386390939
 20
264.72205516518505
 30
0.0
 11
800.07803397916325
 21
264.48206969043918
 31
0.0
  0
LINE
  5
4A
100
AcDbEntity
  8
0
  6
Continuous
 62
               4
100
AcDbLine
 10
776.62920015029442
 20
319.71926277145394
 30
0.0
 11
800.62800026554839
 21
319.47927729670806
 31
0.0
  0
LINE
  5
4B
100
AcDbEntity
  8
0
  6
Continuous
 62
               4
100
AcDbLine
 10
797.07818396475648
 20
264.51206787478242
 30
0.0
 11
797.62815025114162
 21
319.5092754810513
 31
0.0
  0
LINE
  5
4C
100
AcDbEntity
  8
0
  6
Continuous
 62
               4
100
AcDbLine
 10
797.62815025114151
 20
319.50927548105125
 30
0.0
 11
797.73901537470181
 21
329.51190264362822
 31
0.0
  0
LINE
  5
4D
100
AcDbEntity
  8
0
  6
Continuous
 62
               4
100
AcDbLine
 10
549.4645879098
 20
266.98817776850154
 30
0.0
 11
587.67620852228538
 21
200.80370942813002
 31
0.0
  0
LINE
  5
4E
100
AcDbEntity
  8
0
  6
Continuous
 62
               4
100
AcDbLine
 10
587.67620852228538
 20
200.80370942813002
 30
0.0
 11
842.01700154559603
 21
200.80370942813002
 31
0.0
  0
LINE
  5
4F
100
AcDbEntity
  8
0
  6
Continuous
 62
               4
100
AcDbLine
 10
549.4645879098
 20
266.98817776850154
 30
0.0
 11
555.24967639697877
 21
260.09377778043074
 31
0.0
  0
LINE
  5
50
100
AcDbEntity
  8
0
  6
Continuous
 62
               4
100
AcDbLine
 10
549.4645879098
 20
266.98817776850154
 30
0.0
 11
552.54276919973097
 21
258.53094418142837
 31
0.0
  0
LINE
  5
51
100
AcDbEntity
  8
0
  6
Continuous
 62
               4
100
AcDbLine
 10
520.55031850436148
 20
343.91662456635413
 30
0.0
 11
553.24641044959606
 21
400.54791702444373
 31
0.0
  0
LINE
  5
52
100
AcDbEntity
  8
0
  6
Continuous
 62
               4
100
AcDbLine
 10
553.24641044959606
 20
400.54791702444373
 30
0.0
 11
736.240919629058
 21
400.54791702444373
 31
0.0
  0
LINE
  5
53
100
AcDbEntity
  8
0
  6
Continuous
 62
               4
100
AcDbLine
 10
520.55031850436148
 20
343.91662456635413
 30
0.0
 11
523.62849979429257
 21
352.37385815342731
 31
0.0
  0
LINE
  5
54
100
AcDbEntity
  8
0
  6
Continuous
 62
               4
100
AcDbLine
 10
520.55031850436148
 20
343.91662456635413
 30
0.0
 11
526.33540699154037
 21
350.81102455442493
 31
0.0
  0
LINE
  5
55
100
AcDbEntity
  8
0
  6
Continuous
 62
               4
100
AcDbLine
 10
478.74449292117521
 20
370.52860687853331
 30
0.0
 11
522.62355390087998
 21
446.52936988379457
 31
0.0
  0
LINE
  5
56
100
AcDbEntity
  8
0
  6
Continuous
 62
               4
100
AcDbLine
 10
522.62355390087998
 20
446.52936988379457
 30
0.0
 11
704.4596213292125
 21
446.52936988379457
 31
0.0
  0
LINE
  5
57
100
AcDbEntity
  8
0
  6
Continuous
 62
               4
100
AcDbLine
 10
478.74449292117521
 20
370.52860687853331
 30
0.0
 11
481.82267421110623
 21
378.98584046560649
 31
0.0
  0
LINE
  5
58
100
AcDbEntity
  8
0
  6
Continuous
 62
               4
100
AcDbLine
 10
478.74449292117521
 20
370.52860687853331
 30
0.0
 11
484.52958140835403
 21
377.42300686660417
 31
0.0
  0
LINE
  5
59
100
AcDbEntity
  8
0
  6
Continuous
 62
               4
100
AcDbLine
 10
443.40979735531562
 20
396.378030368081
 30
0.0
 11
498.8361792160332
 21
492.37933983055746
 31
0.0
  0
LINE
  5
5A
100
AcDbEntity
  8
0
  6
Continuous
 62
               4
100
AcDbLine
 10
498.8361792160332
 20
492.37933983055746
 30
0.0
 11
706.69356431392839
 21
492.37933983055746
 31
0.0
  0
LINE
  5
5B
100
AcDbEntity
  8
0
  6
Continuous
 62
               4
100
AcDbLine
 10
443.40979735531562
 20
396.378030368081
 30
0.0
 11
446.48797864524664
 21
404.83526395515412
 31
0.0
  0
LINE
  5
5C
100
AcDbEntity
  8
0
  6
Continuous
 62
               4
100
AcDbLine
 10
443.40979735531562
 20
396.378030368081
 30
0.0
 11
449.19488584249444
 21
403.2724303561518
 31
0.0
  0
LINE
  5
5D
100
AcDbEntity
  8
0
  6
Continuous
 62
               4
100
AcDbLine
 10
170.39450817127914
 20
299.28025969350045
 30
0.0
 11
131.88601260687483
 21
365.97893053408933
 31
0.0
  0
LINE
  5
5E
100
AcDbEntity
  8
0
  6
Continuous
 62
               4
100
AcDbLine
 10
131.88601260687483
 20
365.97893053408933
 30
0.0
 11
34.71297727402829
 21
365.97893053408933
 31
0.0
  0
LINE
  5
5F
100
AcDbEntity
  8
0
  6
Continuous
 62
               4
100
AcDbLine
 10
170.39450817127914
 20
299.28025969350045
 30
0.0
 11
164.60941968410029
 21
306.17465968157126
 31
0.0
  0
LINE
  5
60
100
AcDbEntity
  8
0
  6
Continuous
 62
               4
100
AcDbLine
 10
170.39450817127914
 20
299.28025969350045
 30
0.0
 11
167.31632688134812
 21
307.73749328057363
 31
0.0
  0
LINE
  5
61
100
AcDbEntity
  8
0
  6
Continuous
 62
               4
100
AcDbLine
 10
216.68719317127918
 20
328.31880969350044
 30
0.0
 11
168.4570615899402
 21
411.85584804811151
 31
0.0
  0
LINE
  5
62
100
AcDbEntity
  8
0
  6
Continuous
 62
               4
100
AcDbLine
 10
168.4570615899402
 20
411.85584804811151
 30
0.0
 11
143.56863035383785
 21
411.85584804811151
 31
0.0
  0
LINE
  5
63
100
AcDbEntity
  8
0
  6
Continuous
 62
               4
100
AcDbLine
 10
216.68719317127918
 20
328.31880969350044
 30
0.0
 11
210.90210468410029
 21
335.21320968157124
 31
0.0
  0
LINE
  5
64
100
AcDbEntity
  8
0
  6
Continuous
 62
               4
100
AcDbLine
 10
216.68719317127918
 20
328.31880969350044
 30
0.0
 11
213.60901188134815
 21
336.77604328057367
 31
0.0
  0
LINE
  5
65
100
AcDbEntity
  8
0
  6
Continuous
 62
               4
100
AcDbLine
 10
250.39300817127915
 20
298.73029469350053
 30
0.0
 11
292.44076524228376
 21
225.90144310220705
 31
0.0
  0
LINE
  5
66
100
AcDbEntity
  8
0
  6
Continuous
 62
               4
100
AcDbLine
 10
292.44076524228376
 20
225.90144310220705
 30
0.0
 11
425.71396279988545
 21
225.90144310220705
 31
0.0
  0
LINE
  5
67
100
AcDbEntity
  8
0
  6
Continuous
 62
               4
100
AcDbLine
 10
250.39300817127915
 20
298.73029469350053
 30
0.0
 11
256.178096658458
 21
291.83589470542972
 31
0.0
  0
LINE
  5
68
100
AcDbEntity
  8
0
  6
Continuous
 62
               4
100
AcDbLine
 10
250.39300817127915
 20
298.73029469350053
 30
0.0
 11
253.47118946121017
 21
290.27306110642735
 31
0.0
  0
LINE
  5
69
100
AcDbEntity
  8
0
  6
Continuous
 62
               4
100
AcDbLine
 10
180.54474160805967
 20
297.7474631949429
 30
0.0
 11
240.73187119659042
 21
193.50029678587524
 31
0.0
  0
LINE
  5
6A
100
AcDbEntity
  8
0
  6
Continuous
 62
               4
100
AcDbLine
 10
240.73187119659042
 20
193.50029678587524
 30
0.0
 11
446.99912508736617
 21
193.50029678587524
 31
0.0
  0
LINE
  5
6B
100
AcDbEntity
  8
0
  6
Continuous
 62
               4
100
AcDbLine
 10
180.54474160805967
 20
297.7474631949429
 30
0.0
 11
186.32983009523849
 21
290.85306320687204
 31
0.0
  0
LINE
  5
6C
100
AcDbEntity
  8
0
  6
Continuous
 62
               4
100
AcDbLine
 10
180.54474160805967
 20
297.7474631949429
 30
0.0
 11
183.62292289799066
 21
289.29022960786972
 31
0.0
  0
LINE
  5
6D
100
AcDbEntity
  8
0
  6
Continuous
 62
               4
100
AcDbLine
 10
170.01952681341407
 20
261.78213966457884
 30
0.0
 11
169.6895468451562
 21
228.78378950550962
 31
0.0
  0
LINE
  5
6E
100
AcDbEntity
  8
0
  6
Continuous
 62
               4
100
AcDbLine
 10
220.022056813414
 20
261.78714966457869
 30
0.0
 11
219.68702710473676
 21
228.28382005644627
 31
0.0
  0
LINE
  5
6F
100
AcDbEntity
  8
0
  6
Continuous
 62
               4
100
AcDbLine
 10
169.71954502408875
 20
231.78363951997045
 30
0.0
 11
219.71702528366927
 21
231.28367007090711
 31
0.0
  0
LINE
  5
70
100
AcDbEntity
  8
0
  6
Continuous
 62
               4
100
AcDbLine
 10
166.65969315010074
 20
325.81893682920122
 30
0.0
 11
131.66144549805381
 21
326.16892019461073
 31
0.0
  0
LINE
  5
71
100
AcDbEntity
  8
0
  6
Continuous
 62
               4
100
AcDbLine
 10
166.10972315030463
 20
270.82168684609121
 30
0.0
 11
131.11147160178666
 21
271.17167025046558
 31
0.0
  0
LINE
  5
72
100
AcDbEntity
  8
0
  6
Continuous
 62
               4
100
AcDbLine
 10
134.66129550854103
 20
326.13892161831535
 30
0.0
 11
134.11132161227391
 21
271.1416716741702
 31
0.0
  0
LINE
  5
73
100
AcDbEntity
  8
0
  6
Continuous
 62
               4
100
AcDbLine
 10
714.78679656440374
 20
21.213203435596483
 30
0.0
 11
714.78679656440374
 21
41.213203435596483
 31
0.0
  0
LINE
  5
74
100
AcDbEntity
  8
0
  6
Continuous
 62
               4
100
AcDbLine
 10
864.78679656440374
 20
21.213203435596483
 30
0.0
 11
714.78679656440374
 21
21.213203435596483
 31
0.0
  0
LINE
  5
75
100
AcDbEntity
  8
0
  6
Continuous
 62
               4
100
AcDbLine
 10
864.78679656440374
 20
41.213203435596483
 30
0.0
 11
864.78679656440374
 21
21.213203435596483
 31
0.0
  0
LINE
  5
76
100
AcDbEntity
  8
0
  6
Continuous
 62
               4
100
AcDbLine
 10
864.78679656440374
 20
41.213203435596483
 30
0.0
 11
714.78679656440374
 21
41.213203435596483
 31
0.0
  0
LINE
  5
77
100
AcDbEntity
  8
0
  6
Continuous
 62
               4
100
AcDbLine
 10
14.142135623730949
 20
595.85786437626905
 30
0.0
 11
14.142135623730949
 21
615.85786437626905
 31
0.0
  0
LINE
  5
78
100
AcDbEntity
  8
0
  6
Continuous
 62
               4
100
AcDbLine
 10
164.14213562373095
 20
595.85786437626905
 30
0.0
 11
14.142135623730949
 21
595.85786437626905
 31
0.0
  0
LINE
  5
79
100
AcDbEntity
  8
0
  6
Continuous
 62
               4
100
AcDbLine
 10
164.14213562373095
 20
615.85786437626905
 30
0.0
 11
164.14213562373095
 21
595.85786437626905
 31
0.0
  0
LINE
  5
7A
100
AcDbEntity
  8
0
  6
Continuous
 62
               4
100
AcDbLine
 10
164.14213562373095
 20
615.85786437626905
 30
0.0
 11
14.142135623730949
 21
615.85786437626905
 31
0.0
  0
LINE
  5
7B
100
AcDbEntity
  8
0
  6
DASHDOT
 62
               7
100
AcDbLine
 10
370.74449292117527
 20
376.77860687853337
 30
0.0
 11
370.74449292117527
 21
535.7786068785332
 31
0.0
  0
LINE
  5
7C
100
AcDbEntity
  8
0
  6
Continuous
 62
               6
100
AcDbLine
 10
374.24449292117527
 20
419.77860687853337
 30
0.0
 11
374.24449292117527
 21
497.77860687853337
 31
0.0
  0
LINE
  5
7D
100
AcDbEntity
  8
0
  6
Continuous
 62
               6
100
AcDbLine
 10
367.24449292117527
 20
419.77860687853337
 30
0.0
 11
367.24449292117527
 21
497.77860687853337
 31
0.0
  0
LINE
  5
7E
100
AcDbEntity
  8
0
  6
Continuous
 62
               6
100
AcDbLine
 10
354.24449292117527
 20
406.77860687853337
 30
0.0
 11
270.74449292117527
 21
406.77860687853337
 31
0.0
  0
LINE
  5
7F
100
AcDbEntity
  8
0
  6
Continuous
 62
               6
100
AcDbLine
 10
470.74449292117527
 20
397.77860687853337
 30
0.0
 11
270.74449292117527
 21
397.77860687853337
 31
0.0
  0
LINE
  5
80
100
AcDbEntity
  8
0
  6
Continuous
 62
               6
100
AcDbLine
 10
270.74449292117527
 20
397.77860687853337
 30
0.0
 11
270.74449292117527
 21
406.77860687853337
 31
0.0
  0
LINE
  5
81
100
AcDbEntity
  8
0
  6
Continuous
 62
               6
100
AcDbLine
 10
387.24449292117527
 20
406.77860687853337
 30
0.0
 11
470.74449292117527
 21
406.77860687853337
 31
0.0
  0
LINE
  5
82
100
AcDbEntity
  8
0
  6
Continuous
 62
               6
100
AcDbLine
 10
423.74449292117527
 20
393.77860687853337
 30
0.0
 11
460.24449292117527
 21
393.77860687853337
 31
0.0
  0
LINE
  5
83
100
AcDbEntity
  8
0
  6
Continuous
 62
               6
100
AcDbLine
 10
470.74449292117527
 20
397.77860687853337
 30
0.0
 11
420.74449292117527
 21
397.77860687853337
 31
0.0
  0
LINE
  5
84
100
AcDbEntity
  8
0
  6
Continuous
 62
               6
100
AcDbLine
 10
420.74449292117527
 20
397.77860687853337
 30
0.0
 11
420.74449292117527
 21
396.77860687853337
 31
0.0
  0
LINE
  5
85
100
AcDbEntity
  8
0
  6
Continuous
 62
               6
100
AcDbLine
 10
470.74449292117527
 20
347.77860687853337
 30
0.0
 11
470.74449292117527
 21
397.77860687853337
 31
0.0
  0
LINE
  5
86
100
AcDbEntity
  8
0
  6
Continuous
 62
               6
100
AcDbLine
 10
466.74449292117527
 20
387.27860687853337
 30
0.0
 11
466.74449292117527
 21
350.77860687853337
 31
0.0
  0
LINE
  5
87
100
AcDbEntity
  8
0
  6
Continuous
 62
               6
100
AcDbLine
 10
478.74449292117527
 20
391.77860687853337
 30
0.0
 11
478.74449292117527
 21
349.27860687853337
 31
0.0
  0
LINE
  5
88
100
AcDbEntity
  8
0
  6
Continuous
 62
               6
100
AcDbLine
 10
470.74449292117527
 20
332.77860687853337
 30
0.0
 11
470.74449292117527
 21
397.77860687853337
 31
0.0
  0
LINE
  5
89
100
AcDbEntity
  8
0
  6
Continuous
 62
               6
100
AcDbLine
 10
487.24449292117527
 20
340.77860687853337
 30
0.0
 11
529.74443292117519
 21
340.77860687853337
 31
0.0
  0
LINE
  5
8A
100
AcDbEntity
  8
0
  6
Continuous
 62
               6
100
AcDbLine
 10
535.7444329211753
 20
332.77860687853337
 30
0.0
 11
470.74449292117527
 21
332.77860687853337
 31
0.0
  0
LINE
  5
8B
100
AcDbEntity
  8
0
  6
Continuous
 62
               6
100
AcDbLine
 10
469.74449292117527
 20
347.77860687853337
 30
0.0
 11
470.74449292117527
 21
347.77860687853337
 31
0.0
  0
LINE
  5
8C
100
AcDbEntity
  8
0
  6
Continuous
 62
               6
100
AcDbLine
 10
535.7444329211753
 20
334.77860687853337
 30
0.0
 11
535.7444329211753
 21
332.77860687853337
 31
0.0
  0
LINE
  5
8D
100
AcDbEntity
  8
0
  6
Continuous
 62
               6
100
AcDbLine
 10
470.74449292117527
 20
397.77860687853337
 30
0.0
 11
470.74449292117527
 21
406.77860687853337
 31
0.0
  0
LINE
  5
8E
100
AcDbEntity
  8
0
  6
Continuous
 62
               6
100
AcDbLine
 10
472.74449292117527
 20
397.77860687853337
 30
0.0
 11
470.74449292117527
 21
397.77860687853337
 31
0.0
  0
LINE
  5
8F
100
AcDbEntity
  8
0
  6
Continuous
 62
               6
100
AcDbLine
 10
193.54191317127913
 20
274.21650969350043
 30
0.0
 11
189.90910317127918
 21
270.58369969350059
 31
0.0
  0
LINE
  5
90
100
AcDbEntity
  8
0
  6
Continuous
 62
               3
100
AcDbLine
 10
170.07952317127911
 20
267.78183969350056
 30
0.0
 11
219.57705317127909
 21
267.28686969350036
 31
0.0
  0
LINE
  5
91
100
AcDbEntity
  8
0
  6
Continuous
 62
               4
100
AcDbLine
 10
250.68549317127918
 20
327.97882969350047
 30
0.0
 11
182.68889317127912
 21
328.65878969350041
 31
0.0
  0
LINE
  5
92
100
AcDbEntity
  8
0
  6
Continuous
 62
               6
100
AcDbLine
 10
177.28265317127909
 20
306.0405096935005
 30
0.0
 11
172.41352317127917
 21
301.17137969350046
 31
0.0
  0
LINE
  5
93
100
AcDbEntity
  8
0
  6
Continuous
 62
               6
100
AcDbLine
 10
177.16321317127915
 20
303.0926396935003
 30
0.0
 11
172.38495317127911
 21
298.31437969350048
 31
0.0
  0
LINE
  5
94
100
AcDbEntity
  8
0
  6
Continuous
 62
               3
100
AcDbLine
 10
170.70949317127918
 20
330.77867969350035
 30
0.0
 11
170.07952317127911
 21
267.78183969350056
 31
0.0
  0
LINE
  5
95
100
AcDbEntity
  8
0
  6
DASHED
 62
               7
100
AcDbLine
 10
187.6586431712791
 20
325.60893969350053
 30
0.0
 11
187.11867317127917
 21
271.61164969350028
 31
0.0
  0
LINE
  5
96
100
AcDbEntity
  8
0
  6
Continuous
 62
               2
100
AcDbLine
 10
172.65939317127913
 20
325.75893969350039
 30
0.0
 11
172.1094231712791
 21
270.7616896935005
 31
0.0
  0
LINE
  5
97
100
AcDbEntity
  8
0
  6
Continuous
 62
               6
100
AcDbLine
 10
176.49060317127919
 20
299.5916096935004
 30
0.0
 11
172.35638317127916
 21
295.45738969350049
 31
0.0
  0
LINE
  5
98
100
AcDbEntity
  8
0
  6
Continuous
 62
               6
100
AcDbLine
 10
177.30258317127914
 20
297.57515969350032
 30
0.0
 11
172.3278131712791
 21
292.60038969350052
 31
0.0
  0
LINE
  5
99
100
AcDbEntity
  8
0
  6
Continuous
 62
               6
100
AcDbLine
 10
176.5026631712791
 20
293.94681969350057
 30
0.0
 11
172.29924317127916
 21
289.74338969350055
 31
0.0
  0
LINE
  5
9A
100
AcDbEntity
  8
0
  6
Continuous
 62
               6
100
AcDbLine
 10
176.62886317127914
 20
291.2445796935005
 30
0.0
 11
172.2706731712791
 21
286.88639969350032
 31
0.0
  0
LINE
  5
9B
100
AcDbEntity
  8
0
  6
Continuous
 62
               6
100
AcDbLine
 10
177.28001317127917
 20
289.06730969350036
 30
0.0
 11
172.24210317127915
 21
284.02939969350035
 31
0.0
  0
LINE
  5
9C
100
AcDbEntity
  8
0
  6
Continuous
 62
               6
100
AcDbLine
 10
175.53554317127919
 20
284.49440969350047
 30
0.0
 11
172.2135331712791
 21
281.17239969350038
 31
0.0
  0
LINE
  5
9D
100
AcDbEntity
  8
0
  6
Continuous
 62
               6
100
AcDbLine
 10
176.74187317127917
 20
282.8723196935004
 30
0.0
 11
172.18496317127915
 21
278.31539969350041
 31
0.0
  0
LINE
  5
9E
100
AcDbEntity
  8
0
  6
Continuous
 62
               6
100
AcDbLine
 10
177.20284317127914
 20
280.50485969350046
 30
0.0
 11
172.15639317127909
 21
275.45840969350041
 31
0.0
  0
LINE
  5
9F
100
AcDbEntity
  8
0
  6
Continuous
 62
               6
100
AcDbLine
 10
176.78183317127912
 20
277.25542969350039
 30
0.0
 11
172.12782317127915
 21
272.60140969350044
 31
0.0
  0
LINE
  5
A0
100
AcDbEntity
  8
0
  6
Continuous
 62
               6
100
AcDbLine
 10
178.24737317127915
 20
275.89253969350028
 30
0.0
 11
173.10656317127916
 21
270.75171969350043
 31
0.0
  0
LINE
  5
A1
100
AcDbEntity
  8
0
  6
Continuous
 62
               6
100
AcDbLine
 10
180.61728317127915
 20
275.4340096935004
 30
0.0
 11
175.90698317127919
 21
270.72371969350041
 31
0.0
  0
LINE
  5
A2
100
AcDbEntity
  8
0
  6
Continuous
 62
               6
100
AcDbLine
 10
183.48135317127912
 20
275.46965969350043
 30
0.0
 11
178.70740317127911
 21
270.69570969350042
 31
0.0
  0
LINE
  5
A3
100
AcDbEntity
  8
0
  6
Continuous
 62
               6
100
AcDbLine
 10
185.32785317127912
 20
274.48772969350028
 30
0.0
 11
181.50783317127912
 21
270.6677096935004
 31
0.0
  0
LINE
  5
A4
100
AcDbEntity
  8
0
  6
Continuous
 62
               6
100
AcDbLine
 10
189.15932317127908
 20
275.49077969350054
 30
0.0
 11
184.30825317127915
 21
270.6396996935004
 31
0.0
  0
LINE
  5
A5
100
AcDbEntity
  8
0
  6
Continuous
 62
               6
100
AcDbLine
 10
191.78813317127913
 20
275.29114969350047
 30
0.0
 11
187.10867317127918
 21
270.61169969350038
 31
0.0
  0
LINE
  5
A6
100
AcDbEntity
  8
0
  6
DASHED
 62
               7
100
AcDbLine
 10
187.11867317127917
 20
271.61164969350028
 30
0.0
 11
172.1194231712791
 21
271.7616396935004
 31
0.0
  0
LINE
  5
A7
100
AcDbEntity
  8
0
  6
Continuous
 62
               6
100
AcDbLine
 10
174.13537317127918
 20
325.52063969350041
 30
0.0
 11
172.64208317127918
 21
324.0273596935005
 31
0.0
  0
LINE
  5
A8
100
AcDbEntity
  8
0
  6
Continuous
 62
               6
100
AcDbLine
 10
175.93554317127916
 20
324.49238969350034
 30
0.0
 11
172.61351317127912
 21
321.17035969350053
 31
0.0
  0
LINE
  5
A9
100
AcDbEntity
  8
0
  6
Continuous
 62
               6
100
AcDbLine
 10
177.14187317127914
 20
322.8702896935003
 30
0.0
 11
172.58494317127918
 21
318.31335969350056
 31
0.0
  0
LINE
  5
AA
100
AcDbEntity
  8
0
  6
Continuous
 62
               6
100
AcDbLine
 10
177.60282317127917
 20
320.50281969350061
 30
0.0
 11
172.55637317127912
 21
315.45636969350033
 31
0.0
  0
LINE
  5
AB
100
AcDbEntity
  8
0
  6
Continuous
 62
               6
100
AcDbLine
 10
176.14336317127913
 20
316.21492969350055
 30
0.0
 11
172.52780317127917
 21
312.59936969350036
 31
0.0
  0
LINE
  5
AC
100
AcDbEntity
  8
0
  6
Continuous
 62
               6
100
AcDbLine
 10
177.22751317127916
 20
314.47065969350041
 30
0.0
 11
172.49923317127912
 21
309.74236969350039
 31
0.0
  0
LINE
  5
AD
100
AcDbEntity
  8
0
  6
Continuous
 62
               6
100
AcDbLine
 10
177.44837317127917
 20
311.86308969350029
 30
0.0
 11
172.47066317127917
 21
306.8853796935004
 31
0.0
  0
LINE
  5
AE
100
AcDbEntity
  8
0
  6
Continuous
 62
               6
100
AcDbLine
 10
176.32849317127909
 20
307.91477969350052
 30
0.0
 11
172.44209317127911
 21
304.02837969350043
 31
0.0
  0
LINE
  5
AF
100
AcDbEntity
  8
0
  6
Continuous
 62
               7
100
AcDbLine
 10
182.13392317127909
 20
323.16406969350049
 30
0.0
 11
178.13412317127916
 21
323.20405969350048
 31
0.0
  0
LINE
  5
B0
100
AcDbEntity
  8
0
  6
Continuous
 62
               7
100
AcDbLine
 10
182.15392317127919
 20
325.16396969350052
 30
0.0
 11
178.15412317127914
 21
325.20395969350028
 31
0.0
  0
LINE
  5
B1
100
AcDbEntity
  8
0
  6
Continuous
 62
               7
100
AcDbLine
 10
182.17392317127917
 20
327.16386969350032
 30
0.0
 11
182.15392317127919
 21
325.16396969350052
 31
0.0
  0
LINE
  5
B2
100
AcDbEntity
  8
0
  6
Continuous
 62
               7
100
AcDbLine
 10
178.17412317127912
 20
327.20385969350053
 30
0.0
 11
178.15412317127914
 21
325.20395969350028
 31
0.0
  0
LINE
  5
B3
100
AcDbEntity
  8
0
  6
Continuous
 62
               7
100
AcDbLine
 10
184.17382317127908
 20
327.14386969350033
 30
0.0
 11
176.1742231712791
 21
327.22385969350051
 31
0.0
  0
LINE
  5
B4
100
AcDbEntity
  8
0
  6
DASHDOT
 62
               7
100
AcDbLine
 10
180.19402317127913
 20
329.18375969350035
 30
0.0
 11
180.11402317127909
 21
321.18415969350048
 31
0.0
  0
LINE
  5
B5
100
AcDbEntity
  8
0
  6
Continuous
 62
               7
100
AcDbLine
 10
187.6586431712791
 20
325.60893969350053
 30
0.0
 11
187.66864317127909
 21
326.60888969350043
 31
0.0
  0
LINE
  5
B6
100
AcDbEntity
  8
0
  6
Continuous
 62
               7
100
AcDbLine
 10
172.65939317127913
 20
325.75893969350039
 30
0.0
 11
172.66939317127913
 21
326.75888969350052
 31
0.0
  0
LINE
  5
B7
100
AcDbEntity
  8
0
  6
Continuous
 62
               7
100
AcDbLine
 10
187.66864317127909
 20
326.60888969350043
 30
0.0
 11
172.66939317127913
 21
326.75888969350052
 31
0.0
  0
LINE
  5
B8
100
AcDbEntity
  8
0
  6
Continuous
 62
               3
100
AcDbLine
 10
250.67049317127919
 20
326.47889969350052
 30
0.0
 11
250.11552317127916
 21
270.98168969350053
 31
0.0
  0
LINE
  5
B9
100
AcDbEntity
  8
0
  6
Continuous
 62
               6
100
AcDbLine
 10
194.70451317127913
 20
272.55067969350029
 30
0.0
 11
192.7095231712791
 21
270.5556896935006
 31
0.0
  0
LINE
  5
BA
100
AcDbEntity
  8
0
  6
Continuous
 62
               3
100
AcDbLine
 10
210.19319317127918
 20
269.70296969350028
 30
0.0
 11
219.58705317127919
 21
268.28681969350049
 31
0.0
  0
LINE
  5
BB
100
AcDbEntity
  8
0
  6
Continuous
 62
               3
100
AcDbLine
 10
250.11552317127916
 20
270.98168969350053
 30
0.0
 11
240.11602317127915
 21
271.08168969350044
 31
0.0
  0
LINE
  5
BC
100
AcDbEntity
  8
0
  6
Continuous
 62
               7
100
AcDbLine
 10
234.69129317127909
 20
328.63878969350043
 30
0.0
 11
226.6916931712791
 21
328.71878969350036
 31
0.0
  0
LINE
  5
BD
100
AcDbEntity
  8
0
  6
Continuous
 62
               4
100
AcDbLine
 10
250.67049317127919
 20
326.47889969350052
 30
0.0
 11
200.67299317127913
 21
326.97887969350057
 31
0.0
  0
LINE
  5
BE
100
AcDbEntity
  8
0
  6
Continuous
 62
               7
100
AcDbLine
 10
212.63240317127918
 20
322.85907969350041
 30
0.0
 11
208.63260317127913
 21
322.8990796935006
 31
0.0
  0
LINE
  5
BF
100
AcDbEntity
  8
0
  6
Continuous
 62
               7
100
AcDbLine
 10
212.65240317127916
 20
324.85897969350043
 30
0.0
 11
208.65260317127911
 21
324.89897969350039
 31
0.0
  0
LINE
  5
C0
100
AcDbEntity
  8
0
  6
Continuous
 62
               7
100
AcDbLine
 10
212.71239317127913
 20
330.85867969350028
 30
0.0
 11
212.65240317127916
 21
324.85897969350043
 31
0.0
  0
LINE
  5
C1
100
AcDbEntity
  8
0
  6
Continuous
 62
               7
100
AcDbLine
 10
208.71259317127908
 20
330.89867969350047
 30
0.0
 11
208.65260317127911
 21
324.89897969350039
 31
0.0
  0
LINE
  5
C2
100
AcDbEntity
  8
0
  6
Continuous
 62
               7
100
AcDbLine
 10
214.71229317127916
 20
330.8386796935003
 30
0.0
 11
206.71269317127917
 21
330.91867969350045
 31
0.0
  0
LINE
  5
C3
100
AcDbEntity
  8
0
  6
DASHDOT
 62
               7
100
AcDbLine
 10
210.72749317127909
 20
332.37860969350044
 30
0.0
 11
210.61250317127917
 21
320.87917969350036
 31
0.0
  0
LINE
  5
C4
100
AcDbEntity
  8
0
  6
Continuous
 62
               7
100
AcDbLine
 10
232.63140317127909
 20
322.65908969350056
 30
0.0
 11
228.63160317127915
 21
322.69908969350053
 31
0.0
  0
LINE
  5
C5
100
AcDbEntity
  8
0
  6
Continuous
 62
               7
100
AcDbLine
 10
232.65140317127918
 20
324.65898969350036
 30
0.0
 11
228.65160317127913
 21
324.69898969350032
 31
0.0
  0
LINE
  5
C6
100
AcDbEntity
  8
0
  6
Continuous
 62
               7
100
AcDbLine
 10
232.69139317127917
 20
328.65878969350041
 30
0.0
 11
232.65140317127918
 21
324.65898969350036
 31
0.0
  0
LINE
  5
C7
100
AcDbEntity
  8
0
  6
Continuous
 62
               7
100
AcDbLine
 10
228.69159317127912
 20
328.69878969350037
 30
0.0
 11
228.65160317127913
 21
324.69898969350032
 31
0.0
  0
LINE
  5
C8
100
AcDbEntity
  8
0
  6
DASHDOT
 62
               7
100
AcDbLine
 10
230.70649317127913
 20
330.17871969350034
 30
0.0
 11
230.61150317127908
 21
320.67918969350029
 31
0.0
  0
LINE
  5
C9
100
AcDbEntity
  8
0
  6
Continuous
 62
               4
100
AcDbLine
 10
269.18957317127911
 20
328.29380969350058
 30
0.0
 11
250.68549317127918
 21
327.97882969350047
 31
0.0
  0
LINE
  5
CA
100
AcDbEntity
  8
0
  6
Continuous
 62
               3
100
AcDbLine
 10
269.17457317127912
 20
326.7938796935004
 30
0.0
 11
252.72380317127909
 21
325.52024969350049
 31
0.0
  0
LINE
  5
CB
100
AcDbEntity
  8
0
  6
Continuous
 62
               3
100
AcDbLine
 10
170.70949317127918
 20
330.77867969350024
 30
0.0
 11
269.20457317127909
 21
329.79372969350032
 31
0.0
  0
LINE
  5
CC
100
AcDbEntity
  8
0
  6
Continuous
 62
               7
100
AcDbLine
 10
492.72221379872315
 20
285.53212780306575
 30
0.0
 11
602.71545788015135
 21
284.31300662642997
 31
0.0
  0
LINE
  5
CD
100
AcDbEntity
  8
0
  6
Continuous
 62
               7
100
AcDbLine
 10
492.9771209538377
 20
308.53071520190991
 30
0.0
 11
492.72221379872315
 21
285.53212780306575
 31
0.0
  0
LINE
  5
CE
100
AcDbEntity
  8
0
  6
Continuous
 62
               7
100
AcDbLine
 10
591.14406039768062
 20
300.49224518399723
 30
0.0
 11
583.64452102849248
 21
300.57536708240417
 31
0.0
  0
LINE
  5
CF
100
AcDbEntity
  8
0
  6
Continuous
 62
               7
100
AcDbLine
 10
591.06093849927368
 20
292.99270581480886
 30
0.0
 11
583.56139913008531
 21
293.0758277132158
 31
0.0
  0
LINE
  5
D0
100
AcDbEntity
  8
0
  6
Continuous
 62
               7
100
AcDbLine
 10
548.64667063894706
 20
300.96326927497006
 30
0.0
 11
556.1462100081352
 21
300.88014737656312
 31
0.0
  0
LINE
  5
D1
100
AcDbEntity
  8
0
  6
Continuous
 62
               7
100
AcDbLine
 10
548.56354874054011
 20
293.4637299057818
 30
0.0
 11
556.06308810972826
 21
293.38060800737475
 31
0.0
  0
LINE
  5
D2
100
AcDbEntity
  8
0
  6
Continuous
 62
               7
100
AcDbLine
 10
482.97773512825336
 20
308.64154439978591
 30
0.0
 11
536.52313933827475
 21
308.0480685301622
 31
0.0
  0
LINE
  5
D3
100
AcDbEntity
  8
0
  6
Continuous
 62
               7
100
AcDbLine
 10
470.9452233781891
 20
305.77472368956177
 30
0.0
 11
492.94387219447447
 21
305.53089945423466
 31
0.0
  0
LINE
  5
D4
100
AcDbEntity
  8
0
  6
Continuous
 62
               7
100
AcDbLine
 10
471.11146717500299
 20
320.77380242793851
 30
0.0
 11
470.9452233781891
 21
305.77472368956188
 31
0.0
  0
LINE
  5
D5
100
AcDbEntity
  8
0
  6
Continuous
 62
               7
100
AcDbLine
 10
493.16553059022692
 20
325.52967110540334
 30
0.0
 11
476.1665746867335
 21
325.71808074179268
 31
0.0
  0
LINE
  5
D6
100
AcDbEntity
  8
0
  6
Continuous
 62
               7
100
AcDbLine
 10
531.16873818734155
 20
325.60848944475384
 30
0.0
 11
530.9747870910586
 21
308.10956424998125
 31
0.0
  0
LINE
  5
D7
100
AcDbEntity
  8
0
  6
Continuous
 62
               7
100
AcDbLine
 10
535.66846180885443
 20
325.55861630570968
 30
0.0
 11
493.17107205012087
 21
326.02964039668262
 31
0.0
  0
LINE
  5
D8
100
AcDbEntity
  8
0
  6
Continuous
 62
               7
100
AcDbLine
 10
535.70725202811116
 20
329.05840134466422
 30
0.0
 11
493.20986226937737
 21
329.52942543563728
 31
0.0
  0
LINE
  5
D9
100
AcDbEntity
  8
0
  6
Continuous
 62
               7
100
AcDbLine
 10
493.24311102874015
 20
332.52924118331254
 30
0.0
 11
493.16553059022692
 21
325.52967110540334
 31
0.0
  0
LINE
  5
DA
100
AcDbEntity
  8
0
  6
Continuous
 62
               7
100
AcDbLine
 10
493.24311102874015
 20
332.52924118331254
 30
0.0
 11
535.74050078747393
 21
332.05821709233959
 31
0.0
  0
LINE
  5
DB
100
AcDbEntity
  8
0
  6
Continuous
 62
               7
100
AcDbLine
 10
496.32376971875351
 20
344.72474093646628
 30
0.0
 11
503.03206242806323
 21
340.77775639132579
 31
0.0
  0
LINE
  5
DC
100
AcDbEntity
  8
0
  6
Continuous
 62
               7
100
AcDbLine
 10
498.09865085129172
 20
347.74132790941434
 30
0.0
 11
504.80694356060167
 21
343.79434336427374
 31
0.0
  0
LINE
  5
DD
100
AcDbEntity
  8
0
  6
Continuous
 62
               7
100
AcDbLine
 10
496.32376971875351
 20
344.72474093646628
 30
0.0
 11
498.09865085129172
 21
347.74132790941434
 31
0.0
  0
LINE
  5
DE
100
AcDbEntity
  8
0
  6
Continuous
 62
               7
100
AcDbLine
 10
503.03206242806323
 20
340.77775639132579
 30
0.0
 11
536.18729289427472
 21
341.04040157068488
 31
0.0
  0
LINE
  5
DF
100
AcDbEntity
  8
0
  6
Continuous
 62
               7
100
AcDbLine
 10
496.32376971875351
 20
344.72474093646616
 30
0.0
 11
496.30396613609389
 21
347.22466249885855
 31
0.0
  0
LINE
  5
E0
100
AcDbEntity
  8
0
  6
Continuous
 62
               7
100
AcDbLine
 10
497.80163891260258
 20
347.23652658574548
 30
0.0
 11
496.30396613609389
 21
347.22466249885855
 31
0.0
  0
LINE
  5
E1
100
AcDbEntity
  8
0
  6
Continuous
 62
               7
100
AcDbLine
 10
536.28961358974971
 20
344.04130625073873
 30
0.0
 11
504.81102341897338
 21
343.79194288196953
 31
0.0
  0
LINE
  5
E2
100
AcDbEntity
  8
0
  6
Continuous
 62
               7
100
AcDbLine
 10
536.37991216532623
 20
347.54213138340043
 30
0.0
 11
498.94126729832738
 21
347.24555435896747
 31
0.0
  0
LINE
  5
E3
100
AcDbEntity
  8
0
  6
Continuous
 62
               2
100
AcDbLine
 10
471.13363889450824
 20
322.77421010027041
 30
0.0
 11
172.68642292117522
 21
325.75866939622102
 31
0.0
  0
LINE
  5
E4
100
AcDbEntity
  8
0
  6
Continuous
 62
               2
100
AcDbLine
 10
471.0228096325439
 20
312.77481849242253
 30
0.0
 11
172.58643292117517
 21
315.75916939622113
 31
0.0
  0
LINE
  5
E5
100
AcDbEntity
  8
0
  6
DASHED
 62
               6
100
AcDbLine
 10
471.02280962773904
 20
312.77481805890892
 30
0.0
 11
531.01984506330325
 21
312.1748472045528
 31
0.0
  0
LINE
  5
E6
100
AcDbEntity
  8
0
  6
DASHED
 62
               6
100
AcDbLine
 10
471.13363895399539
 20
322.77421546740669
 30
0.0
 11
531.13067444499109
 21
322.1742496142661
 31
0.0
  0
LINE
  5
E7
100
AcDbEntity
  8
0
  6
Continuous
 62
               7
100
AcDbLine
 10
541.24666695089491
 20
312.0725889367306
 30
0.0
 11
538.88774350592382
 21
309.15982125975432
 31
0.0
  0
LINE
  5
E8
100
AcDbEntity
  8
0
  6
Continuous
 62
               7
100
AcDbLine
 10
603.01628769853698
 20
311.45489233460904
 30
0.0
 11
602.71545788015135
 21
284.31300662642997
 31
0.0
  0
LINE
  5
E9
100
AcDbEntity
  8
0
  6
DASHED
 62
               7
100
AcDbLine
 10
541.24666695089491
 20
312.0725889367306
 30
0.0
 11
546.69338240376726
 21
318.79812161590081
 31
0.0
  0
LINE
  5
EA
100
AcDbEntity
  8
0
  6
DASHED
 62
               7
100
AcDbLine
 10
591.08747270233459
 20
317.94394417958887
 30
0.0
 11
603.08673569303585
 21
317.81094914213776
 31
0.0
  0
LINE
  5
EB
100
AcDbEntity
  8
0
  6
DASHED
 62
               7
100
AcDbLine
 10
573.04978799702587
 20
314.64365169681111
 30
0.0
 11
573.07195383660121
 21
316.64352886192802
 31
0.0
  0
LINE
  5
EC
100
AcDbEntity
  8
0
  6
DASHED
 62
               7
100
AcDbLine
 10
588.01561797603983
 20
311.47759215232185
 30
0.0
 11
576.01635498533881
 21
311.61058718977296
 31
0.0
  0
LINE
  5
ED
100
AcDbEntity
  8
0
  6
DASHED
 62
               7
100
AcDbLine
 10
591.04868248307787
 20
314.44415914063421
 30
0.0
 11
591.08747270233459
 21
317.94394417958887
 31
0.0
  0
LINE
  5
EE
100
AcDbEntity
  8
0
  6
DASHED
 62
               7
100
AcDbLine
 10
549.05798657141656
 20
319.90987434549282
 30
0.0
 11
570.1053868482885
 21
319.67659336896617
 31
0.0
  0
LINE
  5
EF
100
AcDbEntity
  8
0
  6
DASHED
 62
               7
100
AcDbLine
 10
603.01628769853698
 20
311.45489233460904
 30
0.0
 11
603.08673569303585
 21
317.81094914213776
 31
0.0
  0
LINE
  5
F0
100
AcDbEntity
  8
0
  6
DASHED
 62
               7
100
AcDbLine
 10
483.04423264697891
 20
314.64117589513666
 30
0.0
 11
482.94448636889058
 21
305.64172865211066
 31
0.0
  0
LINE
  5
F1
100
AcDbEntity
  8
0
  6
Continuous
 62
               2
100
AcDbLine
 10
770.07953383509584
 20
264.78205153387154
 30
0.0
 11
172.13645292117519
 21
270.76141939622113
 31
0.0
  0
LINE
  5
F2
100
AcDbEntity
  8
0
  6
Continuous
 62
               2
100
AcDbLine
 10
770.17952733217317
 20
274.78150650807697
 30
0.0
 11
172.23645292117521
 21
280.76091939622103
 31
0.0
  0
LINE
  5
F3
100
AcDbEntity
  8
0
  6
Continuous
 62
               2
100
AcDbLine
 10
770.52950617354509
 20
309.77975907961974
 30
0.0
 11
531.01984517430867
 21
312.17485721983547
 31
0.0
  0
LINE
  5
F4
100
AcDbEntity
  8
0
  6
Continuous
 62
               2
100
AcDbLine
 10
770.62950012148087
 20
319.77925914014043
 30
0.0
 11
531.13067443737532
 21
322.17424892713569
 31
0.0
  0
LINE
  5
F5
100
AcDbEntity
  8
0
  6
DASHDOT
 62
               7
100
AcDbLine
 10
470.7449166919111
 20
332.77860687853337
 30
0.0
 11
800.72799529631027
 21
329.47877398423276
 31
0.0
  0
CIRCLE
  5
F6
100
AcDbEntity
  8
0
  6
Continuous
 62
               4
100
AcDbCircle
 10
471.10447337107257
 20
368.77680702903672
 30
0.0
 40
1.500000000000002
  0
CIRCLE
  5
F7
100
AcDbEntity
  8
0
  6
Continuous
 62
               4
100
AcDbCircle
 10
171.11947104845666
 20
371.77664412219792
 30
0.0
 40
1.500000000000002
  0
CIRCLE
  5
F8
100
AcDbEntity
  8
0
  6
Continuous
 62
               4
100
AcDbCircle
 10
170.93948082350806
 20
353.77754404694622
 30
0.0
 40
1.500000000000002
  0
CIRCLE
  5
F9
100
AcDbEntity
  8
0
  6
Continuous
 62
               4
100
AcDbCircle
 10
270.93441000968573
 20
352.777599065103
 30
0.0
 40
1.500000000000002
  0
CIRCLE
  5
FA
100
AcDbEntity
  8
0
  6
Continuous
 62
               4
100
AcDbCircle
 10
797.07818396475648
 20
264.51206787478242
 30
0.0
 40
1.500000000000002
  0
CIRCLE
  5
FB
100
AcDbEntity
  8
0
  6
Continuous
 62
               4
100
AcDbCircle
 10
797.62815025114162
 20
319.5092754810513
 30
0.0
 40
1.500000000000002
  0
CIRCLE
  5
FC
100
AcDbEntity
  8
0
  6
Continuous
 62
               4
100
AcDbCircle
 10
797.62815025114151
 20
319.50927548105125
 30
0.0
 40
1.500000000000002
  0
CIRCLE
  5
FD
100
AcDbEntity
  8
0
  6
Continuous
 62
               4
100
AcDbCircle
 10
797.73901537470181
 20
329.51190264362822
 30
0.0
 40
1.500000000000002
  0
CIRCLE
  5
FE
100
AcDbEntity
  8
0
  6
Continuous
 62
               4
100
AcDbCircle
 10
169.71954502408875
 20
231.78363951997045
 30
0.0
 40
1.500000000000002
  0
CIRCLE
  5
FF
100
AcDbEntity
  8
0
  6
Continuous
 62
               4
100
AcDbCircle
 10
219.71702528366927
 20
231.28367007090711
 30
0.0
 40
1.500000000000002
  0
CIRCLE
  5
100
100
AcDbEntity
  8
0
  6
Continuous
 62
               4
100
AcDbCircle
 10
134.66129550854103
 20
326.13892161831535
 30
0.0
 40
1.500000000000002
  0
CIRCLE
  5
101
100
AcDbEntity
  8
0
  6
Continuous
 62
               4
100
AcDbCircle
 10
134.11132161227391
 20
271.1416716741702
 30
0.0
 40
1.500000000000002
  0
CIRCLE
  5
102
100
AcDbEntity
  8
0
  6
Continuous
 62
               7
100
AcDbCircle
 10
520.2792642939545
 20
290.52702199646654
 30
0.0
 40
2.25
  0
CIRCLE
  5
103
100
AcDbEntity
  8
0
  6
Continuous
 62
               7
100
AcDbCircle
 10
574.77591704338931
 20
289.92300286804237
 30
0.0
 40
2.25
  0
ARC
  5
104
100
AcDbEntity
  8
0
  6
Continuous
 62
               6
100
AcDbCircle
 10
354.24449292117527
 20
419.77860687853337
 30
0.0
 40
13.0
100
AcDbArc
 50
270.0
 51
0.0
  0
ARC
  5
105
100
AcDbEntity
  8
0
  6
Continuous
 62
               6
100
AcDbCircle
 10
387.24449292117527
 20
419.77860687853337
 30
0.0
 40
13.0
100
AcDbArc
 50
180.0
 51
270.0
  0
ARC
  5
106
100
AcDbEntity
  8
0
  6
Continuous
 62
               6
100
AcDbCircle
 10
423.74449292117527
 20
396.77860687853337
 30
0.0
 40
3.0
100
AcDbArc
 50
180.0
 51
270.0
  0
ARC
  5
107
100
AcDbEntity
  8
0
  6
Continuous
 62
               6
100
AcDbCircle
 10
487.24449292117527
 20
349.27860687853337
 30
0.0
 40
8.5
100
AcDbArc
 50
180.0
 51
270.0
  0
ARC
  5
108
100
AcDbEntity
  8
0
  6
Continuous
 62
               6
100
AcDbCircle
 10
469.74449292117527
 20
350.77860687853337
 30
0.0
 40
3.0
100
AcDbArc
 50
180.0
 51
270.0
  0
ARC
  5
109
100
AcDbEntity
  8
0
  6
Continuous
 62
               6
100
AcDbCircle
 10
529.74443292117519
 20
334.77860687853337
 30
0.0
 40
6.0
100
AcDbArc
 50
0.0
 51
89.999999999999957
  0
ARC
  5
10A
100
AcDbEntity
  8
0
  6
Continuous
 62
               6
100
AcDbCircle
 10
472.74449292117527
 20
391.77860687853337
 30
0.0
 40
6.0
100
AcDbArc
 50
0.0
 51
89.999999999999957
  0
ARC
  5
10B
100
AcDbEntity
  8
0
  6
Continuous
 62
               6
100
AcDbCircle
 10
460.24449292117527
 20
387.27860687853337
 30
0.0
 40
6.5
100
AcDbArc
 50
0.0
 51
89.999999999999957
  0
ARC
  5
10C
100
AcDbEntity
  8
0
  6
Continuous
 62
               6
100
AcDbCircle
 10
190.1085231712791
 20
270.58169969350041
 30
0.0
 40
5.0
100
AcDbArc
 50
359.42706000000004
 51
142.55715999999995
  0
ARC
  5
10D
100
AcDbEntity
  8
0
  6
Continuous
 62
               6
100
AcDbCircle
 10
172.44941317127916
 20
304.75998969350047
 30
0.0
 40
5.0
100
AcDbArc
 50
269.42706000000004
 51
52.557162999999989
  0
ARC
  5
10E
100
AcDbEntity
  8
0
  6
Continuous
 62
               6
100
AcDbCircle
 10
182.10892317127912
 20
270.66169969350057
 30
0.0
 40
5.0
100
AcDbArc
 50
359.42706000000004
 51
127.01655999999997
  0
ARC
  5
10F
100
AcDbEntity
  8
0
  6
Continuous
 62
               6
100
AcDbCircle
 10
172.1094231712791
 20
270.7616896935005
 30
0.0
 40
8.0
100
AcDbArc
 50
359.42706000000004
 51
59.740765999999972
  0
ARC
  5
110
100
AcDbEntity
  8
0
  6
Continuous
 62
               6
100
AcDbCircle
 10
172.20942317127913
 20
280.7611896935004
 30
0.0
 40
5.0
100
AcDbArc
 50
269.42706000000004
 51
52.557162999999989
  0
ARC
  5
111
100
AcDbEntity
  8
0
  6
Continuous
 62
               6
100
AcDbCircle
 10
172.28941317127919
 20
288.7607896935005
 30
0.0
 40
5.0
100
AcDbArc
 50
269.42706000000004
 51
52.557162999999989
  0
ARC
  5
112
100
AcDbEntity
  8
0
  6
Continuous
 62
               6
100
AcDbCircle
 10
172.36941317127912
 20
296.76038969350037
 30
0.0
 40
5.0
100
AcDbArc
 50
269.42706000000004
 51
52.557162999999989
  0
ARC
  5
113
100
AcDbEntity
  8
0
  6
Continuous
 62
               6
100
AcDbCircle
 10
172.52940317127911
 20
312.75958969350057
 30
0.0
 40
5.0
100
AcDbArc
 50
269.42706000000004
 51
52.557162999999989
  0
ARC
  5
114
100
AcDbEntity
  8
0
  6
Continuous
 62
               6
100
AcDbCircle
 10
172.60940317127915
 20
320.75918969350045
 30
0.0
 40
5.0
100
AcDbArc
 50
269.42706000000004
 51
89.427060999999938
  0
ARC
  5
115
100
AcDbEntity
  8
0
  6
Continuous
 62
               7
100
AcDbCircle
 10
182.14392317127908
 20
324.16401969350039
 30
0.0
 40
1.0
100
AcDbArc
 50
269.42706000000004
 51
89.427060999999938
  0
ARC
  5
116
100
AcDbEntity
  8
0
  6
Continuous
 62
               7
100
AcDbCircle
 10
178.14412317127915
 20
324.20400969350038
 30
0.0
 40
1.0
100
AcDbArc
 50
89.427060999999952
 51
269.42706000000004
  0
ARC
  5
117
100
AcDbEntity
  8
0
  6
Continuous
 62
               7
100
AcDbCircle
 10
180.0990231712791
 20
319.6842396935005
 30
0.0
 40
8.5
100
AcDbArc
 50
61.354573999999985
 51
117.49954000000001
  0
ARC
  5
118
100
AcDbEntity
  8
0
  6
Continuous
 62
               3
100
AcDbCircle
 10
219.58205317127909
 20
267.78684969350041
 30
0.0
 40
0.5
100
AcDbArc
 50
269.42706000000004
 51
89.427066999999965
  0
ARC
  5
119
100
AcDbEntity
  8
0
  6
Continuous
 62
               7
100
AcDbCircle
 10
232.64140317127919
 20
323.65903969350046
 30
0.0
 40
1.0
100
AcDbArc
 50
269.42706000000004
 51
89.427060999999938
  0
ARC
  5
11A
100
AcDbEntity
  8
0
  6
Continuous
 62
               7
100
AcDbCircle
 10
230.61650317127919
 20
321.17916969350034
 30
0.0
 40
8.5
100
AcDbArc
 50
61.354573999999985
 51
117.49954000000001
  0
ARC
  5
11B
100
AcDbEntity
  8
0
  6
Continuous
 62
               7
100
AcDbCircle
 10
212.64240317127917
 20
323.85902969350053
 30
0.0
 40
1.0
100
AcDbArc
 50
269.42706000000004
 51
89.427060999999938
  0
ARC
  5
11C
100
AcDbEntity
  8
0
  6
Continuous
 62
               7
100
AcDbCircle
 10
208.64260317127912
 20
323.89902969350049
 30
0.0
 40
1.0
100
AcDbArc
 50
89.427060999999952
 51
269.42706000000004
  0
ARC
  5
11D
100
AcDbEntity
  8
0
  6
Continuous
 62
               7
100
AcDbCircle
 10
210.63750317127915
 20
323.37905969350044
 30
0.0
 40
8.5
100
AcDbArc
 50
61.354573999999985
 51
117.49954000000001
  0
ARC
  5
11E
100
AcDbEntity
  8
0
  6
Continuous
 62
               7
100
AcDbCircle
 10
228.64160317127914
 20
323.69903969350042
 30
0.0
 40
1.0
100
AcDbArc
 50
89.427060999999952
 51
269.42706000000004
  0
ARC
  5
11F
100
AcDbEntity
  8
0
  6
Continuous
 62
               3
100
AcDbCircle
 10
269.18957317127911
 20
328.29380969350058
 30
0.0
 40
1.5
100
AcDbArc
 50
269.42706000000004
 51
89.427060999999938
  0
ARC
  5
120
100
AcDbEntity
  8
0
  6
Continuous
 62
               7
100
AcDbCircle
 10
536.55638809763752
 20
311.04788427783745
 30
0.0
 40
3.0
100
AcDbArc
 50
269.36498247105141
 51
320.99749708618958
  0
ARC
  5
121
100
AcDbEntity
  8
0
  6
Continuous
 62
               7
100
AcDbCircle
 10
583.60296007928889
 20
296.82559739780999
 30
0.0
 40
3.75
100
AcDbArc
 50
89.364982471051405
 51
269.36498247105141
  0
ARC
  5
122
100
AcDbEntity
  8
0
  6
Continuous
 62
               7
100
AcDbCircle
 10
591.10249944847726
 20
296.74247549940304
 30
0.0
 40
3.75
100
AcDbArc
 50
269.36498247105141
 51
89.364982471051391
  0
ARC
  5
123
100
AcDbEntity
  8
0
  6
Continuous
 62
               7
100
AcDbCircle
 10
548.60510968974347
 20
297.21349959037587
 30
0.0
 40
3.75
100
AcDbArc
 50
89.364982471051405
 51
269.36498247105141
  0
ARC
  5
124
100
AcDbEntity
  8
0
  6
Continuous
 62
               7
100
AcDbCircle
 10
556.10464905893184
 20
297.13037769196893
 30
0.0
 40
3.75
100
AcDbArc
 50
269.36498247105141
 51
89.364982471051391
  0
ARC
  5
125
100
AcDbEntity
  8
0
  6
Continuous
 62
               7
100
AcDbCircle
 10
476.11116008779561
 20
320.71838782900039
 30
0.0
 40
5.0
100
AcDbArc
 50
89.364982471051405
 51
179.36498247105135
  0
ARC
  5
126
100
AcDbEntity
  8
0
  6
Continuous
 62
               7
100
AcDbCircle
 10
535.7903739265181
 20
336.55794071385247
 30
0.0
 40
4.5
100
AcDbArc
 50
269.36498247105141
 51
84.939694704775164
  0
ARC
  5
127
100
AcDbEntity
  8
0
  6
Continuous
 62
               7
100
AcDbCircle
 10
535.7903739265181
 20
336.55794071385247
 30
0.0
 40
7.5
100
AcDbArc
 50
269.36498247105141
 51
86.183267747084713
  0
ARC
  5
128
100
AcDbEntity
  8
0
  6
Continuous
 62
               7
100
AcDbCircle
 10
535.7903739265181
 20
336.55794071385247
 30
0.0
 40
11.000000000000014
100
AcDbArc
 50
269.36498247105141
 51
86.927795970309063
  0
ARC
  5
129
100
AcDbEntity
  8
0
  6
DASHED
 62
               7
100
AcDbCircle
 10
549.02473781205379
 20
316.91005859781757
 30
0.0
 40
3.0
100
AcDbArc
 50
89.364982471051405
 51
140.9974970861895
  0
ARC
  5
12A
100
AcDbEntity
  8
0
  6
DASHED
 62
               7
100
AcDbCircle
 10
570.07213808892573
 20
316.6767776212908
 30
0.0
 40
3.0
100
AcDbArc
 50
359.36498247105141
 51
89.364982471051391
  0
ARC
  5
12B
100
AcDbEntity
  8
0
  6
DASHED
 62
               7
100
AcDbCircle
 10
576.04960374470159
 20
314.61040293744833
 30
0.0
 40
3.0
100
AcDbArc
 50
179.36498247105135
 51
269.36498247105141
  0
ARC
  5
12C
100
AcDbEntity
  8
0
  6
DASHED
 62
               7
100
AcDbCircle
 10
588.04886673540261
 20
314.4774078999971
 30
0.0
 40
3.0
100
AcDbArc
 50
269.36498247105141
 51
359.36498247105141
  0
ARC
  5
12D
100
AcDbEntity
  8
0
  6
DASHED
 62
               7
100
AcDbCircle
 10
477.0446011516284
 20
314.70767341386221
 30
0.0
 40
6.0
100
AcDbArc
 50
359.36498247105141
 51
179.36498247105098
  0
TEXT
  5
12E
100
AcDbEntity
  8
0
 62
               7
100
AcDbText
 10
306.11272214705485
 20
370.42671742974119
 30
0.0
 40
12.000000000000028
  1
(300)
 50
359.42706377165348
 41
0.7695
  7
FontTableH_0
 72
               5
 11
336.11122227247427
 21
370.12673372149345
 31
0.0
100
AcDbText
  0
TEXT
  5
12F
100
AcDbEntity
  8
0
 62
               7
100
AcDbText
 10
211.9373953789711
 20
353.36756666849891
 30
0.0
 40
12.000000000000028
  1
100
 50
359.42706377165382
 41
0.7695
  7
FontTableH_0
 72
               5
 11
229.93649545422278
 21
353.18757644355031
 31
0.0
100
AcDbText
  0
TEXT
  5
130
100
AcDbEntity
  8
0
 62
               7
100
AcDbText
 10
797.29317073926245
 20
286.0109716491034
 30
0.0
 40
12.00000000000016
  1
55
 50
89.42706733336594
 41
0.7695
  7
FontTableH_0
 72
               5
 11
797.41316347663553
 21
298.01037170673038
 31
0.0
100
AcDbText
  0
TEXT
  5
131
100
AcDbEntity
  8
0
 62
               7
100
AcDbText
 10
797.61708529419604
 20
318.51095756698908
 30
0.0
 40
11.999999999999877
  1
10
 50
89.364982471050652
 41
0.7695
  7
FontTableH_0
 72
               5
 11
797.75008033164738
 21
330.51022055769045
 31
0.0
100
AcDbText
  0
TEXT
  5
132
100
AcDbEntity
  8
0
 62
               7
100
AcDbText
 10
590.01700154559569
 20
200.80370942813002
 30
0.0
 40
12.000000000000012
  1
ハーパーズストロングルーフ300C：各種金属板
 41
0.7695
  7
FontTableH_0
 72
               5
 11
842.01700154559592
 21
200.80370942813002
 31
0.0
100
AcDbText
  0
TEXT
  5
133
100
AcDbEntity
  8
0
 62
               7
100
AcDbText
 10
556.24091962905788
 20
400.54791702444373
 30
0.0
 40
12.000000000000012
  1
シートスタット：SUS t1.5加工品
 41
0.7695
  7
FontTableH_0
 72
               5
 11
736.24091962905811
 21
400.54791702444373
 31
0.0
100
AcDbText
  0
TEXT
  5
134
100
AcDbEntity
  8
0
 62
               7
100
AcDbText
 10
524.45962132921238
 20
446.52936988379457
 30
0.0
 40
12.000000000000012
  1
L-65X65X8 通し材（屋根工事外）
 41
0.7695
  7
FontTableH_0
 72
               5
 11
704.45962132921261
 21
446.52936988379457
 31
0.0
100
AcDbText
  0
TEXT
  5
135
100
AcDbEntity
  8
0
 62
               7
100
AcDbText
 10
502.69356431392816
 20
492.37933983055746
 30
0.0
 40
12.000000000000012
  1
L-50X50X4 W=150 @900（屋根工事外）
 41
0.7695
  7
FontTableH_0
 72
               5
 11
706.69356431392839
 21
492.37933983055746
 31
0.0
100
AcDbText
  0
TEXT
  5
136
100
AcDbEntity
  8
0
 62
               7
100
AcDbText
 10
34.71297727402829
 20
365.97893053408939
 30
0.0
 40
12.000000000000012
  1
幕板：各種金属板
 41
0.7695
  7
FontTableH_0
 72
               5
 11
130.71297727402839
 21
365.97893053408939
 31
0.0
100
AcDbText
  0
TEXT
  5
137
100
AcDbEntity
  8
0
 62
               7
100
AcDbText
 10
143.56863035383785
 20
411.85584804811151
 30
0.0
 40
12.000000000000012
  1
力板
 41
0.7695
  7
FontTableH_0
 72
               5
 11
167.56863035383788
 21
411.85584804811151
 31
0.0
100
AcDbText
  0
TEXT
  5
138
100
AcDbEntity
  8
0
 62
               7
100
AcDbText
 10
293.71396279988534
 20
225.90144310220705
 30
0.0
 40
12.000000000000012
  1
吹込み止め：各種金属板
 41
0.7695
  7
FontTableH_0
 72
               5
 11
425.71396279988545
 21
225.90144310220705
 31
0.0
100
AcDbText
  0
TEXT
  5
139
100
AcDbEntity
  8
0
 62
               7
100
AcDbText
 10
242.99912508736597
 20
193.50029678587524
 30
0.0
 40
12.000000000000012
  1
面戸：各種金属板（周囲コーキング）
 41
0.7695
  7
FontTableH_0
 72
               5
 11
446.99912508736628
 21
193.50029678587524
 31
0.0
100
AcDbText
  0
TEXT
  5
13A
100
AcDbEntity
  8
0
 62
               7
100
AcDbText
 10
188.71858512495729
 20
231.59365115330385
 30
0.0
 40
12.00000000000005
  1
50
 50
359.42706743670851
 41
0.7695
  7
FontTableH_0
 72
               5
 11
200.7179851828007
 21
231.47365843757373
 31
0.0
100
AcDbText
  0
TEXT
  5
13B
100
AcDbEntity
  8
0
 62
               7
100
AcDbText
 10
134.32631140781675
 20
292.64059662526836
 30
0.0
 40
11.99999999999997
  1
55
 50
89.427059847258079
 41
0.7695
  7
FontTableH_0
 72
               5
 11
134.4463057129982
 21
304.63999666721725
 31
0.0
100
AcDbText
  0
TEXT
  5
13C
100
AcDbEntity
  8
0
 62
               7
100
AcDbText
 10
744.78679775649653
 20
26.713203554805766
 30
0.0
 40
8.9999997615814333
  1
片棟詳細図 【S=1/3】
 41
0.7695
  7
FontTableH_0
 72
               5
 11
834.78679537231085
 21
26.713203554805766
 31
0.0
100
AcDbText
  0
TEXT
  5
13D
100
AcDbEntity
  8
0
 62
               7
100
AcDbText
 10
21.642137411870216
 20
601.35786449547834
 30
0.0
 40
8.9999997615814333
  1
ハーパーズストロングルーフ300C
 41
0.7695
  7
FontTableH_0
 72
               5
 11
156.64213383559172
 21
601.35786449547834
 31
0.0
100
AcDbText
  0
ENDSEC
  0
SECTION
  2
OBJECTS
  0
DICTIONARY
  5
19
100
AcDbDictionary
  3
ACAD_GROUP
350
1A
  3
ACAD_MLINESTYLE
350
1B
  3
DWGPROPS
350
13E
  0
DICTIONARY
  5
1A
102
{ACAD_REACTORS
330
19
102
}
100
AcDbDictionary
  0
DICTIONARY
  5
1B
102
{ACAD_REACTORS
330
19
102
}
100
AcDbDictionary
  3
STANDARD
350
1C
  0
MLINESTYLE
  5
1C
102
{ACAD_REACTORS
330
1B
102
}
100
AcDbMlineStyle
  2
Standard
 70
               0
  3

 62
               0
 51
90.0
 52
90.0
 71
               2
 49
0.5
 62
             256
  6
ByLayer
 49
-0.5
 62
             256
  6
ByLayer
  0
XRECORD
  5
13E
100
AcDbXrecord
  1
DWGPROPS COOKIE
  2

  3

  4

  6

  7

  0
ENDSEC
  0
EOF
