  0
SECTION
  2
HEADER
  9
$ACADVER
  1
AC1014
  9
$ACADMAINTVER
 70
               0
  9
$DWGCODEPAGE
  3
ANSI_932
  9
$INSBASE
 10
0.0
 20
0.0
 30
0.0
  9
$EXTMIN
 10
0.0
 20
0.0
 30
0.0
  9
$EXTMAX
 10
891.00000000000091
 20
630.00000000000068
 30
0.0
  9
$LIMMIN
 10
0.0
 20
0.0
  9
$LIMMAX
 10
891.00000000000091
 20
630.00000000000068
  9
$ORTHOMODE
 70
               0
  9
$REGENMODE
 70
               1
  9
$FILLMODE
 70
               1
  9
$QTEXTMODE
 70
               0
  9
$MIRRTEXT
 70
               1
  9
$DRAGMODE
 70
               2
  9
$LTSCALE
 40
3.0000000000000031
  9
$OSMODE
 70
               0
  9
$ATTMODE
 70
               1
  9
$TEXTSIZE
 40
0.2
  9
$TRACEWID
 40
0.05
  9
$TEXTSTYLE
  7
Standard
  9
$CLAYER
  8
0
  9
$CELTYPE
  6
Continuous
  9
$CECOLOR
 62
             256
  9
$CELTSCALE
 40
1.0
  9
$DELOBJ
 70
               1
  9
$DISPSILH
 70
               0
  9
$DIMSCALE
 40
1.0
  9
$DIMASZ
 40
0.18
  9
$DIMEXO
 40
0.0625
  9
$DIMDLI
 40
0.38
  9
$DIMRND
 40
0.0
  9
$DIMDLE
 40
0.0
  9
$DIMEXE
 40
0.18
  9
$DIMTP
 40
0.0
  9
$DIMTM
 40
0.0
  9
$DIMTXT
 40
0.18
  9
$DIMCEN
 40
0.09
  9
$DIMTSZ
 40
0.0
  9
$DIMTOL
 70
               0
  9
$DIMLIM
 70
               0
  9
$DIMTIH
 70
               1
  9
$DIMTOH
 70
               1
  9
$DIMSE1
 70
               0
  9
$DIMSE2
 70
               0
  9
$DIMTAD
 70
               0
  9
$DIMZIN
 70
               0
  9
$DIMBLK
  1

  9
$DIMASO
 70
               1
  9
$DIMSHO
 70
               1
  9
$DIMPOST
  1

  9
$DIMAPOST
  1

  9
$DIMALT
 70
               0
  9
$DIMALTD
 70
               2
  9
$DIMALTF
 40
25.399999999999999
  9
$DIMLFAC
 40
1.0
  9
$DIMTOFL
 70
               0
  9
$DIMTVP
 40
0.0
  9
$DIMTIX
 70
               0
  9
$DIMSOXD
 70
               0
  9
$DIMSAH
 70
               0
  9
$DIMBLK1
  1

  9
$DIMBLK2
  1

  9
$DIMSTYLE
  2
Standard
  9
$DIMCLRD
 70
               0
  9
$DIMCLRE
 70
               0
  9
$DIMCLRT
 70
               0
  9
$DIMTFAC
 40
1.0
  9
$DIMGAP
 40
0.09
  9
$DIMJUST
 70
               0
  9
$DIMSD1
 70
               0
  9
$DIMSD2
 70
               0
  9
$DIMTOLJ
 70
               1
  9
$DIMTZIN
 70
               0
  9
$DIMALTZ
 70
               0
  9
$DIMALTTZ
 70
               0
  9
$DIMFIT
 70
               3
  9
$DIMUPT
 70
               0
  9
$DIMUNIT
 70
               2
  9
$DIMDEC
 70
               4
  9
$DIMTDEC
 70
               4
  9
$DIMALTU
 70
               2
  9
$DIMALTTD
 70
               2
  9
$DIMTXSTY
  7
Standard
  9
$DIMAUNIT
 70
               0
  9
$LUNITS
 70
               2
  9
$LUPREC
 70
               4
  9
$SKETCHINC
 40
0.1
  9
$FILLETRAD
 40
0.0
  9
$AUNITS
 70
               0
  9
$AUPREC
 70
               0
  9
$MENU
  1
acad
  9
$ELEVATION
 40
0.0
  9
$PELEVATION
 40
0.0
  9
$THICKNESS
 40
0.0
  9
$LIMCHECK
 70
               0
  9
$BLIPMODE
 70
               1
  9
$CHAMFERA
 40
0.0
  9
$CHAMFERB
 40
0.0
  9
$CHAMFERC
 40
0.0
  9
$CHAMFERD
 40
0.0
  9
$SKPOLY
 70
               0
  9
$TDCREATE
 40
0.000000000
  9
$TDUPDATE
 40
0.000000000
  9
$TDINDWG
 40
0.0000000000
  9
$TDUSRTIMER
 40
0.0000000000
  9
$USRTIMER
 70
               1
  9
$ANGBASE
 50
0.0
  9
$ANGDIR
 70
               0
  9
$PDMODE
 70
               0
  9
$PDSIZE
 40
0.0
  9
$PLINEWID
 40
0.0
  9
$COORDS
 70
               0
  9
$SPLFRAME
 70
               0
  9
$SPLINETYPE
 70
               6
  9
$SPLINESEGS
 70
               8
  9
$ATTDIA
 70
               0
  9
$ATTREQ
 70
               1
  9
$HANDLING
 70
               1
  9
$HANDSEED
  5
FB
  9
$SURFTAB1
 70
               6
  9
$SURFTAB2
 70
               6
  9
$SURFTYPE
 70
               6
  9
$SURFU
 70
               6
  9
$SURFV
 70
               6
  9
$UCSNAME
  2

  9
$UCSORG
 10
0.0
 20
0.0
 30
0.0
  9
$UCSXDIR
 10
1.0
 20
0.0
 30
0.0
  9
$UCSYDIR
 10
0.0
 20
1.0
 30
0.0
  9
$PUCSNAME
  2

  9
$PUCSORG
 10
0.0
 20
0.0
 30
0.0
  9
$PUCSXDIR
 10
1.0
 20
0.0
 30
0.0
  9
$PUCSYDIR
 10
0.0
 20
1.0
 30
0.0
  9
$USERI1
 70
               0
  9
$USERI2
 70
               0
  9
$USERI3
 70
               0
  9
$USERI4
 70
               0
  9
$USERI5
 70
               0
  9
$USERR1
 40
0.0
  9
$USERR2
 40
0.0
  9
$USERR3
 40
0.0
  9
$USERR4
 40
0.0
  9
$USERR5
 40
0.0
  9
$WORLDVIEW
 70
               1
  9
$SHADEDGE
 70
               3
  9
$SHADEDIF
 70
              70
  9
$TILEMODE
 70
               1
  9
$MAXACTVP
 70
              16
  9
$PINSBASE
 10
0.0
 20
0.0
 30
0.0
  9
$PLIMCHECK
 70
               0
  9
$PEXTMIN
 10
1.0000000000000000E+20
 20
1.0000000000000000E+20
 30
1.0000000000000000E+20
  9
$PEXTMAX
 10
-1.0000000000000000E+20
 20
-1.0000000000000000E+20
 30
-1.0000000000000000E+20
  9
$PLIMMIN
 10
0.0
 20
0.0
  9
$PLIMMAX
 10
12.0
 20
9.0
  9
$UNITMODE
 70
               0
  9
$VISRETAIN
 70
               0
  9
$PLINEGEN
 70
               1
  9
$PSLTSCALE
 70
               0
  9
$TREEDEPTH
 70
            3020
  9
$PICKSTYLE
 70
               1
  9
$CMLSTYLE
  2
Standard
  9
$CMLJUST
 70
               0
  9
$CMLSCALE
 40
1.0
  9
$PROXYGRAPHICS
 70
               0
  9
$MEASUREMENT
 70
               0
  0
ENDSEC
  0
SECTION
  2
CLASSES
  0
CLASS
  1
LWPOLYLINE
  2
AcDbPolyline
  3
"AutoCAD"
 90
        0
280
               0
281
               1
  0
CLASS
  1
IMAGE
  2
AcDbRasterImage
  3
ISM
 90
      127
280
               0
281
               1
  0
CLASS
  1
OLE2FRAME
  2
AcDbOle2Frame
  3
""
 90
        0
280
               0
281
               1
  0
CLASS
  1
HATCH
  2
AcDbHatch
  3
"ACAD_SEDONA"
 90
        0
280
               0
281
               1
  0
CLASS
  1
DICTIONARYVAR
  2
AcDbDictionaryVar
  3
"AutoCAD"
 90
        0
280
               0
281
               0
  0
CLASS
  1
RASTERVARIABLES
  2
AcDbRasterVariables
  3
ISM
 90
        0
280
               0
281
               0
  0
CLASS
  1
IMAGEDEF
  2
AcDbRasterImageDef
  3
ISM
 90
        0
280
               0
281
               0
  0
CLASS
  1
IMAGEDEF_REACTOR
  2
AcDbRasterImageDefReactor
  3
ISM
 90
        1
280
               0
281
               0
  0
CLASS
  1
IDBUFFER
  2
AcDbIdBuffer
  3
"Acad"
 90
        0
280
               0
281
               0
  0
CLASS
  1
SPATIAL_FILTER
  2
AcDbSpatialFilter
  3
"Acad"
 90
        0
280
               0
281
               0
  0
CLASS
  1
XRECORD
  2
AcDbXrecord
  3
"<Built In>"
 90
        0
280
               0
281
               0
  0
CLASS
  1
SORTENTSTABLE
  2
AcDbSortentsTable
  3
"AutoCAD"
 90
        0
280
               0
281
               0
  0
CLASS
  1
LAYER_INDEX
  2
AcDbLayerIndex
  3
"Acad"
 90
        0
280
               0
281
               0
  0
CLASS
  1
SPATIAL_INDEX
  2
AcDbSpatialIndex
  3
"Acad"
 90
        0
280
               0
281
               0
  0
CLASS
  1
OBJECT_PTR
  2
CAseDLPNTableRecord
  3
"ASE-LPNTableRecord"
 90
        1
280
               0
281
               0
  0
CLASS
  1
LAYOUT
  2
AcDbLayout
  3
"AutoCAD 2000"
 90
        0
280
               0
281
               0
  0
CLASS
  1
PLOTSETTINGS
  2
AcDbPlotSettings
  3
"AutoCAD 2000"
 90
        0
280
               0
281
               0
  0
CLASS
  1
ACDBDICTIONARYWDFLT
  2
AcDbDictionaryWithDefault
  3
"AutoCAD 2000"
 90
        0
280
               0
281
               0
  0
CLASS
  1
ACDBPLACEHOLDER
  2
AcDbPlaceHolder
  3
"AutoCAD 2000"
 90
        0
280
               0
281
               0
  0
CLASS
  1
VBA_PROJECT
  2
AcDbVbaProject
  3
"acadvba"
 90
        0
280
               0
281
               0
  0
CLASS
  1
WIPEOUT
  2
AcDbWipeout
  3
WipeOut|AutoCAD Express Tool|expresstools@autodesk.com
 90
      127
280
               0
281
               1
  0
CLASS
  1
WIPEOUTVARIABLES
  2
AcDbWipeoutVariables
  3
WipeOut|AutoCAD Express Tool|expresstools@autodesk.com
 90
        0
280
               0
281
               0
  0
CLASS
  1
RTEXT
  2
RText
  3
RText|AutoCAD Express Tool|expresstools@autodesk.com
 90
        0
280
               0
281
               1
  0
CLASS
  1
ARCALIGNEDTEXT
  2
AcDbArcAlignedText
  3
ATEXT|AutoCAD Express Tool|expresstools@autodesk.com
 90
        0
280
               0
281
               1
  0
ENDSEC
  0
SECTION
  2
TABLES
  0
TABLE
  2
VPORT
  5
7
100
AcDbSymbolTable
 70
               1
  0
VPORT
  5
15
100
AcDbSymbolTableRecord
100
AcDbViewportTableRecord
  2
*ACTIVE
 70
               0
 10
0.0
 20
0.0
 11
1.0
 21
1.0
 12
445.50000000000045
 22
315.00000000000034
 13
0.0
 23
0.0
 14
10.0
 24
10.0
 15
10.0
 25
10.0
 16
0.0
 26
0.0
 36
1.0
 17
0.0
 27
0.0
 37
0.0
 40
630.00000000000068
 41
1.4142857142857141
 42
50.0
 43
0.0
 44
0.0
 50
0.0
 51
0.0
 71
               0
 72
             100
 73
               1
 74
               1
 75
               0
 76
               0
 77
               0
 78
               0
  0
ENDTAB
  0
TABLE
  2
LTYPE
  5
4
100
AcDbSymbolTable
 70
              24
  0
LTYPE
  5
11
100
AcDbSymbolTableRecord
100
AcDbLinetypeTableRecord
  2
ByBlock
 70
              64
  3

 72
              65
 73
               0
 40
0.0
  0
LTYPE
  5
12
100
AcDbSymbolTableRecord
100
AcDbLinetypeTableRecord
  2
ByLayer
 70
              64
  3

 72
              65
 73
               0
 40
0.0
  0
LTYPE
  5
13
100
AcDbSymbolTableRecord
100
AcDbLinetypeTableRecord
  2
Continuous
 70
              64
  3
Solid line
 72
              65
 73
               0
 40
0.0
  0
LTYPE
  5
1D
100
AcDbSymbolTableRecord
100
AcDbLinetypeTableRecord
  2
DOT
 70
              64
  3
Dot . . . . . . . . . . . . . . . . . . . . . .
 72
              65
 73
               2
 40
6.3499999999999996
 49
0.35
 74
               0
 49
-6.0
 74
               0
  0
LTYPE
  5
1E
100
AcDbSymbolTableRecord
100
AcDbLinetypeTableRecord
  2
DASHED
 70
              64
  3
Dashed __ __ __ __ __ __ __ __ __ __ __ __ __ _
 72
              65
 73
               2
 40
12.699999999999999
 49
6.3499999999999996
 74
               0
 49
-6.3499999999999996
 74
               0
  0
LTYPE
  5
1F
100
AcDbSymbolTableRecord
100
AcDbLinetypeTableRecord
  2
DASHDOT
 70
              64
  3
Dash dot __ . __ . __ . __ . __ . __ . __ . __
 72
              65
 73
               4
 40
25.399999999999999
 49
12.699999999999999
 74
               0
 49
-6.0
 74
               0
 49
0.7
 74
               0
 49
-6.0
 74
               0
  0
LTYPE
  5
20
100
AcDbSymbolTableRecord
100
AcDbLinetypeTableRecord
  2
DIVIDE
 70
              64
  3
Divide ____ . . ____ . . ____ . . ____ . . ____
 72
              65
 73
               6
 40
31.75
 49
12.699999999999999
 74
               0
 49
-6.0
 74
               0
 49
0.875
 74
               0
 49
-6.0
 74
               0
 49
0.875
 74
               0
 49
-6.0
 74
               0
  0
LTYPE
  5
21
100
AcDbSymbolTableRecord
100
AcDbLinetypeTableRecord
  2
HIDDEN
 70
              64
  3
Hidden __ __ __ __ __ __ __ __ __ __ __ __ __ _
 72
              65
 73
               2
 40
9.5250000000000004
 49
6.3499999999999996
 74
               0
 49
-3.1749999999999998
 74
               0
  0
LTYPE
  5
22
100
AcDbSymbolTableRecord
100
AcDbLinetypeTableRecord
  2
CENTER
 70
              64
  3
Center ____ _ ____ _ ____ _ ____ _ ____ _ ____
 72
              65
 73
               4
 40
50.799999999999997
 49
31.75
 74
               0
 49
-6.3499999999999996
 74
               0
 49
6.3499999999999996
 74
               0
 49
-6.3499999999999996
 74
               0
  0
LTYPE
  5
23
100
AcDbSymbolTableRecord
100
AcDbLinetypeTableRecord
  2
PHANTOM
 70
              64
  3
Phantom ______  __  __  ______  __  __  ______
 72
              65
 73
               6
 40
63.5
 49
31.75
 74
               0
 49
-6.3499999999999996
 74
               0
 49
6.3499999999999996
 74
               0
 49
-6.3499999999999996
 74
               0
 49
6.3499999999999996
 74
               0
 49
-6.3499999999999996
 74
               0
  0
LTYPE
  5
24
100
AcDbSymbolTableRecord
100
AcDbLinetypeTableRecord
  2
ACAD_ISO02W100
 70
              64
  3
ISO dash __ __ __ __ __ __ __ __ __ __ __ __ __
 72
              65
 73
               2
 40
15.0
 49
12.0
 74
               0
 49
-3.0
 74
               0
  0
LTYPE
  5
25
100
AcDbSymbolTableRecord
100
AcDbLinetypeTableRecord
  2
ACAD_ISO03W100
 70
              64
  3
ISO dash space __ __ __ __ __ __ __ __ __ __ __ __ __ __
 72
              65
 73
               2
 40
30.0
 49
12.0
 74
               0
 49
-18.0
 74
               0
  0
LTYPE
  5
26
100
AcDbSymbolTableRecord
100
AcDbLinetypeTableRecord
  2
ACAD_ISO04W100
 70
              64
  3
ISO long-dash dot ____ . ____ . ____ . ____ . _
 72
              65
 73
               4
 40
30.0
 49
24.0
 74
               0
 49
-3.0
 74
               0
 49
0.0
 74
               0
 49
-3.0
 74
               0
  0
LTYPE
  5
27
100
AcDbSymbolTableRecord
100
AcDbLinetypeTableRecord
  2
ACAD_ISO05W100
 70
              64
  3
ISO long-dash double-dot ____ .. ____ .. ____ .
 72
              65
 73
               6
 40
33.0
 49
24.0
 74
               0
 49
-3.0
 74
               0
 49
0.0
 74
               0
 49
-3.0
 74
               0
 49
0.0
 74
               0
 49
-3.0
 74
               0
  0
LTYPE
  5
28
100
AcDbSymbolTableRecord
100
AcDbLinetypeTableRecord
  2
ACAD_ISO06W100
 70
              64
  3
ISO long-dash triple-dot ____ ... ____ ... ____
 72
              65
 73
               8
 40
36.0
 49
24.0
 74
               0
 49
-3.0
 74
               0
 49
0.0
 74
               0
 49
-3.0
 74
               0
 49
0.0
 74
               0
 49
-3.0
 74
               0
 49
0.0
 74
               0
 49
-3.0
 74
               0
  0
LTYPE
  5
29
100
AcDbSymbolTableRecord
100
AcDbLinetypeTableRecord
  2
ACAD_ISO07W100
 70
              64
  3
ISO dot . . . . . . . . . . . . . . . . . . . .
 72
              65
 73
               2
 40
3.0
 49
0.0
 74
               0
 49
-3.0
 74
               0
  0
LTYPE
  5
2A
100
AcDbSymbolTableRecord
100
AcDbLinetypeTableRecord
  2
ACAD_ISO08W100
 70
              64
  3
ISO long-dash short-dash ____ __ ____ __ ____ _
 72
              65
 73
               4
 40
36.0
 49
24.0
 74
               0
 49
-3.0
 74
               0
 49
6.0
 74
               0
 49
-3.0
 74
               0
  0
LTYPE
  5
2B
100
AcDbSymbolTableRecord
100
AcDbLinetypeTableRecord
  2
ACAD_ISO09W100
 70
              64
  3
ISO long-dash double-short-dash ____ __ __ ____
 72
              65
 73
               6
 40
45.0
 49
24.0
 74
               0
 49
-3.0
 74
               0
 49
6.0
 74
               0
 49
-3.0
 74
               0
 49
6.0
 74
               0
 49
-3.0
 74
               0
  0
LTYPE
  5
2C
100
AcDbSymbolTableRecord
100
AcDbLinetypeTableRecord
  2
ACAD_ISO10W100
 70
              64
  3
ISO dash dot __ . __ . __ . __ . __ . __ . __ .
 72
              65
 73
               4
 40
18.0
 49
12.0
 74
               0
 49
-3.0
 74
               0
 49
0.0
 74
               0
 49
-3.0
 74
               0
  0
LTYPE
  5
2D
100
AcDbSymbolTableRecord
100
AcDbLinetypeTableRecord
  2
ACAD_ISO11W100
 70
              64
  3
ISO double-dash dot __ __ . __ __ . __ __ . __ 
 72
              65
 73
               6
 40
33.0
 49
12.0
 74
               0
 49
-3.0
 74
               0
 49
12.0
 74
               0
 49
-3.0
 74
               0
 49
0.0
 74
               0
 49
-3.0
 74
               0
  0
LTYPE
  5
2E
100
AcDbSymbolTableRecord
100
AcDbLinetypeTableRecord
  2
ACAD_ISO12W100
 70
              64
  3
ISO dash double-dot __ . . __ . . __ . . __ . .
 72
              65
 73
               6
 40
21.0
 49
12.0
 74
               0
 49
-3.0
 74
               0
 49
0.0
 74
               0
 49
-3.0
 74
               0
 49
0.0
 74
               0
 49
-3.0
 74
               0
  0
LTYPE
  5
2F
100
AcDbSymbolTableRecord
100
AcDbLinetypeTableRecord
  2
ACAD_ISO13W100
 70
              64
  3
ISO double-dash double-dot __ __ . . __ __ . . 
 72
              65
 73
               8
 40
36.0
 49
12.0
 74
               0
 49
-3.0
 74
               0
 49
12.0
 74
               0
 49
-3.0
 74
               0
 49
0.0
 74
               0
 49
-3.0
 74
               0
 49
0.0
 74
               0
 49
-3.0
 74
               0
  0
LTYPE
  5
30
100
AcDbSymbolTableRecord
100
AcDbLinetypeTableRecord
  2
ACAD_ISO14W100
 70
              64
  3
ISO dash triple-dot __ . . . __ . . . __ . . . 
 72
              65
 73
               8
 40
24.0
 49
12.0
 74
               0
 49
-3.0
 74
               0
 49
0.0
 74
               0
 49
-3.0
 74
               0
 49
0.0
 74
               0
 49
-3.0
 74
               0
 49
0.0
 74
               0
 49
-3.0
 74
               0
  0
LTYPE
  5
31
100
AcDbSymbolTableRecord
100
AcDbLinetypeTableRecord
  2
ACAD_ISO15W100
 70
              64
  3
ISO double-dash double-dot __ __ . . __ __ . . 
 72
              65
 73
              10
 40
39.0
 49
12.0
 74
               0
 49
-3.0
 74
               0
 49
12.0
 74
               0
 49
-3.0
 74
               0
 49
0.0
 74
               0
 49
-3.0
 74
               0
 49
0.0
 74
               0
 49
-3.0
 74
               0
 49
0.0
 74
               0
 49
-3.0
 74
               0
  0
ENDTAB
  0
TABLE
  2
LAYER
  5
2
100
AcDbSymbolTable
 70
              16
  0
LAYER
  5
14
100
AcDbSymbolTableRecord
100
AcDbLayerTableRecord
  2
0
 70
               0
 62
               7
  6
Continuous
  0
LAYER
  5
35
100
AcDbSymbolTableRecord
100
AcDbLayerTableRecord
  2
Layer00001
 70
               0
 62
               7
  6
Continuous
  0
LAYER
  5
36
100
AcDbSymbolTableRecord
100
AcDbLayerTableRecord
  2
Layer00002
 70
               0
 62
               7
  6
Continuous
  0
LAYER
  5
37
100
AcDbSymbolTableRecord
100
AcDbLayerTableRecord
  2
Layer00003
 70
               0
 62
               7
  6
Continuous
  0
LAYER
  5
38
100
AcDbSymbolTableRecord
100
AcDbLayerTableRecord
  2
Layer00004
 70
               0
 62
               7
  6
Continuous
  0
LAYER
  5
39
100
AcDbSymbolTableRecord
100
AcDbLayerTableRecord
  2
Layer00005
 70
               0
 62
               7
  6
Continuous
  0
LAYER
  5
3A
100
AcDbSymbolTableRecord
100
AcDbLayerTableRecord
  2
Layer00006
 70
               0
 62
               7
  6
Continuous
  0
LAYER
  5
3B
100
AcDbSymbolTableRecord
100
AcDbLayerTableRecord
  2
Layer00007
 70
               0
 62
               7
  6
Continuous
  0
LAYER
  5
3C
100
AcDbSymbolTableRecord
100
AcDbLayerTableRecord
  2
Layer00008
 70
               0
 62
               7
  6
Continuous
  0
LAYER
  5
3D
100
AcDbSymbolTableRecord
100
AcDbLayerTableRecord
  2
Layer00009
 70
               0
 62
               7
  6
Continuous
  0
LAYER
  5
3E
100
AcDbSymbolTableRecord
100
AcDbLayerTableRecord
  2
Layer00010
 70
               0
 62
               7
  6
Continuous
  0
LAYER
  5
3F
100
AcDbSymbolTableRecord
100
AcDbLayerTableRecord
  2
Layer00011
 70
               0
 62
               7
  6
Continuous
  0
LAYER
  5
40
100
AcDbSymbolTableRecord
100
AcDbLayerTableRecord
  2
Layer00012
 70
               0
 62
               7
  6
Continuous
  0
LAYER
  5
41
100
AcDbSymbolTableRecord
100
AcDbLayerTableRecord
  2
Layer00013
 70
               0
 62
               7
  6
Continuous
  0
LAYER
  5
42
100
AcDbSymbolTableRecord
100
AcDbLayerTableRecord
  2
Layer00014
 70
               0
 62
               7
  6
Continuous
  0
LAYER
  5
43
100
AcDbSymbolTableRecord
100
AcDbLayerTableRecord
  2
Layer00015
 70
               0
 62
               7
  6
Continuous
  0
ENDTAB
  0
TABLE
  2
STYLE
  5
3
100
AcDbSymbolTable
 70
               4
  0
STYLE
  5
17
100
AcDbSymbolTableRecord
100
AcDbTextStyleTableRecord
  2
Standard
 70
               0
 40
0.0
 41
1.0
 50
0.0
 71
               0
 42
0.0
  3
txt.shx
  4
bigfont.shx
  0
STYLE
  5
32
100
AcDbSymbolTableRecord
100
AcDbTextStyleTableRecord
  2
STANDARD_T
 70
               4
 40
0.0
 41
1.0
 50
0.0
 71
               0
 42
0.0
  3
txt.shx
  4
bigfont.shx
  0
STYLE
  5
33
100
AcDbSymbolTableRecord
100
AcDbTextStyleTableRecord
  2
FontTableH_0
 70
               0
 40
0.0
 41
1.0
 50
0.0
 71
               0
 42
0.0
  3
MS Gothic.ttf
  4

1001
ACAD
1000
MS Gothic
1071
    32817
  0
STYLE
  5
34
100
AcDbSymbolTableRecord
100
AcDbTextStyleTableRecord
  2
FontTableV_0
 70
               0
 40
0.0
 41
1.0
 50
0.0
 71
               0
 42
0.0
  3
@MS Gothic.ttf
  4

1001
ACAD
1000
@MS Gothic
1071
    32817
  0
ENDTAB
  0
TABLE
  2
VIEW
  5
5
100
AcDbSymbolTable
 70
               0
  0
ENDTAB
  0
TABLE
  2
UCS
  5
6
100
AcDbSymbolTable
 70
               0
  0
ENDTAB
  0
TABLE
  2
APPID
  5
8
100
AcDbSymbolTable
 70
               1
  0
APPID
  5
16
100
AcDbSymbolTableRecord
100
AcDbRegAppTableRecord
  2
ACAD
 70
               0
  0
ENDTAB
  0
TABLE
  2
DIMSTYLE
  5
9
100
AcDbSymbolTable
 70
               1
  0
DIMSTYLE
105
18
100
AcDbSymbolTableRecord
100
AcDbDimStyleTableRecord
  2
Standard
 70
               0
  3

  4

  5

  6

  7

 40
1.0
 41
0.18
 42
0.0625
 43
0.38
 44
0.18
 45
0.0
 46
0.0
 47
0.0
 48
0.0
 71
               0
 72
               0
 73
               1
 74
               1
 75
               0
 76
               0
 77
               0
 78
               0
140
0.18
141
0.09
142
0.0
143
25.399999999999999
144
1.0
145
0.0
146
1.0
147
0.09
170
               0
171
               2
172
               0
173
               0
174
               0
175
               0
176
               0
177
               0
178
               0
270
               2
271
               4
272
               4
273
               2
274
               2
275
               0
280
               0
281
               0
282
               0
283
               1
284
               0
285
               0
286
               0
287
               0
288
               0
340
17
  0
ENDTAB
  0
TABLE
  2
BLOCK_RECORD
  5
1
100
AcDbSymbolTable
 70
               0
  0
BLOCK_RECORD
  5
A
100
AcDbSymbolTableRecord
100
AcDbBlockTableRecord
  2
*MODEL_SPACE
  0
BLOCK_RECORD
  5
B
100
AcDbSymbolTableRecord
100
AcDbBlockTableRecord
  2
*PAPER_SPACE
  0
ENDTAB
  0
ENDSEC
  0
SECTION
  2
BLOCKS
  0
BLOCK
  5
D
100
AcDbEntity
  8
0
100
AcDbBlockBegin
  2
*MODEL_SPACE
 70
               0
 10
0.0
 20
0.0
 30
0.0
  3
*MODEL_SPACE
  1

  0
ENDBLK
  5
E
100
AcDbEntity
  8
0
100
AcDbBlockEnd
  0
BLOCK
  5
F
100
AcDbEntity
 67
               1
  8
0
100
AcDbBlockBegin
  2
*PAPER_SPACE
 70
               0
 10
0.0
 20
0.0
 30
0.0
  3
*PAPER_SPACE
  1

  0
ENDBLK
  5
10
100
AcDbEntity
 67
               1
  8
0
100
AcDbBlockEnd
  0
ENDSEC
  0
SECTION
  2
ENTITIES
  0
LINE
  5
44
100
AcDbEntity
  8
0
  6
Continuous
 62
               4
100
AcDbLine
 10
595.57096551650386
 20
303.85478406491461
 30
0.0
 11
682.57096551650545
 21
303.85478406491416
 31
0.0
  0
LINE
  5
45
100
AcDbEntity
  8
0
  6
Continuous
 62
               4
100
AcDbLine
 10
679.57096551650545
 20
303.85478406491416
 30
0.0
 11
679.57096551650511
 21
248.85478406491342
 31
0.0
  0
LINE
  5
46
100
AcDbEntity
  8
0
  6
Continuous
 62
               4
100
AcDbLine
 10
679.57096551650545
 20
303.85478406491416
 30
0.0
 11
679.57096551650557
 21
313.85478406491529
 31
0.0
  0
LINE
  5
47
100
AcDbEntity
  8
0
  6
Continuous
 62
               4
100
AcDbLine
 10
599.57096551650534
 20
323.85478406491461
 30
0.0
 11
649.94190826816839
 21
411.09981613593857
 31
0.0
  0
LINE
  5
48
100
AcDbEntity
  8
0
  6
Continuous
 62
               4
100
AcDbLine
 10
649.94190826816839
 20
411.09981613593857
 30
0.0
 11
832.99025845452775
 21
411.09981613593857
 31
0.0
  0
LINE
  5
49
100
AcDbEntity
  8
0
  6
Continuous
 62
               4
100
AcDbLine
 10
599.57096551650534
 20
323.85478406491461
 30
0.0
 11
602.64914680643631
 21
332.31201765198773
 31
0.0
  0
LINE
  5
4A
100
AcDbEntity
  8
0
  6
Continuous
 62
               4
100
AcDbLine
 10
599.57096551650534
 20
323.85478406491461
 30
0.0
 11
605.35605400368411
 21
330.74918405298536
 31
0.0
  0
LINE
  5
4B
100
AcDbEntity
  8
0
  6
Continuous
 62
               4
100
AcDbLine
 10
493.52026875849452
 20
358.69448383300187
 30
0.0
 11
548.1766891415931
 21
453.36218089637134
 31
0.0
  0
LINE
  5
4C
100
AcDbEntity
  8
0
  6
Continuous
 62
               4
100
AcDbLine
 10
548.1766891415931
 20
453.36218089637134
 30
0.0
 11
731.56058302948907
 21
453.36218089637134
 31
0.0
  0
LINE
  5
4D
100
AcDbEntity
  8
0
  6
Continuous
 62
               4
100
AcDbLine
 10
493.52026875849452
 20
358.69448383300187
 30
0.0
 11
496.59845004842555
 21
367.15171742007499
 31
0.0
  0
LINE
  5
4E
100
AcDbEntity
  8
0
  6
Continuous
 62
               4
100
AcDbLine
 10
493.52026875849452
 20
358.69448383300187
 30
0.0
 11
499.30535724567341
 21
365.58888382107261
 31
0.0
  0
LINE
  5
4F
100
AcDbEntity
  8
0
  6
Continuous
 62
               4
100
AcDbLine
 10
498.08114374034056
 20
248.85478406491393
 30
0.0
 11
542.25160297188722
 21
172.34930448222585
 31
0.0
  0
LINE
  5
50
100
AcDbEntity
  8
0
  6
Continuous
 62
               4
100
AcDbLine
 10
542.25160297188722
 20
172.34930448222585
 30
0.0
 11
795.84621329211836
 21
172.34930448222585
 31
0.0
  0
LINE
  5
51
100
AcDbEntity
  8
0
  6
Continuous
 62
               4
100
AcDbLine
 10
498.08114374034056
 20
248.85478406491393
 30
0.0
 11
503.86623222751939
 21
241.96038407684313
 31
0.0
  0
LINE
  5
52
100
AcDbEntity
  8
0
  6
Continuous
 62
               4
100
AcDbLine
 10
498.08114374034056
 20
248.85478406491393
 30
0.0
 11
501.15932503027159
 21
240.39755047784078
 31
0.0
  0
LINE
  5
53
100
AcDbEntity
  8
0
  6
Continuous
 62
               4
100
AcDbLine
 10
264.07096551650386
 20
239.8547840649147
 30
0.0
 11
264.07096551650386
 21
206.85478406491464
 31
0.0
  0
LINE
  5
54
100
AcDbEntity
  8
0
  6
Continuous
 62
               4
100
AcDbLine
 10
314.07096551650386
 20
240.3547840649147
 30
0.0
 11
314.07096551650386
 21
206.85478406491464
 31
0.0
  0
LINE
  5
55
100
AcDbEntity
  8
0
  6
Continuous
 62
               4
100
AcDbLine
 10
264.07096551650386
 20
209.85478406491464
 30
0.0
 11
314.07096551650386
 21
209.85478406491464
 31
0.0
  0
LINE
  5
56
100
AcDbEntity
  8
0
  6
Continuous
 62
               4
100
AcDbLine
 10
263.57096551650386
 20
303.85478406491472
 30
0.0
 11
225.0709655165038
 21
303.85478406491472
 31
0.0
  0
LINE
  5
57
100
AcDbEntity
  8
0
  6
Continuous
 62
               4
100
AcDbLine
 10
293.57096551650363
 20
248.85478406491387
 30
0.0
 11
225.0709655165038
 21
248.85478406491387
 31
0.0
  0
LINE
  5
58
100
AcDbEntity
  8
0
  6
Continuous
 62
               4
100
AcDbLine
 10
228.07096551650383
 20
303.85478406491472
 30
0.0
 11
228.07096551650383
 21
248.85478406491387
 31
0.0
  0
LINE
  5
59
100
AcDbEntity
  8
0
  6
Continuous
 62
               4
100
AcDbLine
 10
264.07096551650386
 20
275.85478406491472
 30
0.0
 11
217.86293724181803
 21
195.82013137557982
 31
0.0
  0
LINE
  5
5A
100
AcDbEntity
  8
0
  6
Continuous
 62
               4
100
AcDbLine
 10
217.86293724181803
 20
195.82013137557982
 30
0.0
 11
35.494311351537107
 21
195.82013137557982
 31
0.0
  0
LINE
  5
5B
100
AcDbEntity
  8
0
  6
Continuous
 62
               4
100
AcDbLine
 10
264.07096551650386
 20
275.85478406491472
 30
0.0
 11
260.99278422657284
 21
267.39755047784161
 31
0.0
  0
LINE
  5
5C
100
AcDbEntity
  8
0
  6
Continuous
 62
               4
100
AcDbLine
 10
264.07096551650386
 20
275.85478406491472
 30
0.0
 11
258.28587702932498
 21
268.96038407684387
 31
0.0
  0
LINE
  5
5D
100
AcDbEntity
  8
0
  6
Continuous
 62
               4
100
AcDbLine
 10
288.57096551650477
 20
349.85478406491478
 30
0.0
 11
588.57096551650477
 21
349.85478406491478
 31
0.0
  0
LINE
  5
5E
100
AcDbEntity
  8
0
  6
Continuous
 62
               4
100
AcDbLine
 10
588.57096551650477
 20
349.85478406491478
 30
0.0
 11
788.57096551650477
 21
349.85478406491478
 31
0.0
  0
LINE
  5
5F
100
AcDbEntity
  8
0
  6
Continuous
 62
               4
100
AcDbLine
 10
714.78679656440374
 20
21.213203435596483
 30
0.0
 11
714.78679656440374
 21
41.213203435596483
 31
0.0
  0
LINE
  5
60
100
AcDbEntity
  8
0
  6
Continuous
 62
               4
100
AcDbLine
 10
864.78679656440374
 20
21.213203435596483
 30
0.0
 11
714.78679656440374
 21
21.213203435596483
 31
0.0
  0
LINE
  5
61
100
AcDbEntity
  8
0
  6
Continuous
 62
               4
100
AcDbLine
 10
864.78679656440374
 20
41.213203435596483
 30
0.0
 11
864.78679656440374
 21
21.213203435596483
 31
0.0
  0
LINE
  5
62
100
AcDbEntity
  8
0
  6
Continuous
 62
               4
100
AcDbLine
 10
864.78679656440374
 20
41.213203435596483
 30
0.0
 11
714.78679656440374
 21
41.213203435596483
 31
0.0
  0
LINE
  5
63
100
AcDbEntity
  8
0
  6
Continuous
 62
               4
100
AcDbLine
 10
14.142135623730949
 20
595.85786437626905
 30
0.0
 11
14.142135623730949
 21
615.85786437626905
 31
0.0
  0
LINE
  5
64
100
AcDbEntity
  8
0
  6
Continuous
 62
               4
100
AcDbLine
 10
164.14213562373095
 20
595.85786437626905
 30
0.0
 11
14.142135623730949
 21
595.85786437626905
 31
0.0
  0
LINE
  5
65
100
AcDbEntity
  8
0
  6
Continuous
 62
               4
100
AcDbLine
 10
164.14213562373095
 20
615.85786437626905
 30
0.0
 11
164.14213562373095
 21
595.85786437626905
 31
0.0
  0
LINE
  5
66
100
AcDbEntity
  8
0
  6
Continuous
 62
               4
100
AcDbLine
 10
164.14213562373095
 20
615.85786437626905
 30
0.0
 11
14.142135623730949
 21
615.85786437626905
 31
0.0
  0
LINE
  5
67
100
AcDbEntity
  8
0
  6
Continuous
 62
               7
100
AcDbLine
 10
587.57096551650523
 20
266.8547840649145
 30
0.0
 11
584.57096551650523
 21
266.8547840649145
 31
0.0
  0
LINE
  5
68
100
AcDbEntity
  8
0
  6
Continuous
 62
               7
100
AcDbLine
 10
587.57096551650523
 20
301.85478406491461
 30
0.0
 11
587.57096551650523
 21
266.8547840649145
 31
0.0
  0
LINE
  5
69
100
AcDbEntity
  8
0
  6
Continuous
 62
               7
100
AcDbLine
 10
587.57096551650523
 20
301.85478406491461
 30
0.0
 11
584.57096551650523
 21
301.85478406491461
 31
0.0
  0
LINE
  5
6A
100
AcDbEntity
  8
0
  6
Continuous
 62
               7
100
AcDbLine
 10
584.57096551650523
 20
289.8547840649145
 30
0.0
 11
584.57096551650523
 21
301.85478406491461
 31
0.0
  0
LINE
  5
6B
100
AcDbEntity
  8
0
  6
Continuous
 62
               7
100
AcDbLine
 10
584.57096551650523
 20
286.85478406491461
 30
0.0
 11
584.57096551650523
 21
266.8547840649145
 31
0.0
  0
LINE
  5
6C
100
AcDbEntity
  8
0
  6
Continuous
 62
               7
100
AcDbLine
 10
573.57096551650523
 20
301.85478406491461
 30
0.0
 11
576.57096551650523
 21
301.85478406491461
 31
0.0
  0
LINE
  5
6D
100
AcDbEntity
  8
0
  6
Continuous
 62
               7
100
AcDbLine
 10
576.57096551650523
 20
300.3547840649145
 30
0.0
 11
584.57096551650523
 21
300.3547840649145
 31
0.0
  0
LINE
  5
6E
100
AcDbEntity
  8
0
  6
Continuous
 62
               7
100
AcDbLine
 10
576.57096551650523
 20
297.3547840649145
 30
0.0
 11
584.57096551650523
 21
297.3547840649145
 31
0.0
  0
LINE
  5
6F
100
AcDbEntity
  8
0
  6
Continuous
 62
               7
100
AcDbLine
 10
576.57096551650523
 20
289.8547840649145
 30
0.0
 11
584.57096551650523
 21
289.8547840649145
 31
0.0
  0
LINE
  5
70
100
AcDbEntity
  8
0
  6
Continuous
 62
               7
100
AcDbLine
 10
573.57096551650523
 20
289.8547840649145
 30
0.0
 11
568.57096551650523
 21
289.8547840649145
 31
0.0
  0
LINE
  5
71
100
AcDbEntity
  8
0
  6
Continuous
 62
               7
100
AcDbLine
 10
573.57096551650523
 20
289.8547840649145
 30
0.0
 11
573.57096551650523
 21
301.85478406491461
 31
0.0
  0
LINE
  5
72
100
AcDbEntity
  8
0
  6
Continuous
 62
               7
100
AcDbLine
 10
568.57096551650523
 20
286.85478406491461
 30
0.0
 11
584.57096551650545
 21
286.85478406491461
 31
0.0
  0
LINE
  5
73
100
AcDbEntity
  8
0
  6
Continuous
 62
               7
100
AcDbLine
 10
576.57096551650523
 20
289.85478406491461
 30
0.0
 11
576.57096551650523
 21
301.85478406491461
 31
0.0
  0
LINE
  5
74
100
AcDbEntity
  8
0
  6
Continuous
 62
               7
100
AcDbLine
 10
568.57096551650523
 20
306.85478406491461
 30
0.0
 11
565.57096551650523
 21
306.85478406491461
 31
0.0
  0
LINE
  5
75
100
AcDbEntity
  8
0
  6
Continuous
 62
               7
100
AcDbLine
 10
568.57096551650523
 20
310.85478406491461
 30
0.0
 11
568.57096551650523
 21
289.8547840649145
 31
0.0
  0
LINE
  5
76
100
AcDbEntity
  8
0
  6
Continuous
 62
               7
100
AcDbLine
 10
565.57096551650523
 20
310.85478406491461
 30
0.0
 11
565.57096551650523
 21
289.85478406491461
 31
0.0
  0
LINE
  5
77
100
AcDbEntity
  8
0
  6
Continuous
 62
               7
100
AcDbLine
 10
612.07096551650523
 20
307.3547840649145
 30
0.0
 11
587.07096551650523
 21
307.3547840649145
 31
0.0
  0
LINE
  5
78
100
AcDbEntity
  8
0
  6
Continuous
 62
               7
100
AcDbLine
 10
582.07096551650523
 20
310.85478406491461
 30
0.0
 11
587.07096551650523
 21
307.3547840649145
 31
0.0
  0
LINE
  5
79
100
AcDbEntity
  8
0
  6
Continuous
 62
               7
100
AcDbLine
 10
583.01663220896251
 20
313.85478406491461
 30
0.0
 11
568.57096551650545
 21
313.85478406491461
 31
0.0
  0
LINE
  5
7A
100
AcDbEntity
  8
0
  6
Continuous
 62
               7
100
AcDbLine
 10
587.30234649467673
 20
310.85478406491461
 30
0.0
 11
583.01663220896251
 21
313.85478406491461
 31
0.0
  0
LINE
  5
7B
100
AcDbEntity
  8
0
  6
Continuous
 62
               7
100
AcDbLine
 10
582.07096551650523
 20
310.85478406491472
 30
0.0
 11
568.57096551650523
 21
310.85478406491461
 31
0.0
  0
LINE
  5
7C
100
AcDbEntity
  8
0
  6
Continuous
 62
               7
100
AcDbLine
 10
617.07096551650523
 20
310.85478406491461
 30
0.0
 11
612.07096551650523
 21
307.3547840649145
 31
0.0
  0
LINE
  5
7D
100
AcDbEntity
  8
0
  6
Continuous
 62
               7
100
AcDbLine
 10
611.83958453833372
 20
310.85478406491461
 30
0.0
 11
616.12529882404795
 21
313.85478406491461
 31
0.0
  0
LINE
  5
7E
100
AcDbEntity
  8
0
  6
Continuous
 62
               7
100
AcDbLine
 10
611.8395845383335
 20
310.85478406491461
 30
0.0
 11
587.30234649467673
 21
310.85478406491461
 31
0.0
  0
LINE
  5
7F
100
AcDbEntity
  8
0
  6
Continuous
 62
               7
100
AcDbLine
 10
624.57096551650523
 20
310.85478406491461
 30
0.0
 11
617.070965516505
 21
310.85478406491461
 31
0.0
  0
LINE
  5
80
100
AcDbEntity
  8
0
  6
Continuous
 62
               7
100
AcDbLine
 10
624.57096551650523
 20
313.85478406491461
 30
0.0
 11
616.12529882404795
 21
313.85478406491461
 31
0.0
  0
LINE
  5
81
100
AcDbEntity
  8
0
  6
Continuous
 62
               7
100
AcDbLine
 10
624.57096551650523
 20
313.85478406491461
 30
0.0
 11
624.57096551650523
 21
310.85478406491461
 31
0.0
  0
LINE
  5
82
100
AcDbEntity
  8
0
  6
DASHED
 62
               7
100
AcDbLine
 10
624.57096551650523
 20
321.37808696530101
 30
0.0
 11
574.57096551650523
 21
321.37808696530101
 31
0.0
  0
LINE
  5
83
100
AcDbEntity
  8
0
  6
DASHED
 62
               7
100
AcDbLine
 10
624.57096551650523
 20
323.85478406491461
 30
0.0
 11
574.57096551650523
 21
323.85478406491461
 31
0.0
  0
LINE
  5
84
100
AcDbEntity
  8
0
  6
DASHED
 62
               7
100
AcDbLine
 10
616.07096551650523
 20
325.8547840649145
 30
0.0
 11
624.570965516505
 21
325.85478406491461
 31
0.0
  0
LINE
  5
85
100
AcDbEntity
  8
0
  6
DASHED
 62
               7
100
AcDbLine
 10
616.07096551650523
 20
325.8547840649145
 30
0.0
 11
612.57096551650523
 21
329.3547840649145
 31
0.0
  0
LINE
  5
86
100
AcDbEntity
  8
0
  6
DASHED
 62
               7
100
AcDbLine
 10
586.57096551650523
 20
329.3547840649145
 30
0.0
 11
612.57096551650523
 21
329.3547840649145
 31
0.0
  0
LINE
  5
87
100
AcDbEntity
  8
0
  6
DASHED
 62
               7
100
AcDbLine
 10
583.07096551650523
 20
325.8547840649145
 30
0.0
 11
574.57096551650523
 21
325.85478406491461
 31
0.0
  0
LINE
  5
88
100
AcDbEntity
  8
0
  6
DASHED
 62
               7
100
AcDbLine
 10
583.07096551650523
 20
325.8547840649145
 30
0.0
 11
586.57096551650523
 21
329.3547840649145
 31
0.0
  0
LINE
  5
89
100
AcDbEntity
  8
0
  6
DASHED
 62
               7
100
AcDbLine
 10
613.93971653719484
 20
319.8547840649145
 30
0.0
 11
611.83958453833372
 21
321.32487646411732
 31
0.0
  0
LINE
  5
8A
100
AcDbEntity
  8
0
  6
DASHED
 62
               7
100
AcDbLine
 10
585.20221449581561
 20
319.8547840649145
 30
0.0
 11
587.30234649467673
 21
321.32487646411732
 31
0.0
  0
LINE
  5
8B
100
AcDbEntity
  8
0
  6
DASHED
 62
               7
100
AcDbLine
 10
624.57096551650523
 20
319.8547840649145
 30
0.0
 11
624.57096551650523
 21
325.85478406491461
 31
0.0
  0
LINE
  5
8C
100
AcDbEntity
  8
0
  6
DASHED
 62
               7
100
AcDbLine
 10
574.57096551650523
 20
319.8547840649145
 30
0.0
 11
574.57096551650523
 21
325.85478406491461
 31
0.0
  0
LINE
  5
8D
100
AcDbEntity
  8
0
  6
Continuous
 62
               6
100
AcDbLine
 10
238.57096551650443
 20
313.85478406491472
 30
0.0
 11
238.57096551650443
 21
487.85471406491479
 31
0.0
  0
LINE
  5
8E
100
AcDbEntity
  8
0
  6
Continuous
 62
               2
100
AcDbLine
 10
570.57096551650477
 20
302.85478406491472
 30
0.0
 11
570.57096551650477
 21
289.8547840649145
 31
0.0
  0
LINE
  5
8F
100
AcDbEntity
  8
0
  6
Continuous
 62
               2
100
AcDbLine
 10
587.57096551650523
 20
302.85478406491472
 30
0.0
 11
570.57096551650477
 21
302.85478406491472
 31
0.0
  0
LINE
  5
90
100
AcDbEntity
  8
0
  6
Continuous
 62
               2
100
AcDbLine
 10
587.57096551650523
 20
258.85478406491393
 30
0.0
 11
587.57096551650523
 21
302.85478406491472
 31
0.0
  0
LINE
  5
91
100
AcDbEntity
  8
0
  6
Continuous
 62
               2
100
AcDbLine
 10
577.57096551650523
 20
248.8547840649139
 30
0.0
 11
587.57096551650523
 21
258.85478406491393
 31
0.0
  0
LINE
  5
92
100
AcDbEntity
  8
0
  6
Continuous
 62
               2
100
AcDbLine
 10
569.57096551650386
 20
303.85478406491472
 30
0.0
 11
569.57096551650386
 21
289.8547840649145
 31
0.0
  0
LINE
  5
93
100
AcDbEntity
  8
0
  6
Continuous
 62
               2
100
AcDbLine
 10
589.57096551650386
 20
303.85478406491472
 30
0.0
 11
569.57096551650386
 21
303.85478406491472
 31
0.0
  0
LINE
  5
94
100
AcDbEntity
  8
0
  6
Continuous
 62
               2
100
AcDbLine
 10
589.57096551650363
 20
258.85478406491393
 30
0.0
 11
589.57096551650386
 21
303.85478406491472
 31
0.0
  0
LINE
  5
95
100
AcDbEntity
  8
0
  6
Continuous
 62
               2
100
AcDbLine
 10
589.57096551650363
 20
258.85478406491393
 30
0.0
 11
599.57096551650363
 21
248.8547840649139
 31
0.0
  0
LINE
  5
96
100
AcDbEntity
  8
0
  6
Continuous
 62
               7
100
AcDbLine
 10
287.57096551650523
 20
266.8547840649145
 30
0.0
 11
284.57096551650523
 21
266.8547840649145
 31
0.0
  0
LINE
  5
97
100
AcDbEntity
  8
0
  6
Continuous
 62
               7
100
AcDbLine
 10
287.57096551650523
 20
301.85478406491461
 30
0.0
 11
287.57096551650523
 21
266.8547840649145
 31
0.0
  0
LINE
  5
98
100
AcDbEntity
  8
0
  6
Continuous
 62
               7
100
AcDbLine
 10
287.57096551650523
 20
301.85478406491461
 30
0.0
 11
284.57096551650523
 21
301.85478406491461
 31
0.0
  0
LINE
  5
99
100
AcDbEntity
  8
0
  6
Continuous
 62
               7
100
AcDbLine
 10
284.57096551650523
 20
289.8547840649145
 30
0.0
 11
284.57096551650523
 21
301.85478406491461
 31
0.0
  0
LINE
  5
9A
100
AcDbEntity
  8
0
  6
Continuous
 62
               7
100
AcDbLine
 10
284.57096551650523
 20
286.85478406491461
 30
0.0
 11
284.57096551650523
 21
266.8547840649145
 31
0.0
  0
LINE
  5
9B
100
AcDbEntity
  8
0
  6
Continuous
 62
               7
100
AcDbLine
 10
273.57096551650523
 20
301.85478406491461
 30
0.0
 11
276.57096551650523
 21
301.85478406491461
 31
0.0
  0
LINE
  5
9C
100
AcDbEntity
  8
0
  6
Continuous
 62
               7
100
AcDbLine
 10
276.57096551650523
 20
300.3547840649145
 30
0.0
 11
284.57096551650523
 21
300.3547840649145
 31
0.0
  0
LINE
  5
9D
100
AcDbEntity
  8
0
  6
Continuous
 62
               7
100
AcDbLine
 10
276.57096551650523
 20
297.3547840649145
 30
0.0
 11
284.57096551650523
 21
297.3547840649145
 31
0.0
  0
LINE
  5
9E
100
AcDbEntity
  8
0
  6
Continuous
 62
               7
100
AcDbLine
 10
276.57096551650523
 20
289.8547840649145
 30
0.0
 11
284.57096551650523
 21
289.8547840649145
 31
0.0
  0
LINE
  5
9F
100
AcDbEntity
  8
0
  6
Continuous
 62
               7
100
AcDbLine
 10
273.57096551650523
 20
289.8547840649145
 30
0.0
 11
268.57096551650523
 21
289.8547840649145
 31
0.0
  0
LINE
  5
A0
100
AcDbEntity
  8
0
  6
Continuous
 62
               7
100
AcDbLine
 10
273.57096551650523
 20
289.8547840649145
 30
0.0
 11
273.57096551650523
 21
301.85478406491461
 31
0.0
  0
LINE
  5
A1
100
AcDbEntity
  8
0
  6
Continuous
 62
               7
100
AcDbLine
 10
268.57096551650523
 20
286.85478406491461
 30
0.0
 11
284.57096551650545
 21
286.85478406491461
 31
0.0
  0
LINE
  5
A2
100
AcDbEntity
  8
0
  6
Continuous
 62
               7
100
AcDbLine
 10
276.57096551650523
 20
289.85478406491461
 30
0.0
 11
276.57096551650523
 21
301.85478406491461
 31
0.0
  0
LINE
  5
A3
100
AcDbEntity
  8
0
  6
Continuous
 62
               7
100
AcDbLine
 10
268.57096551650523
 20
306.85478406491461
 30
0.0
 11
265.57096551650523
 21
306.85478406491461
 31
0.0
  0
LINE
  5
A4
100
AcDbEntity
  8
0
  6
Continuous
 62
               7
100
AcDbLine
 10
268.57096551650523
 20
310.85478406491461
 30
0.0
 11
268.57096551650523
 21
289.8547840649145
 31
0.0
  0
LINE
  5
A5
100
AcDbEntity
  8
0
  6
Continuous
 62
               7
100
AcDbLine
 10
265.57096551650523
 20
310.85478406491461
 30
0.0
 11
265.57096551650523
 21
289.85478406491461
 31
0.0
  0
LINE
  5
A6
100
AcDbEntity
  8
0
  6
Continuous
 62
               7
100
AcDbLine
 10
312.07096551650523
 20
307.3547840649145
 30
0.0
 11
287.07096551650523
 21
307.3547840649145
 31
0.0
  0
LINE
  5
A7
100
AcDbEntity
  8
0
  6
Continuous
 62
               7
100
AcDbLine
 10
282.07096551650523
 20
310.85478406491461
 30
0.0
 11
287.07096551650523
 21
307.3547840649145
 31
0.0
  0
LINE
  5
A8
100
AcDbEntity
  8
0
  6
Continuous
 62
               7
100
AcDbLine
 10
283.01663220896251
 20
313.85478406491461
 30
0.0
 11
268.57096551650545
 21
313.85478406491461
 31
0.0
  0
LINE
  5
A9
100
AcDbEntity
  8
0
  6
Continuous
 62
               7
100
AcDbLine
 10
287.30234649467673
 20
310.85478406491461
 30
0.0
 11
283.01663220896251
 21
313.85478406491461
 31
0.0
  0
LINE
  5
AA
100
AcDbEntity
  8
0
  6
Continuous
 62
               7
100
AcDbLine
 10
282.07096551650523
 20
310.85478406491472
 30
0.0
 11
268.57096551650523
 21
310.85478406491461
 31
0.0
  0
LINE
  5
AB
100
AcDbEntity
  8
0
  6
Continuous
 62
               7
100
AcDbLine
 10
317.07096551650523
 20
310.85478406491461
 30
0.0
 11
312.07096551650523
 21
307.3547840649145
 31
0.0
  0
LINE
  5
AC
100
AcDbEntity
  8
0
  6
Continuous
 62
               7
100
AcDbLine
 10
311.83958453833372
 20
310.85478406491461
 30
0.0
 11
316.12529882404795
 21
313.85478406491461
 31
0.0
  0
LINE
  5
AD
100
AcDbEntity
  8
0
  6
Continuous
 62
               7
100
AcDbLine
 10
311.8395845383335
 20
310.85478406491461
 30
0.0
 11
287.30234649467673
 21
310.85478406491461
 31
0.0
  0
LINE
  5
AE
100
AcDbEntity
  8
0
  6
Continuous
 62
               7
100
AcDbLine
 10
324.57096551650523
 20
310.85478406491461
 30
0.0
 11
317.070965516505
 21
310.85478406491461
 31
0.0
  0
LINE
  5
AF
100
AcDbEntity
  8
0
  6
Continuous
 62
               7
100
AcDbLine
 10
324.57096551650523
 20
313.85478406491461
 30
0.0
 11
316.12529882404795
 21
313.85478406491461
 31
0.0
  0
LINE
  5
B0
100
AcDbEntity
  8
0
  6
Continuous
 62
               7
100
AcDbLine
 10
324.57096551650523
 20
313.85478406491461
 30
0.0
 11
324.57096551650523
 21
310.85478406491461
 31
0.0
  0
LINE
  5
B1
100
AcDbEntity
  8
0
  6
DASHED
 62
               7
100
AcDbLine
 10
324.57096551650523
 20
321.37808696530101
 30
0.0
 11
274.57096551650523
 21
321.37808696530101
 31
0.0
  0
LINE
  5
B2
100
AcDbEntity
  8
0
  6
DASHED
 62
               7
100
AcDbLine
 10
324.57096551650523
 20
323.85478406491461
 30
0.0
 11
274.57096551650523
 21
323.85478406491461
 31
0.0
  0
LINE
  5
B3
100
AcDbEntity
  8
0
  6
DASHED
 62
               7
100
AcDbLine
 10
316.07096551650523
 20
325.8547840649145
 30
0.0
 11
324.570965516505
 21
325.85478406491461
 31
0.0
  0
LINE
  5
B4
100
AcDbEntity
  8
0
  6
DASHED
 62
               7
100
AcDbLine
 10
316.07096551650523
 20
325.8547840649145
 30
0.0
 11
312.57096551650523
 21
329.3547840649145
 31
0.0
  0
LINE
  5
B5
100
AcDbEntity
  8
0
  6
DASHED
 62
               7
100
AcDbLine
 10
286.57096551650523
 20
329.3547840649145
 30
0.0
 11
312.57096551650523
 21
329.3547840649145
 31
0.0
  0
LINE
  5
B6
100
AcDbEntity
  8
0
  6
DASHED
 62
               7
100
AcDbLine
 10
283.07096551650523
 20
325.8547840649145
 30
0.0
 11
274.57096551650523
 21
325.85478406491461
 31
0.0
  0
LINE
  5
B7
100
AcDbEntity
  8
0
  6
DASHED
 62
               7
100
AcDbLine
 10
283.07096551650523
 20
325.8547840649145
 30
0.0
 11
286.57096551650523
 21
329.3547840649145
 31
0.0
  0
LINE
  5
B8
100
AcDbEntity
  8
0
  6
DASHED
 62
               7
100
AcDbLine
 10
313.93971653719484
 20
319.8547840649145
 30
0.0
 11
311.83958453833372
 21
321.32487646411732
 31
0.0
  0
LINE
  5
B9
100
AcDbEntity
  8
0
  6
DASHED
 62
               7
100
AcDbLine
 10
285.20221449581561
 20
319.8547840649145
 30
0.0
 11
287.30234649467673
 21
321.32487646411732
 31
0.0
  0
LINE
  5
BA
100
AcDbEntity
  8
0
  6
DASHED
 62
               7
100
AcDbLine
 10
324.57096551650523
 20
319.8547840649145
 30
0.0
 11
324.57096551650523
 21
325.85478406491461
 31
0.0
  0
LINE
  5
BB
100
AcDbEntity
  8
0
  6
DASHED
 62
               7
100
AcDbLine
 10
274.57096551650523
 20
319.8547840649145
 30
0.0
 11
274.57096551650523
 21
325.85478406491461
 31
0.0
  0
LINE
  5
BC
100
AcDbEntity
  8
0
  6
Continuous
 62
               2
100
AcDbLine
 10
269.57096551650386
 20
303.85478406491472
 30
0.0
 11
269.57096551650386
 21
289.8547840649145
 31
0.0
  0
LINE
  5
BD
100
AcDbEntity
  8
0
  6
Continuous
 62
               2
100
AcDbLine
 10
289.57096551650386
 20
303.85478406491472
 30
0.0
 11
269.57096551650386
 21
303.85478406491472
 31
0.0
  0
LINE
  5
BE
100
AcDbEntity
  8
0
  6
Continuous
 62
               2
100
AcDbLine
 10
289.57096551650363
 20
258.85478406491393
 30
0.0
 11
289.57096551650386
 21
303.85478406491472
 31
0.0
  0
LINE
  5
BF
100
AcDbEntity
  8
0
  6
Continuous
 62
               2
100
AcDbLine
 10
289.57096551650363
 20
258.85478406491393
 30
0.0
 11
299.57096551650363
 21
248.8547840649139
 31
0.0
  0
LINE
  5
C0
100
AcDbEntity
  8
0
  6
Continuous
 62
               2
100
AcDbLine
 10
299.57096551650363
 20
248.85478406491396
 30
0.0
 11
577.57096551650523
 21
248.8547840649139
 31
0.0
  0
LINE
  5
C1
100
AcDbEntity
  8
0
  6
Continuous
 62
               3
100
AcDbLine
 10
264.07096551650386
 20
305.85478406491472
 30
0.0
 11
313.57096551650386
 21
305.85478406491472
 31
0.0
  0
LINE
  5
C2
100
AcDbEntity
  8
0
  6
Continuous
 62
               3
100
AcDbLine
 10
264.07096551650386
 20
245.8547840649147
 30
0.0
 11
313.57096551650386
 21
245.8547840649147
 31
0.0
  0
LINE
  5
C3
100
AcDbEntity
  8
0
  6
Continuous
 62
               3
100
AcDbLine
 10
264.07096551650386
 20
245.8547840649147
 30
0.0
 11
264.07096551650386
 21
305.85478406491472
 31
0.0
  0
LINE
  5
C4
100
AcDbEntity
  8
0
  6
Continuous
 62
               3
100
AcDbLine
 10
304.16341551650396
 20
248.17693406491466
 30
0.0
 11
313.57096551650386
 21
246.8547840649147
 31
0.0
  0
LINE
  5
C5
100
AcDbEntity
  8
0
  6
DASHDOT
 62
               7
100
AcDbLine
 10
279.57096551650386
 20
299.35478406491472
 30
0.0
 11
279.57096551650386
 21
309.35478406491472
 31
0.0
  0
LINE
  5
C6
100
AcDbEntity
  8
0
  6
Continuous
 62
               7
100
AcDbLine
 10
281.57096551650386
 20
301.35478406491472
 30
0.0
 11
277.57096551650386
 21
301.35478406491472
 31
0.0
  0
LINE
  5
C7
100
AcDbEntity
  8
0
  6
Continuous
 62
               7
100
AcDbLine
 10
275.57096551650386
 20
306.35478406491472
 30
0.0
 11
283.57096551650386
 21
306.35478406491472
 31
0.0
  0
LINE
  5
C8
100
AcDbEntity
  8
0
  6
Continuous
 62
               7
100
AcDbLine
 10
281.57096551650386
 20
303.35478406491472
 30
0.0
 11
277.57096551650386
 21
303.35478406491472
 31
0.0
  0
LINE
  5
C9
100
AcDbEntity
  8
0
  6
Continuous
 62
               7
100
AcDbLine
 10
281.57096551650386
 20
303.35478406491472
 30
0.0
 11
281.57096551650386
 21
306.35478406491472
 31
0.0
  0
LINE
  5
CA
100
AcDbEntity
  8
0
  6
Continuous
 62
               7
100
AcDbLine
 10
277.57096551650386
 20
303.35478406491472
 30
0.0
 11
277.57096551650386
 21
306.35478406491472
 31
0.0
  0
LINE
  5
CB
100
AcDbEntity
  8
0
  6
Continuous
 62
               3
100
AcDbLine
 10
304.16341551650396
 20
303.53264406491473
 30
0.0
 11
313.57096551650386
 21
304.85478406491472
 31
0.0
  0
LINE
  5
CC
100
AcDbEntity
  8
0
  6
Continuous
 62
               6
100
AcDbLine
 10
788.57096551650477
 20
313.85478406491472
 30
0.0
 11
238.57096551650449
 21
313.85478406491472
 31
0.0
  0
LINE
  5
CD
100
AcDbEntity
  8
0
  6
DASHED
 62
               6
100
AcDbLine
 10
788.57096551650477
 20
319.8547840649145
 30
0.0
 11
238.57096551650449
 21
319.8547840649145
 31
0.0
  0
LINE
  5
CE
100
AcDbEntity
  8
0
  6
Continuous
 62
               6
100
AcDbLine
 10
788.57096551650477
 20
378.85478406491461
 30
0.0
 11
238.57096551650449
 21
378.85478406491472
 31
0.0
  0
LINE
  5
CF
100
AcDbEntity
  8
0
  6
Continuous
 62
               6
100
AcDbLine
 10
788.57096551650477
 20
387.85471406491479
 30
0.0
 11
238.57096551650443
 21
387.85471406491479
 31
0.0
  0
LINE
  5
D0
100
AcDbEntity
  8
0
  6
Continuous
 62
               2
100
AcDbLine
 10
788.57096551650477
 20
248.8547840649139
 30
0.0
 11
599.57096551650341
 21
248.8547840649139
 31
0.0
  0
LINE
  5
D1
100
AcDbEntity
  8
0
  6
Continuous
 62
               4
100
AcDbLine
 10
788.57096551650477
 20
349.85478406491478
 30
0.0
 11
779.70769573939492
 21
348.29195046591241
 31
0.0
  0
LINE
  5
D2
100
AcDbEntity
  8
0
  6
Continuous
 62
               4
100
AcDbLine
 10
788.57096551650477
 20
349.85478406491478
 30
0.0
 11
779.70769573939492
 21
351.41761766391716
 31
0.0
  0
LINE
  5
D3
100
AcDbEntity
  8
0
  6
DASHDOT
 62
               4
100
AcDbLine
 10
288.57096551650483
 20
352.85478406491484
 30
0.0
 11
288.57096551650477
 21
238.85478406491387
 31
0.0
  0
LINE
  5
D4
100
AcDbEntity
  8
0
  6
DASHDOT
 62
               4
100
AcDbLine
 10
588.57096551650477
 20
352.85478406491478
 30
0.0
 11
588.57096551650477
 21
238.85478406491387
 31
0.0
  0
CIRCLE
  5
D5
100
AcDbEntity
  8
0
  6
Continuous
 62
               4
100
AcDbCircle
 10
679.57096551650545
 20
303.85478406491416
 30
0.0
 40
1.500000000000002
  0
CIRCLE
  5
D6
100
AcDbEntity
  8
0
  6
Continuous
 62
               4
100
AcDbCircle
 10
679.57096551650511
 20
248.85478406491342
 30
0.0
 40
1.500000000000002
  0
CIRCLE
  5
D7
100
AcDbEntity
  8
0
  6
Continuous
 62
               4
100
AcDbCircle
 10
679.57096551650545
 20
303.85478406491416
 30
0.0
 40
1.500000000000002
  0
CIRCLE
  5
D8
100
AcDbEntity
  8
0
  6
Continuous
 62
               4
100
AcDbCircle
 10
679.57096551650557
 20
313.85478406491529
 30
0.0
 40
1.500000000000002
  0
CIRCLE
  5
D9
100
AcDbEntity
  8
0
  6
Continuous
 62
               4
100
AcDbCircle
 10
264.07096551650386
 20
209.85478406491464
 30
0.0
 40
1.500000000000002
  0
CIRCLE
  5
DA
100
AcDbEntity
  8
0
  6
Continuous
 62
               4
100
AcDbCircle
 10
314.07096551650386
 20
209.85478406491464
 30
0.0
 40
1.500000000000002
  0
CIRCLE
  5
DB
100
AcDbEntity
  8
0
  6
Continuous
 62
               4
100
AcDbCircle
 10
228.07096551650383
 20
303.85478406491472
 30
0.0
 40
1.500000000000002
  0
CIRCLE
  5
DC
100
AcDbEntity
  8
0
  6
Continuous
 62
               4
100
AcDbCircle
 10
228.07096551650383
 20
248.85478406491387
 30
0.0
 40
1.500000000000002
  0
CIRCLE
  5
DD
100
AcDbEntity
  8
0
  6
Continuous
 62
               4
100
AcDbCircle
 10
288.57096551650477
 20
349.85478406491478
 30
0.0
 40
1.500000000000002
  0
CIRCLE
  5
DE
100
AcDbEntity
  8
0
  6
Continuous
 62
               4
100
AcDbCircle
 10
588.57096551650477
 20
349.85478406491478
 30
0.0
 40
1.500000000000002
  0
CIRCLE
  5
DF
100
AcDbEntity
  8
0
  6
Continuous
 62
               4
100
AcDbCircle
 10
588.57096551650477
 20
349.85478406491478
 30
0.0
 40
1.500000000000002
  0
ARC
  5
E0
100
AcDbEntity
  8
0
  6
Continuous
 62
               7
100
AcDbCircle
 10
584.57096551650523
 20
286.8547840649145
 30
0.0
 40
3.0
100
AcDbArc
 50
0.0
 51
90.000000000000028
  0
ARC
  5
E1
100
AcDbEntity
  8
0
  6
Continuous
 62
               7
100
AcDbCircle
 10
568.57096551650523
 20
289.85478406491461
 30
0.0
 40
3.0
100
AcDbArc
 50
180.0
 51
270.0
  0
ARC
  5
E2
100
AcDbEntity
  8
0
  6
Continuous
 62
               7
100
AcDbCircle
 10
573.57096551650523
 20
289.85478406491461
 30
0.0
 40
3.0
100
AcDbArc
 50
270.0
 51
0.0
  0
ARC
  5
E3
100
AcDbEntity
  8
0
  6
Continuous
 62
               7
100
AcDbCircle
 10
568.57096551650545
 20
310.85478406491461
 30
0.0
 40
3.0
100
AcDbArc
 50
90.000000000000028
 51
180.0
  0
ARC
  5
E4
100
AcDbEntity
  8
0
  6
Continuous
 62
               7
100
AcDbCircle
 10
284.57096551650523
 20
286.8547840649145
 30
0.0
 40
3.0
100
AcDbArc
 50
0.0
 51
90.000000000000028
  0
ARC
  5
E5
100
AcDbEntity
  8
0
  6
Continuous
 62
               7
100
AcDbCircle
 10
268.57096551650523
 20
289.85478406491461
 30
0.0
 40
3.0
100
AcDbArc
 50
180.0
 51
270.0
  0
ARC
  5
E6
100
AcDbEntity
  8
0
  6
Continuous
 62
               7
100
AcDbCircle
 10
273.57096551650523
 20
289.85478406491461
 30
0.0
 40
3.0
100
AcDbArc
 50
270.0
 51
0.0
  0
ARC
  5
E7
100
AcDbEntity
  8
0
  6
Continuous
 62
               7
100
AcDbCircle
 10
268.57096551650545
 20
310.85478406491461
 30
0.0
 40
3.0
100
AcDbArc
 50
90.000000000000028
 51
180.0
  0
ARC
  5
E8
100
AcDbEntity
  8
0
  6
Continuous
 62
               3
100
AcDbCircle
 10
313.57096551650386
 20
246.3547840649147
 30
0.0
 40
0.5
100
AcDbArc
 50
270.0
 51
89.999999999999943
  0
ARC
  5
E9
100
AcDbEntity
  8
0
  6
Continuous
 62
               7
100
AcDbCircle
 10
281.57096551650386
 20
302.35478406491472
 30
0.0
 40
1.0
100
AcDbArc
 50
270.0
 51
89.999999999999943
  0
ARC
  5
EA
100
AcDbEntity
  8
0
  6
Continuous
 62
               7
100
AcDbCircle
 10
277.57096551650386
 20
302.35478406491472
 30
0.0
 40
1.0
100
AcDbArc
 50
89.999999999999957
 51
270.0
  0
ARC
  5
EB
100
AcDbEntity
  8
0
  6
Continuous
 62
               7
100
AcDbCircle
 10
279.57096551650386
 20
298.85478406491472
 30
0.0
 40
8.5
100
AcDbArc
 50
61.92751299999999
 51
118.07248
  0
ARC
  5
EC
100
AcDbEntity
  8
0
  6
Continuous
 62
               3
100
AcDbCircle
 10
313.57096551650386
 20
305.35478406491472
 30
0.0
 40
0.5
100
AcDbArc
 50
270.0
 51
89.999999999999943
  0
TEXT
  5
ED
100
AcDbEntity
  8
0
 62
               7
100
AcDbText
 10
679.57096551650523
 20
270.35478406491382
 30
0.0
 40
12.000000000000012
  1
55
 50
90.000000000000028
 41
0.7695
  7
FontTableH_0
 72
               5
 11
679.57096551650523
 21
282.35478406491382
 31
0.0
100
AcDbText
  0
TEXT
  5
EE
100
AcDbEntity
  8
0
 62
               7
100
AcDbText
 10
679.57096551650545
 20
302.85478406491472
 30
0.0
 40
12.000000000000012
  1
10
 50
90.000000000000028
 41
0.7695
  7
FontTableH_0
 72
               5
 11
679.57096551650545
 21
314.85478406491472
 31
0.0
100
AcDbText
  0
TEXT
  5
EF
100
AcDbEntity
  8
0
 62
               7
100
AcDbText
 10
652.99025845452763
 20
411.09981613593857
 30
0.0
 40
11.999999999999842
  1
シートスタット：SUS t1.5加工品
 41
0.7695
  7
FontTableH_0
 72
               5
 11
832.99025845452786
 21
411.09981613593857
 31
0.0
100
AcDbText
  0
TEXT
  5
F0
100
AcDbEntity
  8
0
 62
               7
100
AcDbText
 10
551.56058302948895
 20
453.36218089637134
 30
0.0
 40
12.000000000000012
  1
L-65X65X8 通し材（屋根工事外）
 41
0.7695
  7
FontTableH_0
 72
               5
 11
731.56058302948918
 21
453.36218089637134
 31
0.0
100
AcDbText
  0
TEXT
  5
F1
100
AcDbEntity
  8
0
 62
               7
100
AcDbText
 10
543.84621329211802
 20
172.34930448222585
 30
0.0
 40
12.000000000000012
  1
ハーパーズストロングルーフ300C：各種金属板
 41
0.7695
  7
FontTableH_0
 72
               5
 11
795.84621329211825
 21
172.34930448222585
 31
0.0
100
AcDbText
  0
TEXT
  5
F2
100
AcDbEntity
  8
0
 62
               7
100
AcDbText
 10
283.07096551650386
 20
209.85478406491464
 30
0.0
 40
12.000000000000012
  1
50
 41
0.7695
  7
FontTableH_0
 72
               5
 11
295.07096551650386
 21
209.85478406491464
 31
0.0
100
AcDbText
  0
TEXT
  5
F3
100
AcDbEntity
  8
0
 62
               7
100
AcDbText
 10
228.07096551650383
 20
270.35478406491427
 30
0.0
 40
12.000000000000012
  1
55
 50
90.000000000000028
 41
0.7695
  7
FontTableH_0
 72
               5
 11
228.07096551650383
 21
282.35478406491427
 31
0.0
100
AcDbText
  0
TEXT
  5
F4
100
AcDbEntity
  8
0
 62
               7
100
AcDbText
 10
35.494311351537107
 20
195.82013137557985
 30
0.0
 40
12.000000000000012
  1
（シートスタット取付部欠込み）
 41
0.7695
  7
FontTableH_0
 72
               5
 11
215.49431135153731
 21
195.82013137557985
 31
0.0
100
AcDbText
  0
TEXT
  5
F5
100
AcDbEntity
  8
0
 62
               7
100
AcDbText
 10
35.494311351537107
 20
207.82013137557988
 30
0.0
 40
12.000000000000012
  1
幕板：各種金属板
 41
0.7695
  7
FontTableH_0
 72
               5
 11
131.49431135153719
 21
207.82013137557988
 31
0.0
100
AcDbText
  0
TEXT
  5
F6
100
AcDbEntity
  8
0
 62
               7
100
AcDbText
 10
429.57096551650477
 20
349.85478406491478
 30
0.0
 40
12.000000000000012
  1
300
 41
0.7695
  7
FontTableH_0
 72
               5
 11
447.57096551650477
 21
349.85478406491478
 31
0.0
100
AcDbText
  0
TEXT
  5
F7
100
AcDbEntity
  8
0
 62
               7
100
AcDbText
 10
676.57096551650466
 20
349.85478406491478
 30
0.0
 40
12.000000000000012
  1
@300
 41
0.7695
  7
FontTableH_0
 72
               5
 11
700.57096551650466
 21
349.85478406491478
 31
0.0
100
AcDbText
  0
TEXT
  5
F8
100
AcDbEntity
  8
0
 62
               7
100
AcDbText
 10
740.28679787570582
 20
26.713203554805766
 30
0.0
 40
8.9999997615814333
  1
ケラバ詳細図 【S=1/3】
 41
0.7695
  7
FontTableH_0
 72
               5
 11
839.28679525310156
 21
26.713203554805766
 31
0.0
100
AcDbText
  0
TEXT
  5
F9
100
AcDbEntity
  8
0
 62
               7
100
AcDbText
 10
21.642137411870216
 20
601.35786449547834
 30
0.0
 40
8.9999997615814333
  1
ハーパーズストロングルーフ300C
 41
0.7695
  7
FontTableH_0
 72
               5
 11
156.64213383559172
 21
601.35786449547834
 31
0.0
100
AcDbText
  0
ENDSEC
  0
SECTION
  2
OBJECTS
  0
DICTIONARY
  5
19
100
AcDbDictionary
  3
ACAD_GROUP
350
1A
  3
ACAD_MLINESTYLE
350
1B
  3
DWGPROPS
350
FA
  0
DICTIONARY
  5
1A
102
{ACAD_REACTORS
330
19
102
}
100
AcDbDictionary
  0
DICTIONARY
  5
1B
102
{ACAD_REACTORS
330
19
102
}
100
AcDbDictionary
  3
STANDARD
350
1C
  0
MLINESTYLE
  5
1C
102
{ACAD_REACTORS
330
1B
102
}
100
AcDbMlineStyle
  2
Standard
 70
               0
  3

 62
               0
 51
90.0
 52
90.0
 71
               2
 49
0.5
 62
             256
  6
ByLayer
 49
-0.5
 62
             256
  6
ByLayer
  0
XRECORD
  5
FA
100
AcDbXrecord
  1
DWGPROPS COOKIE
  2

  3

  4

  6

  7

  0
ENDSEC
  0
EOF
