  0
SECTION
  2
HEADER
  9
$ACADVER
  1
AC1014
  9
$ACADMAINTVER
 70
               0
  9
$DWGCODEPAGE
  3
ANSI_932
  9
$INSBASE
 10
0.0
 20
0.0
 30
0.0
  9
$EXTMIN
 10
0.0
 20
0.0
 30
0.0
  9
$EXTMAX
 10
103224.1213605581
 20
106933.03127838243
 30
0.0
  9
$LIMMIN
 10
0.0
 20
0.0
  9
$LIMMAX
 10
103224.1213605581
 20
106933.03127838243
  9
$ORTHOMODE
 70
               0
  9
$REGENMODE
 70
               1
  9
$FILLMODE
 70
               1
  9
$QTEXTMODE
 70
               0
  9
$MIRRTEXT
 70
               1
  9
$DRAGMODE
 70
               2
  9
$LTSCALE
 40
1.0
  9
$OSMODE
 70
               0
  9
$ATTMODE
 70
               1
  9
$TEXTSIZE
 40
0.2
  9
$TRACEWID
 40
0.05
  9
$TEXTSTYLE
  7
Standard
  9
$CLAYER
  8
Layer00003
  9
$CELTYPE
  6
Continuous
  9
$CECOLOR
 62
             256
  9
$CELTSCALE
 40
1.0
  9
$DELOBJ
 70
               1
  9
$DISPSILH
 70
               0
  9
$DIMSCALE
 40
1.0
  9
$DIMASZ
 40
0.18
  9
$DIMEXO
 40
0.0625
  9
$DIMDLI
 40
0.38
  9
$DIMRND
 40
0.0
  9
$DIMDLE
 40
0.0
  9
$DIMEXE
 40
0.18
  9
$DIMTP
 40
0.0
  9
$DIMTM
 40
0.0
  9
$DIMTXT
 40
0.18
  9
$DIMCEN
 40
0.09
  9
$DIMTSZ
 40
0.0
  9
$DIMTOL
 70
               0
  9
$DIMLIM
 70
               0
  9
$DIMTIH
 70
               1
  9
$DIMTOH
 70
               1
  9
$DIMSE1
 70
               0
  9
$DIMSE2
 70
               0
  9
$DIMTAD
 70
               0
  9
$DIMZIN
 70
               0
  9
$DIMBLK
  1

  9
$DIMASO
 70
               1
  9
$DIMSHO
 70
               1
  9
$DIMPOST
  1

  9
$DIMAPOST
  1

  9
$DIMALT
 70
               0
  9
$DIMALTD
 70
               2
  9
$DIMALTF
 40
25.399999999999999
  9
$DIMLFAC
 40
1.0
  9
$DIMTOFL
 70
               0
  9
$DIMTVP
 40
0.0
  9
$DIMTIX
 70
               0
  9
$DIMSOXD
 70
               0
  9
$DIMSAH
 70
               0
  9
$DIMBLK1
  1

  9
$DIMBLK2
  1

  9
$DIMSTYLE
  2
Standard
  9
$DIMCLRD
 70
               0
  9
$DIMCLRE
 70
               0
  9
$DIMCLRT
 70
               0
  9
$DIMTFAC
 40
1.0
  9
$DIMGAP
 40
0.09
  9
$DIMJUST
 70
               0
  9
$DIMSD1
 70
               0
  9
$DIMSD2
 70
               0
  9
$DIMTOLJ
 70
               1
  9
$DIMTZIN
 70
               0
  9
$DIMALTZ
 70
               0
  9
$DIMALTTZ
 70
               0
  9
$DIMFIT
 70
               3
  9
$DIMUPT
 70
               0
  9
$DIMUNIT
 70
               2
  9
$DIMDEC
 70
               4
  9
$DIMTDEC
 70
               4
  9
$DIMALTU
 70
               2
  9
$DIMALTTD
 70
               2
  9
$DIMTXSTY
  7
Standard
  9
$DIMAUNIT
 70
               0
  9
$LUNITS
 70
               2
  9
$LUPREC
 70
               4
  9
$SKETCHINC
 40
0.1
  9
$FILLETRAD
 40
0.0
  9
$AUNITS
 70
               0
  9
$AUPREC
 70
               0
  9
$MENU
  1
acad
  9
$ELEVATION
 40
0.0
  9
$PELEVATION
 40
0.0
  9
$THICKNESS
 40
0.0
  9
$LIMCHECK
 70
               0
  9
$BLIPMODE
 70
               1
  9
$CHAMFERA
 40
0.0
  9
$CHAMFERB
 40
0.0
  9
$CHAMFERC
 40
0.0
  9
$CHAMFERD
 40
0.0
  9
$SKPOLY
 70
               0
  9
$TDCREATE
 40
0.000000000
  9
$TDUPDATE
 40
0.000000000
  9
$TDINDWG
 40
0.0000000000
  9
$TDUSRTIMER
 40
0.0000000000
  9
$USRTIMER
 70
               1
  9
$ANGBASE
 50
0.0
  9
$ANGDIR
 70
               0
  9
$PDMODE
 70
               0
  9
$PDSIZE
 40
0.0
  9
$PLINEWID
 40
0.0
  9
$COORDS
 70
               0
  9
$SPLFRAME
 70
               0
  9
$SPLINETYPE
 70
               6
  9
$SPLINESEGS
 70
               8
  9
$ATTDIA
 70
               0
  9
$ATTREQ
 70
               1
  9
$HANDLING
 70
               1
  9
$HANDSEED
  5
660
  9
$SURFTAB1
 70
               6
  9
$SURFTAB2
 70
               6
  9
$SURFTYPE
 70
               6
  9
$SURFU
 70
               6
  9
$SURFV
 70
               6
  9
$UCSNAME
  2

  9
$UCSORG
 10
0.0
 20
0.0
 30
0.0
  9
$UCSXDIR
 10
1.0
 20
0.0
 30
0.0
  9
$UCSYDIR
 10
0.0
 20
1.0
 30
0.0
  9
$PUCSNAME
  2

  9
$PUCSORG
 10
0.0
 20
0.0
 30
0.0
  9
$PUCSXDIR
 10
1.0
 20
0.0
 30
0.0
  9
$PUCSYDIR
 10
0.0
 20
1.0
 30
0.0
  9
$USERI1
 70
               0
  9
$USERI2
 70
               0
  9
$USERI3
 70
               0
  9
$USERI4
 70
               0
  9
$USERI5
 70
               0
  9
$USERR1
 40
0.0
  9
$USERR2
 40
0.0
  9
$USERR3
 40
0.0
  9
$USERR4
 40
0.0
  9
$USERR5
 40
0.0
  9
$WORLDVIEW
 70
               1
  9
$SHADEDGE
 70
               3
  9
$SHADEDIF
 70
              70
  9
$TILEMODE
 70
               1
  9
$MAXACTVP
 70
              16
  9
$PINSBASE
 10
0.0
 20
0.0
 30
0.0
  9
$PLIMCHECK
 70
               0
  9
$PEXTMIN
 10
1.0000000000000000E+20
 20
1.0000000000000000E+20
 30
1.0000000000000000E+20
  9
$PEXTMAX
 10
-1.0000000000000000E+20
 20
-1.0000000000000000E+20
 30
-1.0000000000000000E+20
  9
$PLIMMIN
 10
0.0
 20
0.0
  9
$PLIMMAX
 10
12.0
 20
9.0
  9
$UNITMODE
 70
               0
  9
$VISRETAIN
 70
               0
  9
$PLINEGEN
 70
               1
  9
$PSLTSCALE
 70
               0
  9
$TREEDEPTH
 70
            3020
  9
$PICKSTYLE
 70
               1
  9
$CMLSTYLE
  2
Standard
  9
$CMLJUST
 70
               0
  9
$CMLSCALE
 40
1.0
  9
$PROXYGRAPHICS
 70
               0
  9
$MEASUREMENT
 70
               0
  0
ENDSEC
  0
SECTION
  2
CLASSES
  0
CLASS
  1
LWPOLYLINE
  2
AcDbPolyline
  3
"AutoCAD"
 90
        0
280
               0
281
               1
  0
CLASS
  1
IMAGE
  2
AcDbRasterImage
  3
ISM
 90
      127
280
               0
281
               1
  0
CLASS
  1
OLE2FRAME
  2
AcDbOle2Frame
  3
""
 90
        0
280
               0
281
               1
  0
CLASS
  1
HATCH
  2
AcDbHatch
  3
"ACAD_SEDONA"
 90
        0
280
               0
281
               1
  0
CLASS
  1
DICTIONARYVAR
  2
AcDbDictionaryVar
  3
"AutoCAD"
 90
        0
280
               0
281
               0
  0
CLASS
  1
RASTERVARIABLES
  2
AcDbRasterVariables
  3
ISM
 90
        0
280
               0
281
               0
  0
CLASS
  1
IMAGEDEF
  2
AcDbRasterImageDef
  3
ISM
 90
        0
280
               0
281
               0
  0
CLASS
  1
IMAGEDEF_REACTOR
  2
AcDbRasterImageDefReactor
  3
ISM
 90
        1
280
               0
281
               0
  0
CLASS
  1
IDBUFFER
  2
AcDbIdBuffer
  3
"Acad"
 90
        0
280
               0
281
               0
  0
CLASS
  1
SPATIAL_FILTER
  2
AcDbSpatialFilter
  3
"Acad"
 90
        0
280
               0
281
               0
  0
CLASS
  1
XRECORD
  2
AcDbXrecord
  3
"<Built In>"
 90
        0
280
               0
281
               0
  0
CLASS
  1
SORTENTSTABLE
  2
AcDbSortentsTable
  3
"AutoCAD"
 90
        0
280
               0
281
               0
  0
CLASS
  1
LAYER_INDEX
  2
AcDbLayerIndex
  3
"Acad"
 90
        0
280
               0
281
               0
  0
CLASS
  1
SPATIAL_INDEX
  2
AcDbSpatialIndex
  3
"Acad"
 90
        0
280
               0
281
               0
  0
CLASS
  1
OBJECT_PTR
  2
CAseDLPNTableRecord
  3
"ASE-LPNTableRecord"
 90
        1
280
               0
281
               0
  0
CLASS
  1
LAYOUT
  2
AcDbLayout
  3
"AutoCAD 2000"
 90
        0
280
               0
281
               0
  0
CLASS
  1
PLOTSETTINGS
  2
AcDbPlotSettings
  3
"AutoCAD 2000"
 90
        0
280
               0
281
               0
  0
CLASS
  1
ACDBDICTIONARYWDFLT
  2
AcDbDictionaryWithDefault
  3
"AutoCAD 2000"
 90
        0
280
               0
281
               0
  0
CLASS
  1
ACDBPLACEHOLDER
  2
AcDbPlaceHolder
  3
"AutoCAD 2000"
 90
        0
280
               0
281
               0
  0
CLASS
  1
VBA_PROJECT
  2
AcDbVbaProject
  3
"acadvba"
 90
        0
280
               0
281
               0
  0
CLASS
  1
WIPEOUT
  2
AcDbWipeout
  3
WipeOut|AutoCAD Express Tool|expresstools@autodesk.com
 90
      127
280
               0
281
               1
  0
CLASS
  1
WIPEOUTVARIABLES
  2
AcDbWipeoutVariables
  3
WipeOut|AutoCAD Express Tool|expresstools@autodesk.com
 90
        0
280
               0
281
               0
  0
CLASS
  1
RTEXT
  2
RText
  3
RText|AutoCAD Express Tool|expresstools@autodesk.com
 90
        0
280
               0
281
               1
  0
CLASS
  1
ARCALIGNEDTEXT
  2
AcDbArcAlignedText
  3
ATEXT|AutoCAD Express Tool|expresstools@autodesk.com
 90
        0
280
               0
281
               1
  0
ENDSEC
  0
SECTION
  2
TABLES
  0
TABLE
  2
VPORT
  5
7
100
AcDbSymbolTable
 70
               1
  0
VPORT
  5
15
100
AcDbSymbolTableRecord
100
AcDbViewportTableRecord
  2
*ACTIVE
 70
               0
 10
0.0
 20
0.0
 11
1.0
 21
1.0
 12
51612.06068027905
 22
53466.515639191217
 13
0.0
 23
0.0
 14
10.0
 24
10.0
 15
10.0
 25
10.0
 16
0.0
 26
0.0
 36
1.0
 17
0.0
 27
0.0
 37
0.0
 40
106933.03127838243
 41
0.9653155823464051
 42
50.0
 43
0.0
 44
0.0
 50
0.0
 51
0.0
 71
               0
 72
             100
 73
               1
 74
               1
 75
               0
 76
               0
 77
               0
 78
               0
  0
ENDTAB
  0
TABLE
  2
LTYPE
  5
4
100
AcDbSymbolTable
 70
              24
  0
LTYPE
  5
11
100
AcDbSymbolTableRecord
100
AcDbLinetypeTableRecord
  2
ByBlock
 70
              64
  3

 72
              65
 73
               0
 40
0.0
  0
LTYPE
  5
12
100
AcDbSymbolTableRecord
100
AcDbLinetypeTableRecord
  2
ByLayer
 70
              64
  3

 72
              65
 73
               0
 40
0.0
  0
LTYPE
  5
13
100
AcDbSymbolTableRecord
100
AcDbLinetypeTableRecord
  2
Continuous
 70
              64
  3
Solid line
 72
              65
 73
               0
 40
0.0
  0
LTYPE
  5
1D
100
AcDbSymbolTableRecord
100
AcDbLinetypeTableRecord
  2
DOT
 70
              64
  3
Dot . . . . . . . . . . . . . . . . . . . . . .
 72
              65
 73
               2
 40
6.3499999999999996
 49
0.35
 74
               0
 49
-6.0
 74
               0
  0
LTYPE
  5
1E
100
AcDbSymbolTableRecord
100
AcDbLinetypeTableRecord
  2
DASHED
 70
              64
  3
Dashed __ __ __ __ __ __ __ __ __ __ __ __ __ _
 72
              65
 73
               2
 40
12.699999999999999
 49
6.3499999999999996
 74
               0
 49
-6.3499999999999996
 74
               0
  0
LTYPE
  5
1F
100
AcDbSymbolTableRecord
100
AcDbLinetypeTableRecord
  2
DASHDOT
 70
              64
  3
Dash dot __ . __ . __ . __ . __ . __ . __ . __
 72
              65
 73
               4
 40
25.399999999999999
 49
12.699999999999999
 74
               0
 49
-6.0
 74
               0
 49
0.7
 74
               0
 49
-6.0
 74
               0
  0
LTYPE
  5
20
100
AcDbSymbolTableRecord
100
AcDbLinetypeTableRecord
  2
DIVIDE
 70
              64
  3
Divide ____ . . ____ . . ____ . . ____ . . ____
 72
              65
 73
               6
 40
31.75
 49
12.699999999999999
 74
               0
 49
-6.0
 74
               0
 49
0.875
 74
               0
 49
-6.0
 74
               0
 49
0.875
 74
               0
 49
-6.0
 74
               0
  0
LTYPE
  5
21
100
AcDbSymbolTableRecord
100
AcDbLinetypeTableRecord
  2
HIDDEN
 70
              64
  3
Hidden __ __ __ __ __ __ __ __ __ __ __ __ __ _
 72
              65
 73
               2
 40
9.5250000000000004
 49
6.3499999999999996
 74
               0
 49
-3.1749999999999998
 74
               0
  0
LTYPE
  5
22
100
AcDbSymbolTableRecord
100
AcDbLinetypeTableRecord
  2
CENTER
 70
              64
  3
Center ____ _ ____ _ ____ _ ____ _ ____ _ ____
 72
              65
 73
               4
 40
50.799999999999997
 49
31.75
 74
               0
 49
-6.3499999999999996
 74
               0
 49
6.3499999999999996
 74
               0
 49
-6.3499999999999996
 74
               0
  0
LTYPE
  5
23
100
AcDbSymbolTableRecord
100
AcDbLinetypeTableRecord
  2
PHANTOM
 70
              64
  3
Phantom ______  __  __  ______  __  __  ______
 72
              65
 73
               6
 40
63.5
 49
31.75
 74
               0
 49
-6.3499999999999996
 74
               0
 49
6.3499999999999996
 74
               0
 49
-6.3499999999999996
 74
               0
 49
6.3499999999999996
 74
               0
 49
-6.3499999999999996
 74
               0
  0
LTYPE
  5
24
100
AcDbSymbolTableRecord
100
AcDbLinetypeTableRecord
  2
ACAD_ISO02W100
 70
              64
  3
ISO dash __ __ __ __ __ __ __ __ __ __ __ __ __
 72
              65
 73
               2
 40
15.0
 49
12.0
 74
               0
 49
-3.0
 74
               0
  0
LTYPE
  5
25
100
AcDbSymbolTableRecord
100
AcDbLinetypeTableRecord
  2
ACAD_ISO03W100
 70
              64
  3
ISO dash space __ __ __ __ __ __ __ __ __ __ __ __ __ __
 72
              65
 73
               2
 40
30.0
 49
12.0
 74
               0
 49
-18.0
 74
               0
  0
LTYPE
  5
26
100
AcDbSymbolTableRecord
100
AcDbLinetypeTableRecord
  2
ACAD_ISO04W100
 70
              64
  3
ISO long-dash dot ____ . ____ . ____ . ____ . _
 72
              65
 73
               4
 40
30.0
 49
24.0
 74
               0
 49
-3.0
 74
               0
 49
0.0
 74
               0
 49
-3.0
 74
               0
  0
LTYPE
  5
27
100
AcDbSymbolTableRecord
100
AcDbLinetypeTableRecord
  2
ACAD_ISO05W100
 70
              64
  3
ISO long-dash double-dot ____ .. ____ .. ____ .
 72
              65
 73
               6
 40
33.0
 49
24.0
 74
               0
 49
-3.0
 74
               0
 49
0.0
 74
               0
 49
-3.0
 74
               0
 49
0.0
 74
               0
 49
-3.0
 74
               0
  0
LTYPE
  5
28
100
AcDbSymbolTableRecord
100
AcDbLinetypeTableRecord
  2
ACAD_ISO06W100
 70
              64
  3
ISO long-dash triple-dot ____ ... ____ ... ____
 72
              65
 73
               8
 40
36.0
 49
24.0
 74
               0
 49
-3.0
 74
               0
 49
0.0
 74
               0
 49
-3.0
 74
               0
 49
0.0
 74
               0
 49
-3.0
 74
               0
 49
0.0
 74
               0
 49
-3.0
 74
               0
  0
LTYPE
  5
29
100
AcDbSymbolTableRecord
100
AcDbLinetypeTableRecord
  2
ACAD_ISO07W100
 70
              64
  3
ISO dot . . . . . . . . . . . . . . . . . . . .
 72
              65
 73
               2
 40
3.0
 49
0.0
 74
               0
 49
-3.0
 74
               0
  0
LTYPE
  5
2A
100
AcDbSymbolTableRecord
100
AcDbLinetypeTableRecord
  2
ACAD_ISO08W100
 70
              64
  3
ISO long-dash short-dash ____ __ ____ __ ____ _
 72
              65
 73
               4
 40
36.0
 49
24.0
 74
               0
 49
-3.0
 74
               0
 49
6.0
 74
               0
 49
-3.0
 74
               0
  0
LTYPE
  5
2B
100
AcDbSymbolTableRecord
100
AcDbLinetypeTableRecord
  2
ACAD_ISO09W100
 70
              64
  3
ISO long-dash double-short-dash ____ __ __ ____
 72
              65
 73
               6
 40
45.0
 49
24.0
 74
               0
 49
-3.0
 74
               0
 49
6.0
 74
               0
 49
-3.0
 74
               0
 49
6.0
 74
               0
 49
-3.0
 74
               0
  0
LTYPE
  5
2C
100
AcDbSymbolTableRecord
100
AcDbLinetypeTableRecord
  2
ACAD_ISO10W100
 70
              64
  3
ISO dash dot __ . __ . __ . __ . __ . __ . __ .
 72
              65
 73
               4
 40
18.0
 49
12.0
 74
               0
 49
-3.0
 74
               0
 49
0.0
 74
               0
 49
-3.0
 74
               0
  0
LTYPE
  5
2D
100
AcDbSymbolTableRecord
100
AcDbLinetypeTableRecord
  2
ACAD_ISO11W100
 70
              64
  3
ISO double-dash dot __ __ . __ __ . __ __ . __ 
 72
              65
 73
               6
 40
33.0
 49
12.0
 74
               0
 49
-3.0
 74
               0
 49
12.0
 74
               0
 49
-3.0
 74
               0
 49
0.0
 74
               0
 49
-3.0
 74
               0
  0
LTYPE
  5
2E
100
AcDbSymbolTableRecord
100
AcDbLinetypeTableRecord
  2
ACAD_ISO12W100
 70
              64
  3
ISO dash double-dot __ . . __ . . __ . . __ . .
 72
              65
 73
               6
 40
21.0
 49
12.0
 74
               0
 49
-3.0
 74
               0
 49
0.0
 74
               0
 49
-3.0
 74
               0
 49
0.0
 74
               0
 49
-3.0
 74
               0
  0
LTYPE
  5
2F
100
AcDbSymbolTableRecord
100
AcDbLinetypeTableRecord
  2
ACAD_ISO13W100
 70
              64
  3
ISO double-dash double-dot __ __ . . __ __ . . 
 72
              65
 73
               8
 40
36.0
 49
12.0
 74
               0
 49
-3.0
 74
               0
 49
12.0
 74
               0
 49
-3.0
 74
               0
 49
0.0
 74
               0
 49
-3.0
 74
               0
 49
0.0
 74
               0
 49
-3.0
 74
               0
  0
LTYPE
  5
30
100
AcDbSymbolTableRecord
100
AcDbLinetypeTableRecord
  2
ACAD_ISO14W100
 70
              64
  3
ISO dash triple-dot __ . . . __ . . . __ . . . 
 72
              65
 73
               8
 40
24.0
 49
12.0
 74
               0
 49
-3.0
 74
               0
 49
0.0
 74
               0
 49
-3.0
 74
               0
 49
0.0
 74
               0
 49
-3.0
 74
               0
 49
0.0
 74
               0
 49
-3.0
 74
               0
  0
LTYPE
  5
31
100
AcDbSymbolTableRecord
100
AcDbLinetypeTableRecord
  2
ACAD_ISO15W100
 70
              64
  3
ISO double-dash double-dot __ __ . . __ __ . . 
 72
              65
 73
              10
 40
39.0
 49
12.0
 74
               0
 49
-3.0
 74
               0
 49
12.0
 74
               0
 49
-3.0
 74
               0
 49
0.0
 74
               0
 49
-3.0
 74
               0
 49
0.0
 74
               0
 49
-3.0
 74
               0
 49
0.0
 74
               0
 49
-3.0
 74
               0
  0
ENDTAB
  0
TABLE
  2
LAYER
  5
2
100
AcDbSymbolTable
 70
               4
  0
LAYER
  5
14
100
AcDbSymbolTableRecord
100
AcDbLayerTableRecord
  2
0
 70
               0
 62
               7
  6
Continuous
  0
LAYER
  5
35
100
AcDbSymbolTableRecord
100
AcDbLayerTableRecord
  2
Layer00001
 70
               0
 62
               7
  6
Continuous
  0
LAYER
  5
36
100
AcDbSymbolTableRecord
100
AcDbLayerTableRecord
  2
Layer00002
 70
               0
 62
               7
  6
Continuous
  0
LAYER
  5
37
100
AcDbSymbolTableRecord
100
AcDbLayerTableRecord
  2
Layer00003
 70
               0
 62
               7
  6
Continuous
  0
ENDTAB
  0
TABLE
  2
STYLE
  5
3
100
AcDbSymbolTable
 70
               4
  0
STYLE
  5
17
100
AcDbSymbolTableRecord
100
AcDbTextStyleTableRecord
  2
Standard
 70
               0
 40
0.0
 41
1.0
 50
0.0
 71
               0
 42
0.0
  3
txt.shx
  4
bigfont.shx
  0
STYLE
  5
32
100
AcDbSymbolTableRecord
100
AcDbTextStyleTableRecord
  2
STANDARD_T
 70
               4
 40
0.0
 41
1.0
 50
0.0
 71
               0
 42
0.0
  3
txt.shx
  4
bigfont.shx
  0
STYLE
  5
33
100
AcDbSymbolTableRecord
100
AcDbTextStyleTableRecord
  2
FontTableH_0
 70
               0
 40
0.0
 41
1.0
 50
0.0
 71
               0
 42
0.0
  3
MS Gothic.ttf
  4

1001
ACAD
1000
MS Gothic
1071
    32817
  0
STYLE
  5
34
100
AcDbSymbolTableRecord
100
AcDbTextStyleTableRecord
  2
FontTableV_0
 70
               0
 40
0.0
 41
1.0
 50
0.0
 71
               0
 42
0.0
  3
@MS Gothic.ttf
  4

1001
ACAD
1000
@MS Gothic
1071
    32817
  0
ENDTAB
  0
TABLE
  2
VIEW
  5
5
100
AcDbSymbolTable
 70
               0
  0
ENDTAB
  0
TABLE
  2
UCS
  5
6
100
AcDbSymbolTable
 70
               0
  0
ENDTAB
  0
TABLE
  2
APPID
  5
8
100
AcDbSymbolTable
 70
               1
  0
APPID
  5
16
100
AcDbSymbolTableRecord
100
AcDbRegAppTableRecord
  2
ACAD
 70
               0
  0
ENDTAB
  0
TABLE
  2
DIMSTYLE
  5
9
100
AcDbSymbolTable
 70
               1
  0
DIMSTYLE
105
18
100
AcDbSymbolTableRecord
100
AcDbDimStyleTableRecord
  2
Standard
 70
               0
  3

  4

  5

  6

  7

 40
1.0
 41
0.18
 42
0.0625
 43
0.38
 44
0.18
 45
0.0
 46
0.0
 47
0.0
 48
0.0
 71
               0
 72
               0
 73
               1
 74
               1
 75
               0
 76
               0
 77
               0
 78
               0
140
0.18
141
0.09
142
0.0
143
25.399999999999999
144
1.0
145
0.0
146
1.0
147
0.09
170
               0
171
               2
172
               0
173
               0
174
               0
175
               0
176
               0
177
               0
178
               0
270
               2
271
               4
272
               4
273
               2
274
               2
275
               0
280
               0
281
               0
282
               0
283
               1
284
               0
285
               0
286
               0
287
               0
288
               0
340
17
  0
ENDTAB
  0
TABLE
  2
BLOCK_RECORD
  5
1
100
AcDbSymbolTable
 70
               0
  0
BLOCK_RECORD
  5
A
100
AcDbSymbolTableRecord
100
AcDbBlockTableRecord
  2
*MODEL_SPACE
  0
BLOCK_RECORD
  5
B
100
AcDbSymbolTableRecord
100
AcDbBlockTableRecord
  2
*PAPER_SPACE
  0
ENDTAB
  0
ENDSEC
  0
SECTION
  2
BLOCKS
  0
BLOCK
  5
D
100
AcDbEntity
  8
0
100
AcDbBlockBegin
  2
*MODEL_SPACE
 70
               0
 10
0.0
 20
0.0
 30
0.0
  3
*MODEL_SPACE
  1

  0
ENDBLK
  5
E
100
AcDbEntity
  8
0
100
AcDbBlockEnd
  0
BLOCK
  5
F
100
AcDbEntity
 67
               1
  8
0
100
AcDbBlockBegin
  2
*PAPER_SPACE
 70
               0
 10
0.0
 20
0.0
 30
0.0
  3
*PAPER_SPACE
  1

  0
ENDBLK
  5
10
100
AcDbEntity
 67
               1
  8
0
100
AcDbBlockEnd
  0
ENDSEC
  0
SECTION
  2
ENTITIES
  0
LINE
  5
38
100
AcDbEntity
  8
0
  6
Continuous
 62
               3
100
AcDbLine
 10
73092.814785281138
 20
91161.147478744373
 30
0.0
 11
73128.591872921126
 21
91089.593303464368
 31
0.0
  0
LINE
  5
39
100
AcDbEntity
  8
0
  6
Continuous
 62
               3
100
AcDbLine
 10
73419.280709996092
 20
90731.822427064413
 30
0.0
 11
73218.034592021126
 21
91134.314663014375
 31
0.0
  0
LINE
  5
3A
100
AcDbEntity
  8
0
  6
Continuous
 62
               3
100
AcDbLine
 10
73289.588767301117
 20
91170.091750654363
 30
0.0
 11
73450.585661681092
 21
90848.097961894397
 31
0.0
  0
LINE
  5
3B
100
AcDbEntity
  8
0
  6
Continuous
 62
               3
100
AcDbLine
 10
73450.585661681107
 20
91340.032916944343
 30
0.0
 11
73486.362749321095
 21
91268.478741664352
 31
0.0
  0
LINE
  5
3C
100
AcDbEntity
  8
0
  6
Continuous
 62
               3
100
AcDbLine
 10
73419.280709996092
 20
90731.822427064413
 30
0.0
 11
73490.834865381286
 21
90767.599554494023
 31
0.0
  0
LINE
  5
3D
100
AcDbEntity
  8
0
  6
Continuous
 62
               2
100
AcDbLine
 10
73081.634445393633
 20
91161.147478744373
 30
0.0
 11
73081.634445393633
 21
90996.980812077702
 31
0.0
  0
LINE
  5
3E
100
AcDbEntity
  8
0
  6
Continuous
 62
               2
100
AcDbLine
 10
73081.634445393633
 20
91161.147478744373
 30
0.0
 11
73001.135998203637
 21
91120.898255149368
 31
0.0
  0
LINE
  5
3F
100
AcDbEntity
  8
0
  6
Continuous
 62
               2
100
AcDbLine
 10
73097.180066479501
 20
91025.954667885264
 30
0.0
 11
73086.634445393633
 21
90996.980812077702
 31
0.0
  0
LINE
  5
40
100
AcDbEntity
  8
0
  6
Continuous
 62
               2
100
AcDbLine
 10
73062.094252220311
 20
91140.103032389408
 30
0.0
 11
73003.176435582238
 21
91116.817380392182
 31
0.0
  0
LINE
  5
41
100
AcDbEntity
  8
0
  6
Continuous
 62
               3
100
AcDbLine
 10
73420.771421981102
 20
90833.190842044394
 30
0.0
 11
73438.659965801096
 21
90797.413754404406
 31
0.0
  0
LINE
  5
42
100
AcDbEntity
  8
0
  6
Continuous
 62
               3
100
AcDbLine
 10
73490.834865381286
 20
90767.599554494023
 30
0.0
 11
73468.474205501101
 21
90812.320874254394
 31
0.0
  0
LINE
  5
43
100
AcDbEntity
  8
0
  6
DASHED
 62
               6
100
AcDbLine
 10
74014.820148003564
 20
91627.740330049332
 30
0.0
 11
73090.578717303637
 21
91165.619614699361
 31
0.0
  0
LINE
  5
44
100
AcDbEntity
  8
0
  6
Continuous
 62
               2
100
AcDbLine
 10
74009.602656056057
 20
91638.175313944332
 30
0.0
 11
72995.918506256145
 21
91131.333239044368
 31
0.0
  0
LINE
  5
45
100
AcDbEntity
  8
0
  6
Continuous
 62
               3
100
AcDbLine
 10
74017.056215981051
 20
91623.268194094329
 30
0.0
 11
73092.814785281138
 21
91161.147478744373
 31
0.0
  0
LINE
  5
46
100
AcDbEntity
  8
0
  6
Continuous
 62
               3
100
AcDbLine
 10
75120.183084880962
 20
92174.831628544285
 30
0.0
 11
74076.684695381045
 21
91653.082433794334
 31
0.0
  0
LINE
  5
47
100
AcDbEntity
  8
0
  6
Continuous
 62
               7
100
AcDbLine
 10
75123.164508850954
 20
92168.868780604287
 30
0.0
 11
74079.666119351052
 21
91647.119585854336
 31
0.0
  0
LINE
  5
48
100
AcDbEntity
  8
0
  6
DASHED
 62
               6
100
AcDbLine
 10
75117.947016903461
 20
92179.303764499287
 30
0.0
 11
74074.448627403559
 21
91657.554569749336
 31
0.0
  0
LINE
  5
49
100
AcDbEntity
  8
0
  6
Continuous
 62
               2
100
AcDbLine
 10
75112.729524955954
 20
92189.738748394273
 30
0.0
 11
74069.231135456052
 21
91667.989553644322
 31
0.0
  0
LINE
  5
4A
100
AcDbEntity
  8
0
  6
Continuous
 62
               4
100
AcDbLine
 10
74291.347221221033
 20
91223.75738211436
 30
0.0
 11
74174.773543994044
 21
91456.904736568351
 31
0.0
  0
LINE
  5
4B
100
AcDbEntity
  8
0
  6
Continuous
 62
               4
100
AcDbLine
 10
74231.718741821038
 20
91193.94314241437
 30
0.0
 11
74115.145064594049
 21
91427.090496868346
 31
0.0
  0
LINE
  5
4C
100
AcDbEntity
  8
0
  6
Continuous
 62
               2
100
AcDbLine
 10
75068.008165405961
 20
92279.181467494287
 30
0.0
 11
74024.509775906059
 21
91757.432272744307
 31
0.0
  0
LINE
  5
4D
100
AcDbEntity
  8
0
  6
Continuous
 62
               6
100
AcDbLine
 10
74061.777575531058
 20
91682.896673494324
 30
0.0
 11
75105.275965030945
 21
92204.64586824429
 31
0.0
  0
LINE
  5
4E
100
AcDbEntity
  8
0
  6
Continuous
 62
               2
100
AcDbLine
 10
72957.15999464615
 20
91223.757382114331
 30
0.0
 11
73964.88129650605
 21
91727.618033044331
 31
0.0
  0
LINE
  5
4F
100
AcDbEntity
  8
0
  6
DASHED
 62
               6
100
AcDbLine
 10
75090.368845180958
 20
92234.460107944295
 30
0.0
 11
74643.155249681004
 21
92010.853310194303
 31
0.0
  0
LINE
  5
50
100
AcDbEntity
  8
0
  6
DASHED
 62
               6
100
AcDbLine
 10
73987.241976281046
 20
91682.896673494339
 30
0.0
 11
73450.585661681107
 21
91414.56851619434
 31
0.0
  0
LINE
  5
51
100
AcDbEntity
  8
0
  6
Continuous
 62
               6
100
AcDbLine
 10
74002.149096131063
 20
91653.08243379432
 30
0.0
 11
72988.464946331136
 21
91146.240358894371
 31
0.0
  0
LINE
  5
52
100
AcDbEntity
  8
0
  6
Continuous
 62
               6
100
AcDbLine
 10
73458.039221606101
 20
91474.196995594335
 30
0.0
 11
73249.339543706112
 21
91369.847156644348
 31
0.0
  0
LINE
  5
53
100
AcDbEntity
  8
0
  6
Continuous
 62
               6
100
AcDbLine
 10
73238.308275017116
 20
91511.166652822329
 30
0.0
 11
73293.464618462109
 21
91400.853965932343
 31
0.0
  0
LINE
  5
54
100
AcDbEntity
  8
0
  6
Continuous
 62
               6
100
AcDbLine
 10
73351.602385877108
 20
91567.813708252332
 30
0.0
 11
73406.7587293221
 21
91457.501021362346
 31
0.0
  0
LINE
  5
55
100
AcDbEntity
  8
0
  6
Continuous
 62
               6
100
AcDbLine
 10
73451.480088872093
 20
91479.861701137343
 30
0.0
 11
73406.7587293221
 21
91457.501021362346
 31
0.0
  0
LINE
  5
56
100
AcDbEntity
  8
0
  6
Continuous
 62
               6
100
AcDbLine
 10
73455.952224827095
 20
91478.370989152332
 30
0.0
 11
73458.039221606101
 21
91474.196995594335
 31
0.0
  0
LINE
  5
57
100
AcDbEntity
  8
0
  6
Continuous
 62
               6
100
AcDbLine
 10
73247.25254692712
 20
91374.021150202345
 30
0.0
 11
73249.339543706112
 21
91369.847156644348
 31
0.0
  0
LINE
  5
58
100
AcDbEntity
  8
0
  6
Continuous
 62
               6
100
AcDbLine
 10
73398.857955801606
 20
91459.140804545837
 30
0.0
 11
73351.155172281608
 21
91554.546371585835
 31
0.0
  0
LINE
  5
59
100
AcDbEntity
  8
0
  6
Continuous
 62
               6
100
AcDbLine
 10
73296.893256027615
 20
91408.158454658842
 30
0.0
 11
73249.190472507617
 21
91503.564021698839
 31
0.0
  0
LINE
  5
5A
100
AcDbEntity
  8
0
  6
Continuous
 62
               6
100
AcDbLine
 10
73351.602385877108
 20
91567.813708252332
 30
0.0
 11
73327.750994117116
 21
91555.888012372336
 31
0.0
  0
LINE
  5
5B
100
AcDbEntity
  8
0
  6
Continuous
 62
               6
100
AcDbLine
 10
73332.968486064608
 20
91545.453028477335
 30
0.0
 11
73327.750994117116
 21
91555.888012372336
 31
0.0
  0
LINE
  5
5C
100
AcDbEntity
  8
0
  6
Continuous
 62
               6
100
AcDbLine
 10
73267.377158724616
 20
91512.657364807339
 30
0.0
 11
73262.159666777123
 21
91523.092348702339
 31
0.0
  0
LINE
  5
5D
100
AcDbEntity
  8
0
  6
Continuous
 62
               6
100
AcDbLine
 10
73351.155172281608
 20
91554.546371585835
 30
0.0
 11
73338.931334004606
 21
91548.434452447327
 31
0.0
  0
LINE
  5
5E
100
AcDbEntity
  8
0
  6
Continuous
 62
               6
100
AcDbLine
 10
73261.414310784618
 20
91509.675940837333
 30
0.0
 11
73249.190472507617
 21
91503.564021698839
 31
0.0
  0
LINE
  5
5F
100
AcDbEntity
  8
0
  6
Continuous
 62
               6
100
AcDbLine
 10
73262.159666777123
 20
91523.092348702339
 30
0.0
 11
73238.308275017116
 21
91511.166652822329
 31
0.0
  0
LINE
  5
60
100
AcDbEntity
  8
0
  6
Continuous
 62
               6
100
AcDbLine
 10
73248.743258912116
 20
91378.493286157347
 30
0.0
 11
73293.464618462109
 21
91400.853965932343
 31
0.0
  0
LINE
  5
61
100
AcDbEntity
  8
0
  6
Continuous
 62
               6
100
AcDbLine
 10
73396.621887824105
 20
91452.432600613334
 30
0.0
 11
73377.242632019101
 21
91442.742972710839
 31
0.0
  0
LINE
  5
62
100
AcDbEntity
  8
0
  6
Continuous
 62
               6
100
AcDbLine
 10
73372.323282468613
 20
91444.382755894345
 30
0.0
 11
73324.620498948614
 21
91420.531364134338
 31
0.0
  0
LINE
  5
63
100
AcDbEntity
  8
0
  6
DASHDOT
 62
               4
100
AcDbLine
 10
73212.668054753565
 20
91704.064731924416
 30
0.0
 11
73699.534563429406
 21
90730.331714572734
 31
0.0
  0
LINE
  5
64
100
AcDbEntity
  8
0
  6
Continuous
 62
               6
100
AcDbLine
 10
73377.242632019101
 20
91442.742972710839
 30
0.0
 11
73372.323282468613
 21
91444.382755894345
 31
0.0
  0
LINE
  5
65
100
AcDbEntity
  8
0
  6
Continuous
 62
               6
100
AcDbLine
 10
73303.601459960119
 20
91405.922386681341
 30
0.0
 11
73322.980715765108
 21
91415.612014583836
 31
0.0
  0
LINE
  5
66
100
AcDbEntity
  8
0
  6
Continuous
 62
               6
100
AcDbLine
 10
73322.980715765108
 20
91415.612014583836
 30
0.0
 11
73324.620498948614
 21
91420.531364134338
 31
0.0
  0
LINE
  5
67
100
AcDbEntity
  8
0
  6
Continuous
 62
               6
100
AcDbLine
 10
73455.952224827095
 20
91478.370989152332
 30
0.0
 11
73451.480088872093
 21
91479.861701137343
 31
0.0
  0
LINE
  5
68
100
AcDbEntity
  8
0
  6
Continuous
 62
               6
100
AcDbLine
 10
73248.743258912116
 20
91378.493286157347
 30
0.0
 11
73247.25254692712
 21
91374.021150202345
 31
0.0
  0
LINE
  5
69
100
AcDbEntity
  8
0
  6
Continuous
 62
               4
100
AcDbLine
 10
73348.620961907101
 20
91573.77655619233
 30
0.0
 11
73338.185978012116
 21
91594.64652398233
 31
0.0
  0
LINE
  5
6A
100
AcDbEntity
  8
0
  6
Continuous
 62
               4
100
AcDbLine
 10
73336.695266027105
 20
91560.360148327323
 30
0.0
 11
73328.496350109606
 21
91576.757980162321
 31
0.0
  0
LINE
  5
6B
100
AcDbEntity
  8
0
  6
Continuous
 62
               4
100
AcDbLine
 10
73334.459198049604
 20
91579.739404132328
 30
0.0
 11
73328.496350109606
 21
91576.757980162321
 31
0.0
  0
LINE
  5
6C
100
AcDbEntity
  8
0
  6
Continuous
 62
               4
100
AcDbLine
 10
73348.620961907101
 20
91573.77655619233
 30
0.0
 11
73339.676689997112
 21
91569.304420237328
 31
0.0
  0
LINE
  5
6D
100
AcDbEntity
  8
0
  6
Continuous
 62
               4
100
AcDbLine
 10
73339.676689997112
 20
91569.304420237328
 30
0.0
 11
73334.459198049604
 21
91579.739404132328
 31
0.0
  0
LINE
  5
6E
100
AcDbEntity
  8
0
  6
Continuous
 62
               4
100
AcDbLine
 10
73338.185978012116
 20
91594.64652398233
 30
0.0
 11
73892.730836432063
 21
91871.918953192304
 31
0.0
  0
LINE
  5
6F
100
AcDbEntity
  8
0
  6
Continuous
 62
               4
100
AcDbLine
 10
73406.7587293221
 20
91457.501021362346
 30
0.0
 11
73961.303587742063
 21
91734.77345057232
 31
0.0
  0
LINE
  5
70
100
AcDbEntity
  8
0
  6
Continuous
 62
               4
100
AcDbLine
 10
73351.602385877108
 20
91567.813708252332
 30
0.0
 11
73336.695266027105
 21
91560.360148327323
 31
0.0
  0
LINE
  5
71
100
AcDbEntity
  8
0
  6
Continuous
 62
               4
100
AcDbLine
 10
73351.602385877108
 20
91567.813708252332
 30
0.0
 11
73406.7587293221
 21
91457.501021362346
 31
0.0
  0
LINE
  5
72
100
AcDbEntity
  8
0
  6
Continuous
 62
               6
100
AcDbLine
 10
73342.658113967103
 20
91570.795132222323
 30
0.0
 11
73335.20455404211
 21
91585.702252072326
 31
0.0
  0
LINE
  5
73
100
AcDbEntity
  8
0
  6
Continuous
 62
               6
100
AcDbLine
 10
73249.041401309121
 20
91523.98677589334
 30
0.0
 11
73241.587841384113
 21
91538.893895743327
 31
0.0
  0
LINE
  5
74
100
AcDbEntity
  8
0
  6
Continuous
 62
               6
100
AcDbLine
 10
73335.20455404211
 20
91585.702252072326
 30
0.0
 11
73241.587841384113
 21
91538.893895743327
 31
0.0
  0
LINE
  5
75
100
AcDbEntity
  8
0
  6
Continuous
 62
               6
100
AcDbLine
 10
73321.490003780113
 20
91590.770672821323
 30
0.0
 11
73245.761834942125
 21
91552.906588402329
 31
0.0
  0
LINE
  5
76
100
AcDbEntity
  8
0
  6
Continuous
 62
               6
100
AcDbLine
 10
73232.643569474123
 20
91541.875319713334
 30
0.0
 11
73245.761834942125
 21
91552.906588402329
 31
0.0
  0
LINE
  5
77
100
AcDbEntity
  8
0
  6
Continuous
 62
               6
100
AcDbLine
 10
73338.185978012116
 20
91594.64652398233
 30
0.0
 11
73321.490003780113
 21
91590.770672821323
 31
0.0
  0
LINE
  5
78
100
AcDbEntity
  8
0
  6
Continuous
 62
               7
100
AcDbLine
 10
73302.707032769118
 20
91587.342035255831
 30
0.0
 11
73305.092171945114
 21
91582.571756903824
 31
0.0
  0
LINE
  5
79
100
AcDbEntity
  8
0
  6
Continuous
 62
               7
100
AcDbLine
 10
73252.022825279113
 20
91561.999931510829
 30
0.0
 11
73254.407964455109
 21
91557.229653158836
 31
0.0
  0
LINE
  5
7A
100
AcDbEntity
  8
0
  6
Continuous
 62
               7
100
AcDbLine
 10
73302.707032769118
 20
91587.342035255831
 30
0.0
 11
73252.022825279113
 21
91561.999931510829
 31
0.0
  0
LINE
  5
7B
100
AcDbEntity
  8
0
  6
Continuous
 62
               7
100
AcDbLine
 10
73295.998828836615
 20
91591.441493214574
 30
0.0
 11
73298.980252806607
 21
91585.478645274576
 31
0.0
  0
LINE
  5
7C
100
AcDbEntity
  8
0
  6
Continuous
 62
               7
100
AcDbLine
 10
73252.768181271618
 20
91569.826169432083
 30
0.0
 11
73255.74960524161
 21
91563.863321492085
 31
0.0
  0
LINE
  5
7D
100
AcDbEntity
  8
0
  6
Continuous
 62
               7
100
AcDbLine
 10
73296.74418482912
 20
91591.814171210834
 30
0.0
 11
73252.022825279113
 21
91569.453491435823
 31
0.0
  0
LINE
  5
7E
100
AcDbEntity
  8
0
  6
Continuous
 62
               7
100
AcDbLine
 10
73252.022825279113
 20
91569.453491435823
 30
0.0
 11
73243.288822270464
 21
91586.921497453135
 31
0.0
  0
LINE
  5
7F
100
AcDbEntity
  8
0
  6
Continuous
 62
               7
100
AcDbLine
 10
73247.550689324111
 20
91591.441493214574
 30
0.0
 11
73281.837064979118
 21
91608.584681042077
 31
0.0
  0
LINE
  5
80
100
AcDbEntity
  8
0
  6
Continuous
 62
               7
100
AcDbLine
 10
73286.30920093412
 20
91586.596679263326
 30
0.0
 11
73277.575197925456
 21
91604.064685280639
 31
0.0
  0
LINE
  5
81
100
AcDbEntity
  8
0
  6
Continuous
 62
               7
100
AcDbLine
 10
73262.457809174113
 20
91574.67098338333
 30
0.0
 11
73253.723806165464
 21
91592.138989400642
 31
0.0
  0
LINE
  5
82
100
AcDbEntity
  8
0
  6
Continuous
 62
               7
100
AcDbLine
 10
73305.68845673911
 20
91488.209688253337
 30
0.0
 11
73272.594650672108
 21
91554.397300387325
 31
0.0
  0
LINE
  5
83
100
AcDbEntity
  8
0
  6
Continuous
 62
               7
100
AcDbLine
 10
73329.539848499116
 20
91500.135384133333
 30
0.0
 11
73296.446042432115
 21
91566.322996267336
 31
0.0
  0
LINE
  5
84
100
AcDbEntity
  8
0
  6
Continuous
 62
               7
100
AcDbLine
 10
73296.74418482912
 20
91591.814171210834
 30
0.0
 11
73288.010181820457
 21
91609.282177228131
 31
0.0
  0
LINE
  5
85
100
AcDbEntity
  8
0
  6
Continuous
 62
               7
100
AcDbLine
 10
73328.049136514106
 20
91495.663248178331
 30
0.0
 11
73310.160592694112
 21
91486.718976268341
 31
0.0
  0
LINE
  5
86
100
AcDbEntity
  8
0
  6
Continuous
 62
               7
100
AcDbLine
 10
73293.464618462109
 20
91564.832284282325
 30
0.0
 11
73328.049136514106
 21
91495.663248178331
 31
0.0
  0
LINE
  5
87
100
AcDbEntity
  8
0
  6
Continuous
 62
               7
100
AcDbLine
 10
73275.576074642115
 20
91555.888012372336
 30
0.0
 11
73310.160592694112
 21
91486.718976268341
 31
0.0
  0
LINE
  5
88
100
AcDbEntity
  8
0
  6
Continuous
 62
               7
100
AcDbLine
 10
73329.539848499116
 20
91500.135384133333
 30
0.0
 11
73305.68845673911
 21
91488.209688253337
 31
0.0
  0
LINE
  5
89
100
AcDbEntity
  8
0
  6
Continuous
 62
               7
100
AcDbLine
 10
73310.160592694112
 20
91486.718976268341
 30
0.0
 11
73305.68845673911
 21
91488.209688253337
 31
0.0
  0
LINE
  5
8A
100
AcDbEntity
  8
0
  6
Continuous
 62
               7
100
AcDbLine
 10
73328.049136514106
 20
91495.663248178331
 30
0.0
 11
73329.539848499116
 21
91500.135384133333
 31
0.0
  0
LINE
  5
8B
100
AcDbEntity
  8
0
  6
Continuous
 62
               6
100
AcDbLine
 10
73333.713842057114
 20
91536.508756567331
 30
0.0
 11
73274.085362657119
 21
91506.694516867341
 31
0.0
  0
LINE
  5
8C
100
AcDbEntity
  8
0
  6
Continuous
 62
               6
100
AcDbLine
 10
73340.459454673735
 20
91528.701222988151
 30
0.0
 11
73276.284021950487
 21
91496.613506626512
 31
0.0
  0
LINE
  5
8D
100
AcDbEntity
  8
0
  6
Continuous
 62
               6
100
AcDbLine
 10
73333.713842057114
 20
91536.508756567331
 30
0.0
 11
73343.701612356614
 21
91550.819591623324
 31
0.0
  0
LINE
  5
8E
100
AcDbEntity
  8
0
  6
Continuous
 62
               6
100
AcDbLine
 10
73340.459454673735
 20
91528.701222988151
 30
0.0
 11
73351.901949595296
 21
91545.096439592162
 31
0.0
  0
LINE
  5
8F
100
AcDbEntity
  8
0
  6
Continuous
 62
               6
100
AcDbLine
 10
73351.901949595296
 20
91545.096439592162
 30
0.0
 11
73343.701612356614
 21
91550.819591623324
 31
0.0
  0
LINE
  5
90
100
AcDbEntity
  8
0
  6
Continuous
 62
               6
100
AcDbLine
 10
73274.085362657119
 20
91506.694516867341
 30
0.0
 11
73256.64403243261
 21
91507.290801661336
 31
0.0
  0
LINE
  5
91
100
AcDbEntity
  8
0
  6
Continuous
 62
               6
100
AcDbLine
 10
73276.284021950487
 20
91496.613506626512
 30
0.0
 11
73256.302351714345
 21
91497.296640651693
 31
0.0
  0
LINE
  5
92
100
AcDbEntity
  8
0
  6
Continuous
 62
               6
100
AcDbLine
 10
73256.302351714345
 20
91497.296640651693
 30
0.0
 11
73256.64403243261
 21
91507.290801661336
 31
0.0
  0
LINE
  5
93
100
AcDbEntity
  8
0
  6
Continuous
 62
               7
100
AcDbLine
 10
73455.057797636095
 20
91405.62424428435
 30
0.0
 11
73305.986599136115
 21
91331.088645034353
 31
0.0
  0
LINE
  5
94
100
AcDbEntity
  8
0
  6
Continuous
 62
               7
100
AcDbLine
 10
73289.886909698107
 20
91378.195143760342
 30
0.0
 11
73311.949447076113
 21
91334.070069004345
 31
0.0
  0
LINE
  5
95
100
AcDbEntity
  8
0
  6
Continuous
 62
               7
100
AcDbLine
 10
73412.721577262098
 20
91451.538173422334
 30
0.0
 11
73294.657188050114
 21
91392.505978816349
 31
0.0
  0
LINE
  5
96
100
AcDbEntity
  8
0
  6
Continuous
 62
               7
100
AcDbLine
 10
73427.032412318105
 20
91446.767895070341
 30
0.0
 11
73449.094949696097
 21
91402.642820314344
 31
0.0
  0
LINE
  5
97
100
AcDbEntity
  8
0
  6
Continuous
 62
               7
100
AcDbLine
 10
73439.554392992097
 20
91397.872541962352
 30
0.0
 11
73417.491855614106
 21
91441.997616718334
 31
0.0
  0
LINE
  5
98
100
AcDbEntity
  8
0
  6
Continuous
 62
               7
100
AcDbLine
 10
73299.427466402107
 20
91382.965422112349
 30
0.0
 11
73417.491855614106
 21
91441.997616718334
 31
0.0
  0
LINE
  5
99
100
AcDbEntity
  8
0
  6
Continuous
 62
               7
100
AcDbLine
 10
73321.490003780113
 20
91338.840347356352
 30
0.0
 11
73299.427466402107
 21
91382.965422112349
 31
0.0
  0
LINE
  5
9A
100
AcDbEntity
  8
0
  6
Continuous
 62
               7
100
AcDbLine
 10
73285.116631346114
 20
91372.828580614354
 30
0.0
 11
73305.986599136115
 21
91331.088645034353
 31
0.0
  0
LINE
  5
9B
100
AcDbEntity
  8
0
  6
DASHED
 62
               7
100
AcDbLine
 10
73358.161518611101
 20
91413.077804209344
 30
0.0
 11
73344.745110746109
 21
91417.549940164346
 31
0.0
  0
LINE
  5
9C
100
AcDbEntity
  8
0
  6
DASHED
 62
               7
100
AcDbLine
 10
73358.161518611101
 20
91413.077804209344
 30
0.0
 11
73362.633654566103
 21
91426.494212074336
 31
0.0
  0
LINE
  5
9D
100
AcDbEntity
  8
0
  6
DASHED
 62
               7
100
AcDbLine
 10
73340.272974791107
 20
91404.13353229934
 30
0.0
 11
73344.745110746109
 21
91417.549940164346
 31
0.0
  0
LINE
  5
9E
100
AcDbEntity
  8
0
  6
DASHED
 62
               7
100
AcDbLine
 10
73340.272974791107
 20
91404.13353229934
 30
0.0
 11
73326.856566926115
 21
91408.605668254342
 31
0.0
  0
LINE
  5
9F
100
AcDbEntity
  8
0
  6
DASHED
 62
               7
100
AcDbLine
 10
73322.384430971113
 20
91395.18926038935
 30
0.0
 11
73326.856566926115
 21
91408.605668254342
 31
0.0
  0
LINE
  5
A0
100
AcDbEntity
  8
0
  6
DASHED
 62
               7
100
AcDbLine
 10
73322.384430971113
 20
91395.18926038935
 30
0.0
 11
73308.968023106107
 21
91399.661396344338
 31
0.0
  0
LINE
  5
A1
100
AcDbEntity
  8
0
  6
DASHED
 62
               7
100
AcDbLine
 10
73304.495887151119
 20
91386.244988479346
 30
0.0
 11
73308.968023106107
 21
91399.661396344338
 31
0.0
  0
LINE
  5
A2
100
AcDbEntity
  8
0
  6
DASHED
 62
               7
100
AcDbLine
 10
73304.495887151119
 20
91386.244988479346
 30
0.0
 11
73291.079479286112
 21
91390.717124434348
 31
0.0
  0
LINE
  5
A3
100
AcDbEntity
  8
0
  6
Continuous
 62
               7
100
AcDbLine
 10
73285.116631346114
 20
91372.828580614354
 30
0.0
 11
73288.799956663366
 21
91383.878556566109
 31
0.0
  0
LINE
  5
A4
100
AcDbEntity
  8
0
  6
DASHED
 62
               7
100
AcDbLine
 10
73288.799956663366
 20
91383.878556566109
 30
0.0
 11
73291.079479286112
 21
91390.717124434348
 31
0.0
  0
LINE
  5
A5
100
AcDbEntity
  8
0
  6
Continuous
 62
               7
100
AcDbLine
 10
73434.187829846094
 20
91447.364179864337
 30
0.0
 11
73455.057797636095
 21
91405.62424428435
 31
0.0
  0
LINE
  5
A6
100
AcDbEntity
  8
0
  6
DASHED
 62
               7
100
AcDbLine
 10
73376.05006243111
 20
91422.022076119349
 30
0.0
 11
73362.633654566103
 21
91426.494212074336
 31
0.0
  0
LINE
  5
A7
100
AcDbEntity
  8
0
  6
DASHED
 62
               7
100
AcDbLine
 10
73376.05006243111
 20
91422.022076119349
 30
0.0
 11
73380.522198386112
 21
91435.438483984341
 31
0.0
  0
LINE
  5
A8
100
AcDbEntity
  8
0
  6
DASHED
 62
               7
100
AcDbLine
 10
73393.938606251104
 20
91430.966348029338
 30
0.0
 11
73380.522198386112
 21
91435.438483984341
 31
0.0
  0
LINE
  5
A9
100
AcDbEntity
  8
0
  6
DASHED
 62
               7
100
AcDbLine
 10
73393.938606251104
 20
91430.966348029338
 30
0.0
 11
73398.410742206106
 21
91444.382755894345
 31
0.0
  0
LINE
  5
AA
100
AcDbEntity
  8
0
  6
DASHED
 62
               7
100
AcDbLine
 10
73411.827150071098
 20
91439.910619939343
 30
0.0
 11
73398.410742206106
 21
91444.382755894345
 31
0.0
  0
LINE
  5
AB
100
AcDbEntity
  8
0
  6
DASHED
 62
               7
100
AcDbLine
 10
73411.827150071098
 20
91439.910619939343
 30
0.0
 11
73416.2992860261
 21
91453.327027804335
 31
0.0
  0
LINE
  5
AC
100
AcDbEntity
  8
0
  6
Continuous
 62
               7
100
AcDbLine
 10
73434.187829846094
 20
91447.364179864337
 30
0.0
 11
73423.137853894339
 21
91451.047505181588
 31
0.0
  0
LINE
  5
AD
100
AcDbEntity
  8
0
  6
Continuous
 62
               7
100
AcDbLine
 10
73371.428855277612
 20
91449.898390238843
 30
0.0
 11
73373.813994453609
 21
91445.128111886836
 31
0.0
  0
LINE
  5
AE
100
AcDbEntity
  8
0
  6
Continuous
 62
               7
100
AcDbLine
 10
73320.744647787607
 20
91424.55628649384
 30
0.0
 11
73323.129786963604
 21
91419.786008141848
 31
0.0
  0
LINE
  5
AF
100
AcDbEntity
  8
0
  6
Continuous
 62
               7
100
AcDbLine
 10
73371.428855277612
 20
91449.898390238843
 30
0.0
 11
73320.744647787607
 21
91424.55628649384
 31
0.0
  0
LINE
  5
B0
100
AcDbEntity
  8
0
  6
Continuous
 62
               7
100
AcDbLine
 10
73364.720651345109
 20
91453.997848197585
 30
0.0
 11
73367.702075315101
 21
91448.035000257587
 31
0.0
  0
LINE
  5
B1
100
AcDbEntity
  8
0
  6
Continuous
 62
               7
100
AcDbLine
 10
73321.490003780113
 20
91432.382524415094
 30
0.0
 11
73324.471427750104
 21
91426.419676475096
 31
0.0
  0
LINE
  5
B2
100
AcDbEntity
  8
0
  6
Continuous
 62
               7
100
AcDbLine
 10
73365.466007337614
 20
91454.370526193845
 30
0.0
 11
73320.744647787607
 21
91432.009846418834
 31
0.0
  0
LINE
  5
B3
100
AcDbEntity
  8
0
  6
Continuous
 62
               7
100
AcDbLine
 10
73320.744647787607
 20
91432.009846418834
 30
0.0
 11
73312.010644778959
 21
91449.477852436146
 31
0.0
  0
LINE
  5
B4
100
AcDbEntity
  8
0
  6
Continuous
 62
               7
100
AcDbLine
 10
73316.272511832605
 20
91453.997848197585
 30
0.0
 11
73350.558887487612
 21
91471.141036025088
 31
0.0
  0
LINE
  5
B5
100
AcDbEntity
  8
0
  6
Continuous
 62
               7
100
AcDbLine
 10
73355.031023442614
 20
91449.153034246337
 30
0.0
 11
73346.297020433951
 21
91466.62104026365
 31
0.0
  0
LINE
  5
B6
100
AcDbEntity
  8
0
  6
Continuous
 62
               7
100
AcDbLine
 10
73331.179631682608
 20
91437.227338366341
 30
0.0
 11
73322.445628673959
 21
91454.695344383654
 31
0.0
  0
LINE
  5
B7
100
AcDbEntity
  8
0
  6
Continuous
 62
               7
100
AcDbLine
 10
73365.466007337614
 20
91454.370526193845
 30
0.0
 11
73356.732004328951
 21
91471.838532211157
 31
0.0
  0
LINE
  5
B8
100
AcDbEntity
  8
0
  6
Continuous
 62
               7
100
AcDbLine
 10
73361.56045593381
 20
91376.465689863937
 30
0.0
 11
73346.53396512811
 21
91406.518671475351
 31
0.0
  0
LINE
  5
B9
100
AcDbEntity
  8
0
  6
Continuous
 62
               7
100
AcDbLine
 10
73385.411847693817
 20
91388.391385743933
 30
0.0
 11
73370.385356888102
 21
91418.444367355347
 31
0.0
  0
LINE
  5
BA
100
AcDbEntity
  8
0
  6
Continuous
 62
               7
100
AcDbLine
 10
73383.921135708806
 20
91383.919249788931
 30
0.0
 11
73366.032591888812
 21
91374.974977878926
 31
0.0
  0
LINE
  5
BB
100
AcDbEntity
  8
0
  6
Continuous
 62
               7
100
AcDbLine
 10
73367.403932918111
 20
91416.953655370336
 30
0.0
 11
73383.921135708806
 21
91383.919249788931
 31
0.0
  0
LINE
  5
BC
100
AcDbEntity
  8
0
  6
Continuous
 62
               7
100
AcDbLine
 10
73349.515389098102
 20
91408.009383460347
 30
0.0
 11
73366.032591888812
 21
91374.974977878926
 31
0.0
  0
LINE
  5
BD
100
AcDbEntity
  8
0
  6
Continuous
 62
               7
100
AcDbLine
 10
73385.411847693817
 20
91388.391385743933
 30
0.0
 11
73361.56045593381
 21
91376.465689863937
 31
0.0
  0
LINE
  5
BE
100
AcDbEntity
  8
0
  6
Continuous
 62
               7
100
AcDbLine
 10
73366.032591888812
 20
91374.974977878926
 30
0.0
 11
73361.56045593381
 21
91376.465689863937
 31
0.0
  0
LINE
  5
BF
100
AcDbEntity
  8
0
  6
Continuous
 62
               7
100
AcDbLine
 10
73383.921135708806
 20
91383.919249788931
 30
0.0
 11
73385.411847693817
 21
91388.391385743933
 31
0.0
  0
LINE
  5
C0
100
AcDbEntity
  8
0
  6
Continuous
 62
               6
100
AcDbLine
 10
73243.227624567618
 20
91520.707209526328
 30
0.0
 11
73232.643569474123
 21
91541.875319713334
 31
0.0
  0
LINE
  5
C1
100
AcDbEntity
  8
0
  6
Continuous
 62
               6
100
AcDbLine
 10
73227.127935129625
 20
91512.657364807339
 30
0.0
 11
73237.413847826116
 21
91492.085539414329
 31
0.0
  0
LINE
  5
C2
100
AcDbEntity
  8
0
  6
Continuous
 62
               6
100
AcDbLine
 10
73264.84294835011
 20
91524.43398948884
 30
0.0
 11
73235.624993444115
 21
91509.825012035828
 31
0.0
  0
LINE
  5
C3
100
AcDbEntity
  8
0
  6
Continuous
 62
               6
100
AcDbLine
 10
73235.624993444115
 20
91509.825012035828
 30
0.0
 11
73243.078553369123
 21
91494.91789218584
 31
0.0
  0
LINE
  5
C4
100
AcDbEntity
  8
0
  6
Continuous
 62
               6
100
AcDbLine
 10
73243.078553369123
 20
91494.91789218584
 30
0.0
 11
73237.413847826116
 21
91492.085539414329
 31
0.0
  0
LINE
  5
C5
100
AcDbEntity
  8
0
  6
Continuous
 62
               6
100
AcDbLine
 10
73243.227624567618
 20
91520.707209526328
 30
0.0
 11
73227.127935129625
 21
91512.657364807339
 31
0.0
  0
LINE
  5
C6
100
AcDbEntity
  8
0
  6
Continuous
 62
               6
100
AcDbLine
 10
73267.526229923111
 20
91533.229190200334
 30
0.0
 11
73277.961213818111
 21
91512.359222410334
 31
0.0
  0
LINE
  5
C7
100
AcDbEntity
  8
0
  6
Continuous
 62
               6
100
AcDbLine
 10
73264.84294835011
 20
91524.43398948884
 30
0.0
 11
73272.296508275118
 21
91509.526869638838
 31
0.0
  0
LINE
  5
C8
100
AcDbEntity
  8
0
  6
Continuous
 62
               6
100
AcDbLine
 10
73272.296508275118
 20
91509.526869638838
 30
0.0
 11
73277.961213818111
 21
91512.359222410334
 31
0.0
  0
LINE
  5
C9
100
AcDbEntity
  8
0
  6
Continuous
 62
               6
100
AcDbLine
 10
73249.041401309121
 20
91523.98677589334
 30
0.0
 11
73267.526229923111
 21
91533.229190200334
 31
0.0
  0
LINE
  5
CA
100
AcDbEntity
  8
0
  6
Continuous
 62
               6
100
AcDbLine
 10
74650.608809605998
 20
92070.481789594298
 30
0.0
 11
74441.909131706023
 21
91966.131950644296
 31
0.0
  0
LINE
  5
CB
100
AcDbEntity
  8
0
  6
Continuous
 62
               6
100
AcDbLine
 10
74430.877863017013
 20
92107.451446822291
 30
0.0
 11
74486.03420646202
 21
91997.138759932292
 31
0.0
  0
LINE
  5
CC
100
AcDbEntity
  8
0
  6
Continuous
 62
               6
100
AcDbLine
 10
74544.171973877004
 20
92164.09850225228
 30
0.0
 11
74599.328317322012
 21
92053.785815362295
 31
0.0
  0
LINE
  5
CD
100
AcDbEntity
  8
0
  6
Continuous
 62
               6
100
AcDbLine
 10
74644.049676872004
 20
92076.146495137291
 30
0.0
 11
74599.328317322012
 21
92053.785815362295
 31
0.0
  0
LINE
  5
CE
100
AcDbEntity
  8
0
  6
Continuous
 62
               6
100
AcDbLine
 10
74648.521812827006
 20
92074.655783152295
 30
0.0
 11
74650.608809605998
 21
92070.481789594298
 31
0.0
  0
LINE
  5
CF
100
AcDbEntity
  8
0
  6
Continuous
 62
               6
100
AcDbLine
 10
74439.822134927017
 20
91970.305944202293
 30
0.0
 11
74441.909131706023
 21
91966.131950644296
 31
0.0
  0
LINE
  5
D0
100
AcDbEntity
  8
0
  6
Continuous
 62
               6
100
AcDbLine
 10
74591.427543801503
 20
92055.425598545786
 30
0.0
 11
74543.724760281504
 21
92150.831165585783
 31
0.0
  0
LINE
  5
D1
100
AcDbEntity
  8
0
  6
Continuous
 62
               6
100
AcDbLine
 10
74489.462844027512
 20
92004.44324865879
 30
0.0
 11
74441.760060507513
 21
92099.848815698788
 31
0.0
  0
LINE
  5
D2
100
AcDbEntity
  8
0
  6
Continuous
 62
               6
100
AcDbLine
 10
74544.171973877004
 20
92164.09850225228
 30
0.0
 11
74520.320582117012
 21
92152.172806372284
 31
0.0
  0
LINE
  5
D3
100
AcDbEntity
  8
0
  6
Continuous
 62
               6
100
AcDbLine
 10
74525.538074064505
 20
92141.737822477284
 30
0.0
 11
74520.320582117012
 21
92152.172806372284
 31
0.0
  0
LINE
  5
D4
100
AcDbEntity
  8
0
  6
Continuous
 62
               6
100
AcDbLine
 10
74459.946746724512
 20
92108.942158807287
 30
0.0
 11
74454.729254777019
 21
92119.377142702288
 31
0.0
  0
LINE
  5
D5
100
AcDbEntity
  8
0
  6
Continuous
 62
               6
100
AcDbLine
 10
74543.724760281504
 20
92150.831165585783
 30
0.0
 11
74531.500922004518
 21
92144.71924644729
 31
0.0
  0
LINE
  5
D6
100
AcDbEntity
  8
0
  6
Continuous
 62
               6
100
AcDbLine
 10
74453.983898784514
 20
92105.960734837281
 30
0.0
 11
74441.760060507513
 21
92099.848815698788
 31
0.0
  0
LINE
  5
D7
100
AcDbEntity
  8
0
  6
Continuous
 62
               6
100
AcDbLine
 10
74454.729254777019
 20
92119.377142702288
 30
0.0
 11
74430.877863017013
 21
92107.451446822291
 31
0.0
  0
LINE
  5
D8
100
AcDbEntity
  8
0
  6
Continuous
 62
               6
100
AcDbLine
 10
74441.312846912013
 20
91974.778080157295
 30
0.0
 11
74486.03420646202
 21
91997.138759932292
 31
0.0
  0
LINE
  5
D9
100
AcDbEntity
  8
0
  6
Continuous
 62
               6
100
AcDbLine
 10
74589.191475824002
 20
92048.717394613297
 30
0.0
 11
74569.812220019012
 21
92039.027766710788
 31
0.0
  0
LINE
  5
DA
100
AcDbEntity
  8
0
  6
Continuous
 62
               6
100
AcDbLine
 10
74564.892870468509
 20
92040.667549894293
 30
0.0
 11
74517.190086948511
 21
92016.816158134301
 31
0.0
  0
LINE
  5
DB
100
AcDbEntity
  8
0
  6
DASHDOT
 62
               4
100
AcDbLine
 10
74892.104151429317
 20
91326.616508572683
 30
0.0
 11
74449.809905226517
 21
92211.205000978283
 31
0.0
  0
LINE
  5
DC
100
AcDbEntity
  8
0
  6
Continuous
 62
               6
100
AcDbLine
 10
74569.812220019012
 20
92039.027766710788
 30
0.0
 11
74564.892870468509
 21
92040.667549894293
 31
0.0
  0
LINE
  5
DD
100
AcDbEntity
  8
0
  6
Continuous
 62
               6
100
AcDbLine
 10
74496.171047960015
 20
92002.207180681289
 30
0.0
 11
74515.55030376502
 21
92011.896808583799
 31
0.0
  0
LINE
  5
DE
100
AcDbEntity
  8
0
  6
Continuous
 62
               6
100
AcDbLine
 10
74515.55030376502
 20
92011.896808583799
 30
0.0
 11
74517.190086948511
 21
92016.816158134301
 31
0.0
  0
LINE
  5
DF
100
AcDbEntity
  8
0
  6
Continuous
 62
               6
100
AcDbLine
 10
74648.521812827006
 20
92074.655783152295
 30
0.0
 11
74644.049676872004
 21
92076.146495137291
 31
0.0
  0
LINE
  5
E0
100
AcDbEntity
  8
0
  6
Continuous
 62
               6
100
AcDbLine
 10
74441.312846912013
 20
91974.778080157295
 30
0.0
 11
74439.822134927017
 21
91970.305944202293
 31
0.0
  0
LINE
  5
E1
100
AcDbEntity
  8
0
  6
Continuous
 62
               4
100
AcDbLine
 10
74541.190549907013
 20
92170.061350192278
 30
0.0
 11
74530.755566012012
 21
92190.931317982278
 31
0.0
  0
LINE
  5
E2
100
AcDbEntity
  8
0
  6
Continuous
 62
               4
100
AcDbLine
 10
74529.264854027017
 20
92156.644942327286
 30
0.0
 11
74521.065938109517
 21
92173.042774162284
 31
0.0
  0
LINE
  5
E3
100
AcDbEntity
  8
0
  6
Continuous
 62
               4
100
AcDbLine
 10
74527.028786049515
 20
92176.024198132276
 30
0.0
 11
74521.065938109517
 21
92173.042774162284
 31
0.0
  0
LINE
  5
E4
100
AcDbEntity
  8
0
  6
Continuous
 62
               4
100
AcDbLine
 10
74541.190549907013
 20
92170.061350192278
 30
0.0
 11
74532.246277997008
 21
92165.589214237276
 31
0.0
  0
LINE
  5
E5
100
AcDbEntity
  8
0
  6
Continuous
 62
               4
100
AcDbLine
 10
74532.246277997008
 20
92165.589214237276
 30
0.0
 11
74527.028786049515
 21
92176.024198132276
 31
0.0
  0
LINE
  5
E6
100
AcDbEntity
  8
0
  6
Continuous
 62
               4
100
AcDbLine
 10
74530.755566012012
 20
92190.931317982278
 30
0.0
 11
74995.85770533196
 21
92423.48238764226
 31
0.0
  0
LINE
  5
E7
100
AcDbEntity
  8
0
  6
Continuous
 62
               4
100
AcDbLine
 10
74599.328317322012
 20
92053.785815362295
 30
0.0
 11
75064.43045664196
 21
92286.336885022276
 31
0.0
  0
LINE
  5
E8
100
AcDbEntity
  8
0
  6
Continuous
 62
               4
100
AcDbLine
 10
74544.171973877004
 20
92164.09850225228
 30
0.0
 11
74529.264854027017
 21
92156.644942327286
 31
0.0
  0
LINE
  5
E9
100
AcDbEntity
  8
0
  6
Continuous
 62
               4
100
AcDbLine
 10
74544.171973877004
 20
92164.09850225228
 30
0.0
 11
74599.328317322012
 21
92053.785815362295
 31
0.0
  0
LINE
  5
EA
100
AcDbEntity
  8
0
  6
Continuous
 62
               4
100
AcDbLine
 10
74427.896439047021
 20
92113.41429476229
 30
0.0
 11
74417.461455152021
 21
92134.28426255229
 31
0.0
  0
LINE
  5
EB
100
AcDbEntity
  8
0
  6
Continuous
 62
               4
100
AcDbLine
 10
74445.784982867015
 20
92114.905006747285
 30
0.0
 11
74437.586066949516
 21
92131.302838582284
 31
0.0
  0
LINE
  5
EC
100
AcDbEntity
  8
0
  6
Continuous
 62
               4
100
AcDbLine
 10
74431.623219009518
 20
92128.321414612277
 30
0.0
 11
74437.586066949516
 21
92131.302838582284
 31
0.0
  0
LINE
  5
ED
100
AcDbEntity
  8
0
  6
Continuous
 62
               4
100
AcDbLine
 10
74427.896439047021
 20
92113.41429476229
 30
0.0
 11
74436.840710957025
 21
92117.886430717292
 31
0.0
  0
LINE
  5
EE
100
AcDbEntity
  8
0
  6
Continuous
 62
               4
100
AcDbLine
 10
74436.840710957025
 20
92117.886430717292
 30
0.0
 11
74431.623219009518
 21
92128.321414612277
 31
0.0
  0
LINE
  5
EF
100
AcDbEntity
  8
0
  6
Continuous
 62
               4
100
AcDbLine
 10
74417.461455152021
 20
92134.28426255229
 30
0.0
 11
73952.359315832073
 21
91901.733192892309
 31
0.0
  0
LINE
  5
F0
100
AcDbEntity
  8
0
  6
Continuous
 62
               4
100
AcDbLine
 10
74486.03420646202
 20
91997.138759932292
 30
0.0
 11
74020.932067142057
 21
91764.58769027231
 31
0.0
  0
LINE
  5
F1
100
AcDbEntity
  8
0
  6
Continuous
 62
               4
100
AcDbLine
 10
74430.877863017013
 20
92107.451446822291
 30
0.0
 11
74445.784982867015
 21
92114.905006747285
 31
0.0
  0
LINE
  5
F2
100
AcDbEntity
  8
0
  6
Continuous
 62
               4
100
AcDbLine
 10
74430.877863017013
 20
92107.451446822291
 30
0.0
 11
74486.03420646202
 21
91997.138759932292
 31
0.0
  0
LINE
  5
F3
100
AcDbEntity
  8
0
  6
Continuous
 62
               6
100
AcDbLine
 10
74535.227701967015
 20
92167.079926222286
 30
0.0
 11
74527.774142042006
 21
92181.987046072274
 31
0.0
  0
LINE
  5
F4
100
AcDbEntity
  8
0
  6
Continuous
 62
               6
100
AcDbLine
 10
74433.859286987019
 20
92116.395718732281
 30
0.0
 11
74426.405727062025
 21
92131.302838582284
 31
0.0
  0
LINE
  5
F5
100
AcDbEntity
  8
0
  6
Continuous
 62
               6
100
AcDbLine
 10
74527.774142042006
 20
92181.987046072274
 30
0.0
 11
74426.405727062025
 21
92131.302838582284
 31
0.0
  0
LINE
  5
F6
100
AcDbEntity
  8
0
  6
Continuous
 62
               6
100
AcDbLine
 10
74514.059591780009
 20
92187.055466821272
 30
0.0
 11
74430.579720620022
 21
92145.315531241285
 31
0.0
  0
LINE
  5
F7
100
AcDbEntity
  8
0
  6
Continuous
 62
               6
100
AcDbLine
 10
74417.461455152021
 20
92134.28426255229
 30
0.0
 11
74430.579720620022
 21
92145.315531241285
 31
0.0
  0
LINE
  5
F8
100
AcDbEntity
  8
0
  6
Continuous
 62
               6
100
AcDbLine
 10
74530.755566012012
 20
92190.931317982278
 30
0.0
 11
74514.059591780009
 21
92187.055466821272
 31
0.0
  0
LINE
  5
F9
100
AcDbEntity
  8
0
  6
Continuous
 62
               6
100
AcDbLine
 10
74529.861138821012
 20
92177.813052514277
 30
0.0
 11
74428.492723841016
 21
92127.128845024286
 31
0.0
  0
LINE
  5
FA
100
AcDbEntity
  8
0
  6
Continuous
 62
               7
100
AcDbLine
 10
74495.276620769015
 20
92183.62682925578
 30
0.0
 11
74497.661759945011
 21
92178.856550903773
 31
0.0
  0
LINE
  5
FB
100
AcDbEntity
  8
0
  6
Continuous
 62
               7
100
AcDbLine
 10
74444.592413279024
 20
92158.284725510777
 30
0.0
 11
74446.97755245502
 21
92153.514447158785
 31
0.0
  0
LINE
  5
FC
100
AcDbEntity
  8
0
  6
Continuous
 62
               7
100
AcDbLine
 10
74495.276620769015
 20
92183.62682925578
 30
0.0
 11
74444.592413279024
 21
92158.284725510777
 31
0.0
  0
LINE
  5
FD
100
AcDbEntity
  8
0
  6
Continuous
 62
               7
100
AcDbLine
 10
74488.568416836511
 20
92187.726287214522
 30
0.0
 11
74491.549840806518
 21
92181.763439274524
 31
0.0
  0
LINE
  5
FE
100
AcDbEntity
  8
0
  6
Continuous
 62
               7
100
AcDbLine
 10
74445.337769271515
 20
92166.110963432031
 30
0.0
 11
74448.319193241521
 21
92160.148115492033
 31
0.0
  0
LINE
  5
FF
100
AcDbEntity
  8
0
  6
Continuous
 62
               7
100
AcDbLine
 10
74489.313772829017
 20
92188.098965210782
 30
0.0
 11
74444.592413279024
 21
92165.738285435786
 31
0.0
  0
LINE
  5
100
100
AcDbEntity
  8
0
  6
Continuous
 62
               7
100
AcDbLine
 10
74444.592413279024
 20
92165.738285435786
 30
0.0
 11
74435.858410270361
 21
92183.206291453098
 31
0.0
  0
LINE
  5
101
100
AcDbEntity
  8
0
  6
Continuous
 62
               7
100
AcDbLine
 10
74440.120277324022
 20
92187.726287214522
 30
0.0
 11
74474.406652979014
 21
92204.869475042025
 31
0.0
  0
LINE
  5
102
100
AcDbEntity
  8
0
  6
Continuous
 62
               7
100
AcDbLine
 10
74478.878788934016
 20
92182.881473263275
 30
0.0
 11
74470.144785925353
 21
92200.349479280587
 31
0.0
  0
LINE
  5
103
100
AcDbEntity
  8
0
  6
Continuous
 62
               7
100
AcDbLine
 10
74455.027397174024
 20
92170.955777383278
 30
0.0
 11
74446.293394165361
 21
92188.423783400591
 31
0.0
  0
LINE
  5
104
100
AcDbEntity
  8
0
  6
Continuous
 62
               7
100
AcDbLine
 10
74498.258044739021
 20
92084.494482253285
 30
0.0
 11
74467.251235451011
 21
92146.508100829276
 31
0.0
  0
LINE
  5
105
100
AcDbEntity
  8
0
  6
Continuous
 62
               7
100
AcDbLine
 10
74522.109436499013
 20
92096.420178133281
 30
0.0
 11
74491.102627211018
 21
92158.433796709287
 31
0.0
  0
LINE
  5
106
100
AcDbEntity
  8
0
  6
Continuous
 62
               7
100
AcDbLine
 10
74489.313772829017
 20
92188.098965210782
 30
0.0
 11
74480.579769820353
 21
92205.566971228094
 31
0.0
  0
LINE
  5
107
100
AcDbEntity
  8
0
  6
Continuous
 62
               7
100
AcDbLine
 10
74520.618724514017
 20
92091.948042178294
 30
0.0
 11
74502.730180694009
 21
92083.003770268289
 31
0.0
  0
LINE
  5
108
100
AcDbEntity
  8
0
  6
Continuous
 62
               7
100
AcDbLine
 10
74488.121203241011
 20
92156.943084724277
 30
0.0
 11
74520.618724514017
 21
92091.948042178294
 31
0.0
  0
LINE
  5
109
100
AcDbEntity
  8
0
  6
Continuous
 62
               7
100
AcDbLine
 10
74470.232659421017
 20
92147.998812814287
 30
0.0
 11
74502.730180694009
 21
92083.003770268289
 31
0.0
  0
LINE
  5
10A
100
AcDbEntity
  8
0
  6
Continuous
 62
               7
100
AcDbLine
 10
74522.109436499013
 20
92096.420178133281
 30
0.0
 11
74498.258044739021
 21
92084.494482253285
 31
0.0
  0
LINE
  5
10B
100
AcDbEntity
  8
0
  6
Continuous
 62
               7
100
AcDbLine
 10
74502.730180694009
 20
92083.003770268289
 30
0.0
 11
74498.258044739021
 21
92084.494482253285
 31
0.0
  0
LINE
  5
10C
100
AcDbEntity
  8
0
  6
Continuous
 62
               7
100
AcDbLine
 10
74520.618724514017
 20
92091.948042178294
 30
0.0
 11
74522.109436499013
 21
92096.420178133281
 31
0.0
  0
LINE
  5
10D
100
AcDbEntity
  8
0
  6
Continuous
 62
               6
100
AcDbLine
 10
74526.28343005701
 20
92132.793550567279
 30
0.0
 11
74466.654950657015
 21
92102.979310867289
 31
0.0
  0
LINE
  5
10E
100
AcDbEntity
  8
0
  6
Continuous
 62
               6
100
AcDbLine
 10
74533.029042673646
 20
92124.986016988099
 30
0.0
 11
74468.853609950384
 21
92092.898300626475
 31
0.0
  0
LINE
  5
10F
100
AcDbEntity
  8
0
  6
Continuous
 62
               6
100
AcDbLine
 10
74526.28343005701
 20
92132.793550567279
 30
0.0
 11
74536.27120035651
 21
92147.104385623286
 31
0.0
  0
LINE
  5
110
100
AcDbEntity
  8
0
  6
Continuous
 62
               6
100
AcDbLine
 10
74533.029042673646
 20
92124.986016988099
 30
0.0
 11
74544.471537595193
 21
92141.38123359211
 31
0.0
  0
LINE
  5
111
100
AcDbEntity
  8
0
  6
Continuous
 62
               6
100
AcDbLine
 10
74544.471537595193
 20
92141.38123359211
 30
0.0
 11
74536.27120035651
 21
92147.104385623286
 31
0.0
  0
LINE
  5
112
100
AcDbEntity
  8
0
  6
Continuous
 62
               6
100
AcDbLine
 10
74466.654950657015
 20
92102.979310867289
 30
0.0
 11
74449.213620432522
 21
92103.575595661285
 31
0.0
  0
LINE
  5
113
100
AcDbEntity
  8
0
  6
Continuous
 62
               6
100
AcDbLine
 10
74468.853609950384
 20
92092.898300626475
 30
0.0
 11
74448.871939714241
 21
92093.581434651642
 31
0.0
  0
LINE
  5
114
100
AcDbEntity
  8
0
  6
Continuous
 62
               6
100
AcDbLine
 10
74448.871939714241
 20
92093.581434651642
 30
0.0
 11
74449.213620432522
 21
92103.575595661285
 31
0.0
  0
LINE
  5
115
100
AcDbEntity
  8
0
  6
Continuous
 62
               7
100
AcDbLine
 10
74647.627385636006
 20
92001.909038284299
 30
0.0
 11
74498.556187136011
 21
91927.373439034302
 31
0.0
  0
LINE
  5
116
100
AcDbEntity
  8
0
  6
Continuous
 62
               7
100
AcDbLine
 10
74482.456497698018
 20
91974.479937760305
 30
0.0
 11
74504.519035076009
 21
91930.354863004308
 31
0.0
  0
LINE
  5
117
100
AcDbEntity
  8
0
  6
Continuous
 62
               7
100
AcDbLine
 10
74605.29116526201
 20
92047.822967422297
 30
0.0
 11
74487.226776050011
 21
91988.790772816297
 31
0.0
  0
LINE
  5
118
100
AcDbEntity
  8
0
  6
Continuous
 62
               7
100
AcDbLine
 10
74619.602000318002
 20
92043.052689070289
 30
0.0
 11
74641.664537696008
 21
91998.927614314292
 31
0.0
  0
LINE
  5
119
100
AcDbEntity
  8
0
  6
Continuous
 62
               7
100
AcDbLine
 10
74632.123980992008
 20
91994.1573359623
 30
0.0
 11
74610.061443614002
 21
92038.282410718297
 31
0.0
  0
LINE
  5
11A
100
AcDbEntity
  8
0
  6
Continuous
 62
               7
100
AcDbLine
 10
74491.997054402018
 20
91979.250216112297
 30
0.0
 11
74610.061443614002
 21
92038.282410718297
 31
0.0
  0
LINE
  5
11B
100
AcDbEntity
  8
0
  6
Continuous
 62
               7
100
AcDbLine
 10
74514.059591780009
 20
91935.1251413563
 30
0.0
 11
74491.997054402018
 21
91979.250216112297
 31
0.0
  0
LINE
  5
11C
100
AcDbEntity
  8
0
  6
Continuous
 62
               7
100
AcDbLine
 10
74477.686219346011
 20
91969.113374614302
 30
0.0
 11
74498.556187136011
 21
91927.373439034302
 31
0.0
  0
LINE
  5
11D
100
AcDbEntity
  8
0
  6
DASHED
 62
               7
100
AcDbLine
 10
74550.731106611012
 20
92009.362598209293
 30
0.0
 11
74537.314698746006
 21
92013.834734164295
 31
0.0
  0
LINE
  5
11E
100
AcDbEntity
  8
0
  6
DASHED
 62
               7
100
AcDbLine
 10
74550.731106611012
 20
92009.362598209293
 30
0.0
 11
74555.203242566015
 21
92022.779006074299
 31
0.0
  0
LINE
  5
11F
100
AcDbEntity
  8
0
  6
DASHED
 62
               7
100
AcDbLine
 10
74532.842562791004
 20
92000.418326299303
 30
0.0
 11
74537.314698746006
 21
92013.834734164295
 31
0.0
  0
LINE
  5
120
100
AcDbEntity
  8
0
  6
DASHED
 62
               7
100
AcDbLine
 10
74532.842562791004
 20
92000.418326299303
 30
0.0
 11
74519.426154926012
 21
92004.89046225429
 31
0.0
  0
LINE
  5
121
100
AcDbEntity
  8
0
  6
DASHED
 62
               7
100
AcDbLine
 10
74514.95401897101
 20
91991.474054389299
 30
0.0
 11
74519.426154926012
 21
92004.89046225429
 31
0.0
  0
LINE
  5
122
100
AcDbEntity
  8
0
  6
DASHED
 62
               7
100
AcDbLine
 10
74514.95401897101
 20
91991.474054389299
 30
0.0
 11
74501.537611106018
 21
91995.946190344301
 31
0.0
  0
LINE
  5
123
100
AcDbEntity
  8
0
  6
DASHED
 62
               7
100
AcDbLine
 10
74497.065475151016
 20
91982.529782479294
 30
0.0
 11
74501.537611106018
 21
91995.946190344301
 31
0.0
  0
LINE
  5
124
100
AcDbEntity
  8
0
  6
DASHED
 62
               7
100
AcDbLine
 10
74497.065475151016
 20
91982.529782479294
 30
0.0
 11
74483.649067286009
 21
91987.001918434296
 31
0.0
  0
LINE
  5
125
100
AcDbEntity
  8
0
  6
Continuous
 62
               7
100
AcDbLine
 10
74477.686219346011
 20
91969.113374614302
 30
0.0
 11
74481.369544663263
 21
91980.163350566057
 31
0.0
  0
LINE
  5
126
100
AcDbEntity
  8
0
  6
DASHED
 62
               7
100
AcDbLine
 10
74481.369544663263
 20
91980.163350566057
 30
0.0
 11
74483.649067286009
 21
91987.001918434296
 31
0.0
  0
LINE
  5
127
100
AcDbEntity
  8
0
  6
Continuous
 62
               7
100
AcDbLine
 10
74626.757417846005
 20
92043.648973864299
 30
0.0
 11
74647.627385636006
 21
92001.909038284299
 31
0.0
  0
LINE
  5
128
100
AcDbEntity
  8
0
  6
DASHED
 62
               7
100
AcDbLine
 10
74568.619650431006
 20
92018.306870119297
 30
0.0
 11
74555.203242566015
 21
92022.779006074299
 31
0.0
  0
LINE
  5
129
100
AcDbEntity
  8
0
  6
DASHED
 62
               7
100
AcDbLine
 10
74568.619650431006
 20
92018.306870119297
 30
0.0
 11
74573.091786386009
 21
92031.723277984289
 31
0.0
  0
LINE
  5
12A
100
AcDbEntity
  8
0
  6
DASHED
 62
               7
100
AcDbLine
 10
74586.508194251001
 20
92027.251142029301
 30
0.0
 11
74573.091786386009
 21
92031.723277984289
 31
0.0
  0
LINE
  5
12B
100
AcDbEntity
  8
0
  6
DASHED
 62
               7
100
AcDbLine
 10
74586.508194251001
 20
92027.251142029301
 30
0.0
 11
74590.980330206003
 21
92040.667549894293
 31
0.0
  0
LINE
  5
12C
100
AcDbEntity
  8
0
  6
DASHED
 62
               7
100
AcDbLine
 10
74604.396738071009
 20
92036.195413939291
 30
0.0
 11
74590.980330206003
 21
92040.667549894293
 31
0.0
  0
LINE
  5
12D
100
AcDbEntity
  8
0
  6
DASHED
 62
               7
100
AcDbLine
 10
74604.396738071009
 20
92036.195413939291
 30
0.0
 11
74608.868874025997
 21
92049.611821804298
 31
0.0
  0
LINE
  5
12E
100
AcDbEntity
  8
0
  6
Continuous
 62
               7
100
AcDbLine
 10
74626.757417846005
 20
92043.648973864299
 30
0.0
 11
74615.70744189425
 21
92047.332299181551
 31
0.0
  0
LINE
  5
12F
100
AcDbEntity
  8
0
  6
Continuous
 62
               7
100
AcDbLine
 10
74563.998443277509
 20
92046.183184238791
 30
0.0
 11
74566.383582453505
 21
92041.412905886798
 31
0.0
  0
LINE
  5
130
100
AcDbEntity
  8
0
  6
Continuous
 62
               7
100
AcDbLine
 10
74513.314235787519
 20
92020.841080493788
 30
0.0
 11
74515.699374963515
 21
92016.070802141796
 31
0.0
  0
LINE
  5
131
100
AcDbEntity
  8
0
  6
Continuous
 62
               7
100
AcDbLine
 10
74563.998443277509
 20
92046.183184238791
 30
0.0
 11
74513.314235787519
 21
92020.841080493788
 31
0.0
  0
LINE
  5
132
100
AcDbEntity
  8
0
  6
Continuous
 62
               7
100
AcDbLine
 10
74557.290239345006
 20
92050.282642197548
 30
0.0
 11
74560.271663315012
 21
92044.319794257535
 31
0.0
  0
LINE
  5
133
100
AcDbEntity
  8
0
  6
Continuous
 62
               7
100
AcDbLine
 10
74514.059591780009
 20
92028.667318415042
 30
0.0
 11
74517.041015750016
 21
92022.704470475044
 31
0.0
  0
LINE
  5
134
100
AcDbEntity
  8
0
  6
Continuous
 62
               7
100
AcDbLine
 10
74558.035595337511
 20
92050.655320193793
 30
0.0
 11
74513.314235787519
 21
92028.294640418797
 31
0.0
  0
LINE
  5
135
100
AcDbEntity
  8
0
  6
Continuous
 62
               7
100
AcDbLine
 10
74513.314235787519
 20
92028.294640418797
 30
0.0
 11
74504.580232778855
 21
92045.762646436109
 31
0.0
  0
LINE
  5
136
100
AcDbEntity
  8
0
  6
Continuous
 62
               7
100
AcDbLine
 10
74508.842099832516
 20
92050.282642197548
 30
0.0
 11
74543.128475487509
 21
92067.425830025037
 31
0.0
  0
LINE
  5
137
100
AcDbEntity
  8
0
  6
Continuous
 62
               7
100
AcDbLine
 10
74547.600611442511
 20
92045.437828246286
 30
0.0
 11
74538.866608433847
 21
92062.905834263598
 31
0.0
  0
LINE
  5
138
100
AcDbEntity
  8
0
  6
Continuous
 62
               7
100
AcDbLine
 10
74523.749219682504
 20
92033.51213236629
 30
0.0
 11
74515.015216673855
 21
92050.980138383602
 31
0.0
  0
LINE
  5
139
100
AcDbEntity
  8
0
  6
Continuous
 62
               7
100
AcDbLine
 10
74558.035595337511
 20
92050.655320193793
 30
0.0
 11
74549.301592328848
 21
92068.123326211105
 31
0.0
  0
LINE
  5
13A
100
AcDbEntity
  8
0
  6
Continuous
 62
               7
100
AcDbLine
 10
74554.130043933721
 20
91972.750483863885
 30
0.0
 11
74539.103553128007
 21
92002.803465475299
 31
0.0
  0
LINE
  5
13B
100
AcDbEntity
  8
0
  6
Continuous
 62
               7
100
AcDbLine
 10
74577.981435693713
 20
91984.676179743881
 30
0.0
 11
74562.954944888013
 21
92014.729161355295
 31
0.0
  0
LINE
  5
13C
100
AcDbEntity
  8
0
  6
Continuous
 62
               7
100
AcDbLine
 10
74576.490723708717
 20
91980.204043788879
 30
0.0
 11
74558.602179888723
 21
91971.259771878889
 31
0.0
  0
LINE
  5
13D
100
AcDbEntity
  8
0
  6
Continuous
 62
               7
100
AcDbLine
 10
74559.973520918007
 20
92013.238449370299
 30
0.0
 11
74576.490723708717
 21
91980.204043788879
 31
0.0
  0
LINE
  5
13E
100
AcDbEntity
  8
0
  6
Continuous
 62
               7
100
AcDbLine
 10
74542.084977098013
 20
92004.294177460295
 30
0.0
 11
74558.602179888723
 21
91971.259771878889
 31
0.0
  0
LINE
  5
13F
100
AcDbEntity
  8
0
  6
Continuous
 62
               7
100
AcDbLine
 10
74577.981435693713
 20
91984.676179743881
 30
0.0
 11
74554.130043933721
 21
91972.750483863885
 31
0.0
  0
LINE
  5
140
100
AcDbEntity
  8
0
  6
Continuous
 62
               7
100
AcDbLine
 10
74558.602179888723
 20
91971.259771878889
 30
0.0
 11
74554.130043933721
 21
91972.750483863885
 31
0.0
  0
LINE
  5
141
100
AcDbEntity
  8
0
  6
Continuous
 62
               7
100
AcDbLine
 10
74576.490723708717
 20
91980.204043788879
 30
0.0
 11
74577.981435693713
 21
91984.676179743881
 31
0.0
  0
LINE
  5
142
100
AcDbEntity
  8
0
  6
DASHED
 62
               6
100
AcDbLine
 10
74494.084051181009
 20
91936.317710944306
 30
0.0
 11
74046.87045568107
 21
91712.710913194314
 31
0.0
  0
LINE
  5
143
100
AcDbEntity
  8
0
  6
Continuous
 62
               2
100
AcDbLine
 10
72954.178570676158
 20
91214.813110204341
 30
0.0
 11
72995.918506256145
 21
91131.333239044368
 31
0.0
  0
LINE
  5
144
100
AcDbEntity
  8
0
  6
Continuous
 62
               3
100
AcDbLine
 10
74034.944759801059
 20
91587.491106454327
 30
0.0
 11
73468.474205501101
 21
91304.255829304355
 31
0.0
  0
LINE
  5
145
100
AcDbEntity
  8
0
  6
Continuous
 62
               3
100
AcDbLine
 10
75138.071628700956
 20
92139.054540904282
 30
0.0
 11
74094.573239201054
 21
91617.305346154331
 31
0.0
  0
LINE
  5
146
100
AcDbEntity
  8
0
  6
Continuous
 62
               3
100
AcDbLine
 10
73486.362749321095
 20
91268.478741664352
 30
0.0
 11
73128.591872921126
 21
91089.593303464368
 31
0.0
  0
LINE
  5
147
100
AcDbEntity
  8
0
  6
Continuous
 62
               3
100
AcDbLine
 10
74213.830198001044
 20
91229.720230054372
 30
0.0
 11
73420.771421981102
 21
90833.190842044394
 31
0.0
  0
LINE
  5
148
100
AcDbEntity
  8
0
  6
Continuous
 62
               3
100
AcDbLine
 10
74231.718741821038
 20
91193.94314241437
 30
0.0
 11
73438.659965801096
 21
90797.413754404406
 31
0.0
  0
LINE
  5
149
100
AcDbEntity
  8
0
  6
Continuous
 62
               7
100
AcDbLine
 10
74031.963335831053
 20
91593.453954394325
 30
0.0
 11
73465.492781531095
 21
91310.218677244353
 31
0.0
  0
LINE
  5
14A
100
AcDbEntity
  8
0
  6
Continuous
 62
               7
100
AcDbLine
 10
74020.037639951057
 20
91617.305346154331
 30
0.0
 11
73453.567085651099
 21
91334.070069004345
 31
0.0
  0
LINE
  5
14B
100
AcDbEntity
  8
0
  6
Continuous
 62
               7
100
AcDbLine
 10
73484.258974624114
 20
91272.686291058315
 30
0.0
 11
73482.155199927147
 21
91266.374966967385
 31
0.0
  0
LINE
  5
14C
100
AcDbEntity
  8
0
  6
Continuous
 62
               7
100
AcDbLine
 10
73473.718049090225
 20
91293.768142126093
 30
0.0
 11
73461.073348859354
 21
91255.834041433482
 31
0.0
  0
LINE
  5
14D
100
AcDbEntity
  8
0
  6
Continuous
 62
               7
100
AcDbLine
 10
73463.177123556336
 20
91314.849993193886
 30
0.0
 11
73439.991497791561
 21
91245.293115899593
 31
0.0
  0
LINE
  5
14E
100
AcDbEntity
  8
0
  6
Continuous
 62
               7
100
AcDbLine
 10
73452.636198022432
 20
91335.931844261679
 30
0.0
 11
73418.909646723783
 21
91234.752190365703
 31
0.0
  0
LINE
  5
14F
100
AcDbEntity
  8
0
  6
Continuous
 62
               7
100
AcDbLine
 10
73433.604883295979
 20
91331.542527751793
 30
0.0
 11
73397.82779565599
 21
91224.2112648318
 31
0.0
  0
LINE
  5
150
100
AcDbEntity
  8
0
  6
Continuous
 62
               7
100
AcDbLine
 10
73412.5230322282
 20
91321.001602217904
 30
0.0
 11
73376.745944588198
 21
91213.670339297911
 31
0.0
  0
LINE
  5
151
100
AcDbEntity
  8
0
  6
Continuous
 62
               7
100
AcDbLine
 10
73391.441181160408
 20
91310.460676684001
 30
0.0
 11
73355.664093520405
 21
91203.129413764007
 31
0.0
  0
LINE
  5
152
100
AcDbEntity
  8
0
  6
Continuous
 62
               7
100
AcDbLine
 10
73370.359330092615
 20
91299.919751150112
 30
0.0
 11
73334.582242452627
 21
91192.588488230118
 31
0.0
  0
LINE
  5
153
100
AcDbEntity
  8
0
  6
Continuous
 62
               7
100
AcDbLine
 10
73349.277479024822
 20
91289.378825616208
 30
0.0
 11
73313.500391384834
 21
91182.047562696229
 31
0.0
  0
LINE
  5
154
100
AcDbEntity
  8
0
  6
Continuous
 62
               7
100
AcDbLine
 10
73328.195627957044
 20
91278.837900082319
 30
0.0
 11
73292.418540317041
 21
91171.506637162325
 31
0.0
  0
LINE
  5
155
100
AcDbEntity
  8
0
  6
Continuous
 62
               7
100
AcDbLine
 10
73307.113776889251
 20
91268.29697454843
 30
0.0
 11
73271.336689249249
 21
91160.965711628436
 31
0.0
  0
LINE
  5
156
100
AcDbEntity
  8
0
  6
Continuous
 62
               7
100
AcDbLine
 10
73286.031925821459
 20
91257.756049014526
 30
0.0
 11
73250.25483818147
 21
91150.424786094547
 31
0.0
  0
LINE
  5
157
100
AcDbEntity
  8
0
  6
Continuous
 62
               7
100
AcDbLine
 10
73264.950074753666
 20
91247.215123480637
 30
0.0
 11
73229.172987113678
 21
91139.883860560643
 31
0.0
  0
LINE
  5
158
100
AcDbEntity
  8
0
  6
Continuous
 62
               7
100
AcDbLine
 10
73243.868223685888
 20
91236.674197946748
 30
0.0
 11
73208.091136045885
 21
91129.342935026754
 31
0.0
  0
LINE
  5
159
100
AcDbEntity
  8
0
  6
Continuous
 62
               7
100
AcDbLine
 10
73222.786372618095
 20
91226.133272412844
 30
0.0
 11
73187.009284978092
 21
91118.802009492851
 31
0.0
  0
LINE
  5
15A
100
AcDbEntity
  8
0
  6
Continuous
 62
               7
100
AcDbLine
 10
73201.704521550302
 20
91215.592346878955
 30
0.0
 11
73165.927433910314
 21
91108.261083958962
 31
0.0
  0
LINE
  5
15B
100
AcDbEntity
  8
0
  6
Continuous
 62
               7
100
AcDbLine
 10
73180.622670482509
 20
91205.051421345051
 30
0.0
 11
73144.845582842521
 21
91097.720158425072
 31
0.0
  0
LINE
  5
15C
100
AcDbEntity
  8
0
  6
Continuous
 62
               7
100
AcDbLine
 10
73159.540819414731
 20
91194.510495811162
 30
0.0
 11
73126.177802347927
 21
91094.421444610765
 31
0.0
  0
LINE
  5
15D
100
AcDbEntity
  8
0
  6
Continuous
 62
               7
100
AcDbLine
 10
73138.458968346938
 20
91183.969570277273
 30
0.0
 11
73115.636876814038
 21
91115.503295678558
 31
0.0
  0
LINE
  5
15E
100
AcDbEntity
  8
0
  6
Continuous
 62
               7
100
AcDbLine
 10
73117.377117279146
 20
91173.42864474337
 30
0.0
 11
73105.095951280135
 21
91136.585146746351
 31
0.0
  0
LINE
  5
15F
100
AcDbEntity
  8
0
  6
Continuous
 62
               7
100
AcDbLine
 10
73096.295266211353
 20
91162.887719209481
 30
0.0
 11
73094.555025746246
 21
91157.666997814144
 31
0.0
  0
LINE
  5
160
100
AcDbEntity
  8
0
  6
Continuous
 62
               7
100
AcDbLine
 10
73446.415734855691
 20
90745.389958355663
 30
0.0
 11
73405.713186249428
 21
90758.957474557741
 31
0.0
  0
LINE
  5
161
100
AcDbEntity
  8
0
  6
Continuous
 62
               7
100
AcDbLine
 10
73467.497568338804
 20
90755.930889751107
 30
0.0
 11
73395.172260715539
 21
90780.039325625534
 31
0.0
  0
LINE
  5
162
100
AcDbEntity
  8
0
  6
Continuous
 62
               7
100
AcDbLine
 10
73488.034932135648
 20
90766.653311041984
 30
0.0
 11
73384.631335181635
 21
90801.121176693327
 31
0.0
  0
LINE
  5
163
100
AcDbEntity
  8
0
  6
Continuous
 62
               7
100
AcDbLine
 10
73481.42167256774
 20
90786.425940121117
 30
0.0
 11
73442.579271367809
 21
90799.373407187755
 31
0.0
  0
LINE
  5
164
100
AcDbEntity
  8
0
  6
Continuous
 62
               7
100
AcDbLine
 10
73436.700313017747
 20
90801.333059971119
 30
0.0
 11
73374.090409647746
 21
90822.203027761105
 31
0.0
  0
LINE
  5
165
100
AcDbEntity
  8
0
  6
Continuous
 62
               7
100
AcDbLine
 10
73470.880747033851
 20
90807.507791188909
 30
0.0
 11
73463.661122435602
 21
90809.914332721644
 31
0.0
  0
LINE
  5
166
100
AcDbEntity
  8
0
  6
Continuous
 62
               7
100
AcDbLine
 10
73426.159387483844
 20
90822.414911038897
 30
0.0
 11
73363.549484113857
 21
90843.284878828897
 31
0.0
  0
LINE
  5
167
100
AcDbEntity
  8
0
  6
Continuous
 62
               7
100
AcDbLine
 10
73431.077342043398
 20
90838.343802075542
 30
0.0
 11
73353.008558579968
 21
90864.36672989669
 31
0.0
  0
LINE
  5
168
100
AcDbEntity
  8
0
  6
Continuous
 62
               7
100
AcDbLine
 10
73449.798895966058
 20
90849.67149332448
 30
0.0
 11
73342.467633046064
 21
90885.448580964483
 31
0.0
  0
LINE
  5
169
100
AcDbEntity
  8
0
  6
Continuous
 62
               7
100
AcDbLine
 10
73439.257970432154
 20
90870.753344392273
 30
0.0
 11
73331.926707512175
 21
90906.530432032261
 31
0.0
  0
LINE
  5
16A
100
AcDbEntity
  8
0
  6
Continuous
 62
               7
100
AcDbLine
 10
73428.717044898265
 20
90891.835195460066
 30
0.0
 11
73321.385781978286
 21
90927.612283100054
 31
0.0
  0
LINE
  5
16B
100
AcDbEntity
  8
0
  6
Continuous
 62
               7
100
AcDbLine
 10
73418.176119364376
 20
90912.917046527844
 30
0.0
 11
73310.844856444382
 21
90948.694134167847
 31
0.0
  0
LINE
  5
16C
100
AcDbEntity
  8
0
  6
Continuous
 62
               7
100
AcDbLine
 10
73407.635193830472
 20
90933.998897595637
 30
0.0
 11
73300.303930910493
 21
90969.775985235639
 31
0.0
  0
LINE
  5
16D
100
AcDbEntity
  8
0
  6
Continuous
 62
               7
100
AcDbLine
 10
73397.094268296583
 20
90955.080748663429
 30
0.0
 11
73289.76300537659
 21
90990.857836303418
 31
0.0
  0
LINE
  5
16E
100
AcDbEntity
  8
0
  6
Continuous
 62
               7
100
AcDbLine
 10
73386.553342762694
 20
90976.162599731222
 30
0.0
 11
73279.222079842701
 21
91011.93968737121
 31
0.0
  0
LINE
  5
16F
100
AcDbEntity
  8
0
  6
Continuous
 62
               7
100
AcDbLine
 10
73376.012417228791
 20
90997.244450799
 30
0.0
 11
73268.681154308812
 21
91033.021538439003
 31
0.0
  0
LINE
  5
170
100
AcDbEntity
  8
0
  6
Continuous
 62
               7
100
AcDbLine
 10
73365.471491694901
 20
91018.326301866793
 30
0.0
 11
73258.140228774908
 21
91054.103389506796
 31
0.0
  0
LINE
  5
171
100
AcDbEntity
  8
0
  6
Continuous
 62
               7
100
AcDbLine
 10
73354.930566160998
 20
91039.408152934586
 30
0.0
 11
73247.599303241019
 21
91075.185240574574
 31
0.0
  0
LINE
  5
172
100
AcDbEntity
  8
0
  6
Continuous
 62
               7
100
AcDbLine
 10
73344.389640627109
 20
91060.490004002379
 30
0.0
 11
73237.058377707115
 21
91096.267091642367
 31
0.0
  0
LINE
  5
173
100
AcDbEntity
  8
0
  6
Continuous
 62
               7
100
AcDbLine
 10
73333.84871509322
 20
91081.571855070157
 30
0.0
 11
73226.517452173226
 21
91117.348942710159
 31
0.0
  0
LINE
  5
174
100
AcDbEntity
  8
0
  6
Continuous
 62
               7
100
AcDbLine
 10
73323.307789559316
 20
91102.653706137949
 30
0.0
 11
73222.150722784689
 21
91136.372728396163
 31
0.0
  0
LINE
  5
175
100
AcDbEntity
  8
0
  6
Continuous
 62
               7
100
AcDbLine
 10
73312.766864025427
 20
91123.735557205742
 30
0.0
 11
73243.232573852481
 21
91146.913653930053
 31
0.0
  0
LINE
  5
176
100
AcDbEntity
  8
0
  6
Continuous
 62
               7
100
AcDbLine
 10
74227.246605866036
 20
91202.887414324374
 30
0.0
 11
73434.187829846094
 21
90806.358026314396
 31
0.0
  0
LINE
  5
177
100
AcDbEntity
  8
0
  6
Continuous
 62
               7
100
AcDbLine
 10
74222.774469911034
 20
91211.831686234364
 30
0.0
 11
73429.715693891107
 21
90815.3022982244
 31
0.0
  0
LINE
  5
178
100
AcDbEntity
  8
0
  6
Continuous
 62
               7
100
AcDbLine
 10
74218.302333956046
 20
91220.775958144368
 30
0.0
 11
73425.243557936104
 21
90824.246570134404
 31
0.0
  0
LINE
  5
179
100
AcDbEntity
  8
0
  6
Continuous
 62
               4
100
AcDbLine
 10
73236.81756303212
 20
91394.891117992345
 30
0.0
 11
73108.318189925136
 21
91651.889864206314
 31
0.0
  0
LINE
  5
17A
100
AcDbEntity
  8
0
  6
Continuous
 62
               4
100
AcDbLine
 10
72942.252874796162
 20
91238.664501964333
 30
0.0
 11
72810.175792925162
 21
91502.81866570632
 31
0.0
  0
LINE
  5
17B
100
AcDbEntity
  8
0
  6
Continuous
 62
               4
100
AcDbLine
 10
73112.790325880123
 20
91642.945592296324
 30
0.0
 11
72814.647928880164
 21
91493.87439379633
 31
0.0
  0
LINE
  5
17C
100
AcDbEntity
  8
0
  6
Continuous
 62
               7
100
AcDbLine
 10
75135.09020473095
 20
92145.017388844281
 30
0.0
 11
74091.591815231048
 21
91623.268194094329
 31
0.0
  0
LINE
  5
17D
100
AcDbEntity
  8
0
  6
Continuous
 62
               4
100
AcDbLine
 10
73082.379801386138
 20
91182.017446534359
 30
0.0
 11
72993.533367080148
 21
91359.710315146338
 31
0.0
  0
LINE
  5
17E
100
AcDbEntity
  8
0
  6
Continuous
 62
               4
100
AcDbLine
 10
72908.562783935151
 20
91306.044683686341
 30
0.0
 11
72998.00550303515
 21
91350.766043236348
 31
0.0
  0
LINE
  5
17F
100
AcDbEntity
  8
0
  6
Continuous
 62
               4
100
AcDbLine
 10
73692.080886802622
 20
90745.238867059175
 30
0.0
 11
74884.650591250975
 21
91341.523628929368
 31
0.0
  0
LINE
  5
180
100
AcDbEntity
  8
0
  6
Continuous
 62
               4
100
AcDbLine
 10
74070.423705044057
 20
91516.533215968346
 30
0.0
 11
74100.237944744047
 21
91531.440335818348
 31
0.0
  0
LINE
  5
181
100
AcDbEntity
  8
0
  6
Continuous
 62
               4
100
AcDbLine
 10
74085.330824894045
 20
91412.183377018358
 30
0.0
 11
74115.145064594049
 21
91427.090496868346
 31
0.0
  0
LINE
  5
182
100
AcDbEntity
  8
0
  6
Continuous
 62
               4
100
AcDbLine
 10
74085.330824894045
 20
91412.183377018358
 30
0.0
 11
74100.237944744047
 21
91531.440335818348
 31
0.0
  0
LINE
  5
183
100
AcDbEntity
  8
0
  6
Continuous
 62
               4
100
AcDbLine
 10
74070.423705044057
 20
91516.533215968346
 30
0.0
 11
73892.730836432078
 21
91871.918953192304
 31
0.0
  0
LINE
  5
184
100
AcDbEntity
  8
0
  6
Continuous
 62
               4
100
AcDbLine
 10
74130.052184444037
 20
91546.347455668336
 30
0.0
 11
74159.866424144042
 21
91561.254575518338
 31
0.0
  0
LINE
  5
185
100
AcDbEntity
  8
0
  6
Continuous
 62
               4
100
AcDbLine
 10
74144.95930429404
 20
91441.997616718349
 30
0.0
 11
74174.773543994044
 21
91456.904736568351
 31
0.0
  0
LINE
  5
186
100
AcDbEntity
  8
0
  6
Continuous
 62
               4
100
AcDbLine
 10
74144.95930429404
 20
91441.997616718349
 30
0.0
 11
74159.866424144042
 21
91561.254575518338
 31
0.0
  0
LINE
  5
187
100
AcDbEntity
  8
0
  6
Continuous
 62
               4
100
AcDbLine
 10
74130.052184444037
 20
91546.347455668336
 30
0.0
 11
73952.359315832073
 21
91901.733192892309
 31
0.0
  0
LINE
  5
188
100
AcDbEntity
  8
0
  6
Continuous
 62
               4
100
AcDbLine
 10
72841.634454893254
 20
91161.147478744373
 30
0.0
 11
72971.634445393633
 21
91161.147478744373
 31
0.0
  0
LINE
  5
189
100
AcDbEntity
  8
0
  6
Continuous
 62
               4
100
AcDbLine
 10
72841.634454893254
 20
90994.480812077702
 30
0.0
 11
73064.134445393633
 21
90994.480812077702
 31
0.0
  0
LINE
  5
18A
100
AcDbEntity
  8
0
  6
Continuous
 62
               4
100
AcDbLine
 10
72851.634454893254
 20
91161.147478744373
 30
0.0
 11
72851.634454893254
 21
90994.480812077702
 31
0.0
  0
LINE
  5
18B
100
AcDbEntity
  8
0
  6
Continuous
 62
               4
100
AcDbLine
 10
73081.634445393633
 20
91079.06414541103
 30
0.0
 11
72791.125643582141
 21
90575.888140627576
 31
0.0
  0
LINE
  5
18C
100
AcDbEntity
  8
0
  6
Continuous
 62
               4
100
AcDbLine
 10
73289.588767301117
 20
91214.813110204355
 30
0.0
 11
72880.290745280712
 21
90505.888140627576
 31
0.0
  0
LINE
  5
18D
100
AcDbEntity
  8
0
  6
Continuous
 62
               4
100
AcDbLine
 10
73370.08721324768
 20
90930.832479548742
 30
0.0
 11
73084.330965937668
 21
90435.888140627576
 31
0.0
  0
LINE
  5
18E
100
AcDbEntity
  8
0
  6
Continuous
 62
               4
100
AcDbLine
 10
72791.125643582141
 20
90575.888140627576
 30
0.0
 11
72175.863007303022
 21
90575.888140627576
 31
0.0
  0
LINE
  5
18F
100
AcDbEntity
  8
0
  6
Continuous
 62
               4
100
AcDbLine
 10
73084.330965937668
 20
90435.888140627576
 30
0.0
 11
72770.324338020277
 21
90435.888140627576
 31
0.0
  0
LINE
  5
190
100
AcDbEntity
  8
0
  6
Continuous
 62
               4
100
AcDbLine
 10
73003.372066181139
 20
91190.961718444349
 30
0.0
 11
72792.681698099259
 21
91555.888140627561
 31
0.0
  0
LINE
  5
191
100
AcDbEntity
  8
0
  6
Continuous
 62
               4
100
AcDbLine
 10
72359.34836476593
 20
91555.888140627561
 30
0.0
 11
72792.681698099259
 21
91555.888140627561
 31
0.0
  0
LINE
  5
192
100
AcDbEntity
  8
0
  6
Continuous
 62
               4
100
AcDbLine
 10
72880.290745280712
 20
90505.888140627576
 30
0.0
 11
72562.219335672242
 21
90505.888140627576
 31
0.0
  0
LINE
  5
193
100
AcDbEntity
  8
0
  6
Continuous
 62
               4
100
AcDbLine
 10
73271.103938687113
 20
91389.673626044852
 30
0.0
 11
73088.777092890363
 21
91705.472986548601
 31
0.0
  0
LINE
  5
194
100
AcDbEntity
  8
0
  6
Continuous
 62
               4
100
AcDbLine
 10
72888.777092890363
 20
91705.472986548601
 30
0.0
 11
73088.777092890363
 21
91705.472986548601
 31
0.0
  0
LINE
  5
195
100
AcDbEntity
  8
0
  6
Continuous
 62
               4
100
AcDbLine
 10
73739.68261105998
 20
91462.220711858798
 30
0.0
 11
73449.129779389783
 21
91965.472978594582
 31
0.0
  0
LINE
  5
196
100
AcDbEntity
  8
0
  6
Continuous
 62
               4
100
AcDbLine
 10
72615.796446056454
 20
91845.472978594582
 30
0.0
 11
73518.411811692538
 21
91845.472978594582
 31
0.0
  0
LINE
  5
197
100
AcDbEntity
  8
0
  6
Continuous
 62
               4
100
AcDbLine
 10
72615.796446056454
 20
91905.472978594582
 30
0.0
 11
73483.770795541161
 21
91905.472978594582
 31
0.0
  0
LINE
  5
198
100
AcDbEntity
  8
0
  6
Continuous
 62
               4
100
AcDbLine
 10
72615.796517761177
 20
91965.473106157078
 30
0.0
 11
73449.129779389783
 21
91965.472978594582
 31
0.0
  0
LINE
  5
199
100
AcDbEntity
  8
0
  6
Continuous
 62
               4
100
AcDbLine
 10
73271.103938687113
 20
91389.673626044852
 30
0.0
 11
73251.820310396521
 21
91412.654959338412
 31
0.0
  0
LINE
  5
19A
100
AcDbEntity
  8
0
  6
Continuous
 62
               4
100
AcDbLine
 10
73271.103938687113
 20
91389.673626044852
 30
0.0
 11
73260.843334387348
 21
91417.86440466842
 31
0.0
  0
LINE
  5
19B
100
AcDbEntity
  8
0
  6
Continuous
 62
               4
100
AcDbLine
 10
73370.08721324768
 20
90930.832479548742
 30
0.0
 11
73359.826608947915
 21
90902.64170092516
 31
0.0
  0
LINE
  5
19C
100
AcDbEntity
  8
0
  6
Continuous
 62
               4
100
AcDbLine
 10
73370.08721324768
 20
90930.832479548742
 30
0.0
 11
73350.803584957088
 21
90907.851146255169
 31
0.0
  0
LINE
  5
19D
100
AcDbEntity
  8
0
  6
Continuous
 62
               4
100
AcDbLine
 10
73289.588767301117
 20
91214.813110204355
 30
0.0
 11
73279.328163001337
 21
91186.622331580787
 31
0.0
  0
LINE
  5
19E
100
AcDbEntity
  8
0
  6
Continuous
 62
               4
100
AcDbLine
 10
73289.588767301117
 20
91214.813110204355
 30
0.0
 11
73270.30513901051
 21
91191.831776910796
 31
0.0
  0
LINE
  5
19F
100
AcDbEntity
  8
0
  6
Continuous
 62
               4
100
AcDbLine
 10
73081.634445393633
 20
91079.06414541103
 30
0.0
 11
73071.373841093868
 21
91050.873366787462
 31
0.0
  0
LINE
  5
1A0
100
AcDbEntity
  8
0
  6
Continuous
 62
               4
100
AcDbLine
 10
73081.634445393633
 20
91079.06414541103
 30
0.0
 11
73062.350817103041
 21
91056.082812117471
 31
0.0
  0
LINE
  5
1A1
100
AcDbEntity
  8
0
  6
Continuous
 62
               4
100
AcDbLine
 10
73003.372066181139
 20
91190.961718444349
 30
0.0
 11
72993.111461881374
 21
91219.152497067931
 31
0.0
  0
LINE
  5
1A2
100
AcDbEntity
  8
0
  6
Continuous
 62
               4
100
AcDbLine
 10
73003.372066181139
 20
91190.961718444349
 30
0.0
 11
72984.088437890547
 21
91213.943051737922
 31
0.0
  0
LINE
  5
1A3
100
AcDbEntity
  8
0
  6
Continuous
 62
               4
100
AcDbLine
 10
73628.249933905507
 20
90659.358424748571
 30
0.0
 11
73890.273237178219
 21
90659.358424748571
 31
0.0
  0
LINE
  5
1A4
100
AcDbEntity
  8
0
  6
Continuous
 62
               4
100
AcDbLine
 10
73523.928691343099
 20
90840.048117175393
 30
0.0
 11
73628.249933905507
 21
90659.358424748571
 31
0.0
  0
LINE
  5
1A5
100
AcDbEntity
  8
0
  6
Continuous
 62
               4
100
AcDbLine
 10
74374.894149741041
 20
91505.908153955592
 30
0.0
 11
74494.227748458143
 21
91299.216297927545
 31
0.0
  0
LINE
  5
1A6
100
AcDbEntity
  8
0
  6
Continuous
 62
               4
100
AcDbLine
 10
73523.928691343099
 20
90840.048117175393
 30
0.0
 11
73543.212319633691
 21
90817.066783881819
 31
0.0
  0
LINE
  5
1A7
100
AcDbEntity
  8
0
  6
Continuous
 62
               4
100
AcDbLine
 10
73523.928691343099
 20
90840.048117175393
 30
0.0
 11
73534.189295642864
 21
90811.857338551825
 31
0.0
  0
LINE
  5
1A8
100
AcDbEntity
  8
0
  6
Continuous
 62
               4
100
AcDbLine
 10
74374.894149741041
 20
91505.908153955592
 30
0.0
 11
74394.177778031633
 21
91482.926820662033
 31
0.0
  0
LINE
  5
1A9
100
AcDbEntity
  8
0
  6
Continuous
 62
               4
100
AcDbLine
 10
74374.894149741041
 20
91505.908153955592
 30
0.0
 11
74385.154754040806
 21
91477.717375332024
 31
0.0
  0
LINE
  5
1AA
100
AcDbEntity
  8
0
  6
Continuous
 62
               4
100
AcDbLine
 10
74853.345685994311
 20
92171.850227788455
 30
0.0
 11
74898.067045544318
 21
92082.407508688455
 31
0.0
  0
LINE
  5
1AB
100
AcDbEntity
  8
0
  6
Continuous
 62
               4
100
AcDbLine
 10
74905.520605469312
 20
92067.500388838453
 30
0.0
 11
74923.409149289306
 21
92031.723301198464
 31
0.0
  0
LINE
  5
1AC
100
AcDbEntity
  8
0
  6
Continuous
 62
               4
100
AcDbLine
 10
74635.105404962
 20
92243.106237457279
 30
0.0
 11
74522.944731198048
 21
92437.374223027597
 31
0.0
  0
LINE
  5
1AD
100
AcDbEntity
  8
0
  6
Continuous
 62
               4
100
AcDbLine
 10
74522.944731198048
 20
92437.374223027597
 30
0.0
 11
74210.672905610685
 21
92437.374223027597
 31
0.0
  0
LINE
  5
1AE
100
AcDbEntity
  8
0
  6
Continuous
 62
               4
100
AcDbLine
 10
73321.490003780113
 20
91590.770672821323
 30
0.0
 11
73214.852073229733
 21
91775.472986548601
 31
0.0
  0
LINE
  5
1AF
100
AcDbEntity
  8
0
  6
Continuous
 62
               4
100
AcDbLine
 10
72864.852073229733
 20
91775.472986548601
 30
0.0
 11
73214.852073229733
 21
91775.472986548601
 31
0.0
  0
LINE
  5
1B0
100
AcDbEntity
  8
0
  6
Continuous
 62
               4
100
AcDbLine
 10
74580.545346311003
 20
92023.52436206679
 30
0.0
 11
74705.339687270665
 21
91807.374223027597
 31
0.0
  0
LINE
  5
1B1
100
AcDbEntity
  8
0
  6
Continuous
 62
               4
100
AcDbLine
 10
74424.020587886014
 20
92139.799896896788
 30
0.0
 11
74333.045008277026
 21
92297.374223027597
 31
0.0
  0
LINE
  5
1B2
100
AcDbEntity
  8
0
  6
Continuous
 62
               4
100
AcDbLine
 10
74333.045008277026
 20
92297.374223027597
 30
0.0
 11
74014.645571749963
 21
92297.374223027597
 31
0.0
  0
LINE
  5
1B3
100
AcDbEntity
  8
0
  6
Continuous
 62
               4
100
AcDbLine
 10
74705.339687270665
 20
91807.374223027597
 30
0.0
 11
74872.006353937322
 21
91807.374223027597
 31
0.0
  0
LINE
  5
1B4
100
AcDbEntity
  8
0
  6
Continuous
 62
               4
100
AcDbLine
 10
74457.263465151511
 20
92196.297881128281
 30
0.0
 11
74358.492493103971
 21
92367.374223027582
 31
0.0
  0
LINE
  5
1B5
100
AcDbEntity
  8
0
  6
Continuous
 62
               4
100
AcDbLine
 10
74358.492493103971
 20
92367.374223027582
 30
0.0
 11
74103.265409950603
 21
92367.374223027597
 31
0.0
  0
LINE
  5
1B6
100
AcDbEntity
  8
0
  6
Continuous
 62
               4
100
AcDbLine
 10
74424.020587886014
 20
92139.799896896788
 30
0.0
 11
74404.736959595422
 21
92162.781230190347
 31
0.0
  0
LINE
  5
1B7
100
AcDbEntity
  8
0
  6
Continuous
 62
               4
100
AcDbLine
 10
74424.020587886014
 20
92139.799896896788
 30
0.0
 11
74413.759983586249
 21
92167.990675520356
 31
0.0
  0
LINE
  5
1B8
100
AcDbEntity
  8
0
  6
Continuous
 62
               4
100
AcDbLine
 10
74457.263465151511
 20
92196.297881128281
 30
0.0
 11
74437.979836860919
 21
92219.27921442184
 31
0.0
  0
LINE
  5
1B9
100
AcDbEntity
  8
0
  6
Continuous
 62
               4
100
AcDbLine
 10
74457.263465151511
 20
92196.297881128281
 30
0.0
 11
74447.002860851746
 21
92224.488659751849
 31
0.0
  0
LINE
  5
1BA
100
AcDbEntity
  8
0
  6
Continuous
 62
               4
100
AcDbLine
 10
74635.105404962
 20
92243.106237457279
 30
0.0
 11
74615.821776671408
 21
92266.087570750838
 31
0.0
  0
LINE
  5
1BB
100
AcDbEntity
  8
0
  6
Continuous
 62
               4
100
AcDbLine
 10
74635.105404962
 20
92243.106237457279
 30
0.0
 11
74624.844800662235
 21
92271.297016080847
 31
0.0
  0
LINE
  5
1BC
100
AcDbEntity
  8
0
  6
Continuous
 62
               4
100
AcDbLine
 10
74580.545346311003
 20
92023.52436206679
 30
0.0
 11
74599.828974601594
 21
92000.543028773231
 31
0.0
  0
LINE
  5
1BD
100
AcDbEntity
  8
0
  6
Continuous
 62
               4
100
AcDbLine
 10
74580.545346311003
 20
92023.52436206679
 30
0.0
 11
74590.805950610767
 21
91995.333583443222
 31
0.0
  0
LINE
  5
1BE
100
AcDbEntity
  8
0
  6
Continuous
 62
               4
100
AcDbLine
 10
74463.673526687024
 20
91985.958420044801
 30
0.0
 11
74324.29204784827
 21
92227.374223027597
 31
0.0
  0
LINE
  5
1BF
100
AcDbEntity
  8
0
  6
Continuous
 62
               4
100
AcDbLine
 10
74124.29204784827
 20
92227.374223027582
 30
0.0
 11
74324.29204784827
 21
92227.374223027582
 31
0.0
  0
LINE
  5
1C0
100
AcDbEntity
  8
0
  6
Continuous
 62
               4
100
AcDbLine
 10
74562.060517697013
 20
92173.042774162284
 30
0.0
 11
74740.946025548677
 21
92262.485528088117
 31
0.0
  0
LINE
  5
1C1
100
AcDbEntity
  8
0
  6
Continuous
 62
               4
100
AcDbLine
 10
74790.735805847668
 20
92140.545287715126
 30
0.0
 11
74732.001753638673
 21
92258.013392133114
 31
0.0
  0
LINE
  5
1C2
100
AcDbEntity
  8
0
  6
Continuous
 62
               4
100
AcDbLine
 10
74732.001753638673
 20
92258.013392133114
 30
0.0
 11
74718.585345773681
 21
92284.846207863113
 31
0.0
  0
LINE
  5
1C3
100
AcDbEntity
  8
0
  6
Continuous
 62
               4
100
AcDbLine
 10
74853.345709217669
 20
92171.850239400126
 30
0.0
 11
74781.195249143668
 21
92316.151159548113
 31
0.0
  0
LINE
  5
1C4
100
AcDbEntity
  8
0
  6
Continuous
 62
               4
100
AcDbLine
 10
75061.328194173708
 20
92292.541409958794
 30
0.0
 11
75058.225920621568
 21
92283.234617012073
 31
0.0
  0
LINE
  5
1C5
100
AcDbEntity
  8
0
  6
Continuous
 62
               4
100
AcDbLine
 10
75055.003644502503
 20
92305.190509301188
 30
0.0
 11
75045.576798682581
 21
92276.910056042587
 31
0.0
  0
LINE
  5
1C6
100
AcDbEntity
  8
0
  6
Continuous
 62
               4
100
AcDbLine
 10
75047.83484985432
 20
92315.306881253448
 30
0.0
 11
75032.927676743595
 21
92270.585495073101
 31
0.0
  0
LINE
  5
1C7
100
AcDbEntity
  8
0
  6
Continuous
 62
               4
100
AcDbLine
 10
75035.185727915334
 20
92308.982320283962
 30
0.0
 11
75020.278554804623
 21
92264.2609341036
 31
0.0
  0
LINE
  5
1C8
100
AcDbEntity
  8
0
  6
Continuous
 62
               4
100
AcDbLine
 10
75022.536605976347
 20
92302.657759314461
 30
0.0
 11
75007.629432865637
 21
92257.936373134115
 31
0.0
  0
LINE
  5
1C9
100
AcDbEntity
  8
0
  6
Continuous
 62
               4
100
AcDbLine
 10
75009.887484037361
 20
92296.333198344975
 30
0.0
 11
74994.98031092665
 21
92251.611812164614
 31
0.0
  0
LINE
  5
1CA
100
AcDbEntity
  8
0
  6
Continuous
 62
               4
100
AcDbLine
 10
74997.238362098389
 20
92290.008637375489
 30
0.0
 11
74982.331188987679
 21
92245.287251195128
 31
0.0
  0
LINE
  5
1CB
100
AcDbEntity
  8
0
  6
Continuous
 62
               4
100
AcDbLine
 10
74984.589240159403
 20
92283.684076405989
 30
0.0
 11
74969.682067048692
 21
92238.962690225642
 31
0.0
  0
LINE
  5
1CC
100
AcDbEntity
  8
0
  6
Continuous
 62
               4
100
AcDbLine
 10
75010.731796804117
 20
92393.734204697947
 30
0.0
 11
75010.69876830827
 21
92393.635119505416
 31
0.0
  0
LINE
  5
1CD
100
AcDbEntity
  8
0
  6
Continuous
 62
               4
100
AcDbLine
 10
74971.940118220416
 20
92277.359515436503
 30
0.0
 11
74957.032945109706
 21
92232.638129256142
 31
0.0
  0
LINE
  5
1CE
100
AcDbEntity
  8
0
  6
Continuous
 62
               4
100
AcDbLine
 10
75004.407247132927
 20
92406.383304040341
 30
0.0
 11
74998.049646369283
 21
92387.31055853593
 31
0.0
  0
LINE
  5
1CF
100
AcDbEntity
  8
0
  6
Continuous
 62
               4
100
AcDbLine
 10
74959.290996281445
 20
92271.034954467003
 30
0.0
 11
74944.383823170734
 21
92226.313568286656
 31
0.0
  0
LINE
  5
1D0
100
AcDbEntity
  8
0
  6
Continuous
 62
               4
100
AcDbLine
 10
74998.082697461723
 20
92419.032403382735
 30
0.0
 11
74985.400524430312
 21
92380.985997566444
 31
0.0
  0
LINE
  5
1D1
100
AcDbEntity
  8
0
  6
Continuous
 62
               4
100
AcDbLine
 10
74946.641874342458
 20
92264.710393497517
 30
0.0
 11
74931.734701231748
 21
92219.98900731717
 31
0.0
  0
LINE
  5
1D2
100
AcDbEntity
  8
0
  6
Continuous
 62
               4
100
AcDbLine
 10
74987.658575602036
 20
92419.382822777305
 30
0.0
 11
74972.751402491325
 21
92374.661436596944
 31
0.0
  0
LINE
  5
1D3
100
AcDbEntity
  8
0
  6
Continuous
 62
               4
100
AcDbLine
 10
74933.992752403472
 20
92258.385832528031
 30
0.0
 11
74919.085579292761
 21
92213.66444634767
 31
0.0
  0
LINE
  5
1D4
100
AcDbEntity
  8
0
  6
Continuous
 62
               4
100
AcDbLine
 10
74975.009453663049
 20
92413.058261807804
 30
0.0
 11
74960.102280552339
 21
92368.336875627458
 31
0.0
  0
LINE
  5
1D5
100
AcDbEntity
  8
0
  6
Continuous
 62
               4
100
AcDbLine
 10
74921.3436304645
 20
92252.06127155853
 30
0.0
 11
74906.436457353775
 21
92207.339885378184
 31
0.0
  0
LINE
  5
1D6
100
AcDbEntity
  8
0
  6
Continuous
 62
               4
100
AcDbLine
 10
74962.360331724078
 20
92406.733700838318
 30
0.0
 11
74947.453158613367
 21
92362.012314657957
 31
0.0
  0
LINE
  5
1D7
100
AcDbEntity
  8
0
  6
Continuous
 62
               4
100
AcDbLine
 10
74908.694508525514
 20
92245.736710589044
 30
0.0
 11
74893.787335414803
 21
92201.015324408698
 31
0.0
  0
LINE
  5
1D8
100
AcDbEntity
  8
0
  6
Continuous
 62
               4
100
AcDbLine
 10
74949.711209785091
 20
92400.409139868832
 30
0.0
 11
74934.804036674381
 21
92355.687753688471
 31
0.0
  0
LINE
  5
1D9
100
AcDbEntity
  8
0
  6
Continuous
 62
               4
100
AcDbLine
 10
74896.045386586527
 20
92239.412149619558
 30
0.0
 11
74881.138213475817
 21
92194.690763439197
 31
0.0
  0
LINE
  5
1DA
100
AcDbEntity
  8
0
  6
Continuous
 62
               4
100
AcDbLine
 10
74937.062087846105
 20
92394.084578899332
 30
0.0
 11
74922.154914735394
 21
92349.363192718985
 31
0.0
  0
LINE
  5
1DB
100
AcDbEntity
  8
0
  6
Continuous
 62
               4
100
AcDbLine
 10
74883.396264647541
 20
92233.087588650058
 30
0.0
 11
74868.489091536831
 21
92188.366202469711
 31
0.0
  0
LINE
  5
1DC
100
AcDbEntity
  8
0
  6
Continuous
 62
               4
100
AcDbLine
 10
74924.412965907133
 20
92387.760017929846
 30
0.0
 11
74909.505792796423
 21
92343.038631749485
 31
0.0
  0
LINE
  5
1DD
100
AcDbEntity
  8
0
  6
Continuous
 62
               4
100
AcDbLine
 10
74870.747142708569
 20
92226.763027680572
 30
0.0
 11
74855.839969597859
 21
92182.041641500226
 31
0.0
  0
LINE
  5
1DE
100
AcDbEntity
  8
0
  6
Continuous
 62
               4
100
AcDbLine
 10
74911.763843968147
 20
92381.435456960346
 30
0.0
 11
74896.856670857436
 21
92336.714070779999
 31
0.0
  0
LINE
  5
1DF
100
AcDbEntity
  8
0
  6
Continuous
 62
               4
100
AcDbLine
 10
74858.098020769583
 20
92220.438466711086
 30
0.0
 11
74843.190847658872
 21
92175.717080530725
 31
0.0
  0
LINE
  5
1E0
100
AcDbEntity
  8
0
  6
Continuous
 62
               4
100
AcDbLine
 10
74899.11472202916
 20
92375.11089599086
 30
0.0
 11
74884.20754891845
 21
92330.389509810513
 31
0.0
  0
LINE
  5
1E1
100
AcDbEntity
  8
0
  6
Continuous
 62
               4
100
AcDbLine
 10
74845.448898830597
 20
92214.113905741586
 30
0.0
 11
74830.541725719886
 21
92169.392519561239
 31
0.0
  0
LINE
  5
1E2
100
AcDbEntity
  8
0
  6
Continuous
 62
               4
100
AcDbLine
 10
74886.465600090189
 20
92368.786335021374
 30
0.0
 11
74871.558426979464
 21
92324.064948841013
 31
0.0
  0
LINE
  5
1E3
100
AcDbEntity
  8
0
  6
Continuous
 62
               4
100
AcDbLine
 10
74832.799776891625
 20
92207.7893447721
 30
0.0
 11
74817.892603780914
 21
92163.067958591739
 31
0.0
  0
LINE
  5
1E4
100
AcDbEntity
  8
0
  6
Continuous
 62
               4
100
AcDbLine
 10
74873.816478151202
 20
92362.461774051873
 30
0.0
 11
74858.909305040492
 21
92317.740387871527
 31
0.0
  0
LINE
  5
1E5
100
AcDbEntity
  8
0
  6
Continuous
 62
               4
100
AcDbLine
 10
74820.150654952638
 20
92201.464783802614
 30
0.0
 11
74805.243481841928
 21
92156.743397622253
 31
0.0
  0
LINE
  5
1E6
100
AcDbEntity
  8
0
  6
Continuous
 62
               4
100
AcDbLine
 10
74861.167356212216
 20
92356.137213082387
 30
0.0
 11
74846.260183101505
 21
92311.415826902041
 31
0.0
  0
LINE
  5
1E7
100
AcDbEntity
  8
0
  6
Continuous
 62
               4
100
AcDbLine
 10
74807.501533013652
 20
92195.140222833114
 30
0.0
 11
74792.594359902942
 21
92150.418836652767
 31
0.0
  0
LINE
  5
1E8
100
AcDbEntity
  8
0
  6
Continuous
 62
               4
100
AcDbLine
 10
74848.51823427323
 20
92349.812652112902
 30
0.0
 11
74833.611061162519
 21
92305.09126593254
 31
0.0
  0
LINE
  5
1E9
100
AcDbEntity
  8
0
  6
Continuous
 62
               4
100
AcDbLine
 10
74794.85241107468
 20
92188.815661863628
 30
0.0
 11
74779.945237963955
 21
92144.094275683266
 31
0.0
  0
LINE
  5
1EA
100
AcDbEntity
  8
0
  6
Continuous
 62
               4
100
AcDbLine
 10
74835.869112334258
 20
92343.488091143401
 30
0.0
 11
74820.961939223547
 21
92298.766704963055
 31
0.0
  0
LINE
  5
1EB
100
AcDbEntity
  8
0
  6
Continuous
 62
               4
100
AcDbLine
 10
74782.203289135694
 20
92182.491100894127
 30
0.0
 11
74767.296116024983
 21
92137.769714713781
 31
0.0
  0
LINE
  5
1EC
100
AcDbEntity
  8
0
  6
Continuous
 62
               4
100
AcDbLine
 10
74823.219990395271
 20
92337.163530173915
 30
0.0
 11
74808.312817284561
 21
92292.442143993554
 31
0.0
  0
LINE
  5
1ED
100
AcDbEntity
  8
0
  6
Continuous
 62
               4
100
AcDbLine
 10
74769.554167196708
 20
92176.166539924641
 30
0.0
 11
74754.646994085997
 21
92131.445153744295
 31
0.0
  0
LINE
  5
1EE
100
AcDbEntity
  8
0
  6
Continuous
 62
               4
100
AcDbLine
 10
74810.570868456285
 20
92330.838969204429
 30
0.0
 11
74795.663695345575
 21
92286.117583024068
 31
0.0
  0
LINE
  5
1EF
100
AcDbEntity
  8
0
  6
Continuous
 62
               4
100
AcDbLine
 10
74756.905045257721
 20
92169.841978955155
 30
0.0
 11
74741.997872147011
 21
92125.120592774794
 31
0.0
  0
LINE
  5
1F0
100
AcDbEntity
  8
0
  6
Continuous
 62
               4
100
AcDbLine
 10
74797.921746517313
 20
92324.514408234929
 30
0.0
 11
74783.014573406603
 21
92279.793022054582
 31
0.0
  0
LINE
  5
1F1
100
AcDbEntity
  8
0
  6
Continuous
 62
               4
100
AcDbLine
 10
74744.255923318749
 20
92163.517417985655
 30
0.0
 11
74729.348750208039
 21
92118.796031805308
 31
0.0
  0
LINE
  5
1F2
100
AcDbEntity
  8
0
  6
Continuous
 62
               4
100
AcDbLine
 10
74785.272624578327
 20
92318.189847265443
 30
0.0
 11
74770.365451467616
 21
92273.468461085082
 31
0.0
  0
LINE
  5
1F3
100
AcDbEntity
  8
0
  6
Continuous
 62
               4
100
AcDbLine
 10
74731.606801379763
 20
92157.192857016169
 30
0.0
 11
74716.699628269052
 21
92112.471470835822
 31
0.0
  0
LINE
  5
1F4
100
AcDbEntity
  8
0
  6
Continuous
 62
               4
100
AcDbLine
 10
74772.623502639341
 20
92311.865286295942
 30
0.0
 11
74757.71632952863
 21
92267.143900115596
 31
0.0
  0
LINE
  5
1F5
100
AcDbEntity
  8
0
  6
Continuous
 62
               4
100
AcDbLine
 10
74718.957679440777
 20
92150.868296046683
 30
0.0
 11
74704.050506330066
 21
92106.146909866322
 31
0.0
  0
LINE
  5
1F6
100
AcDbEntity
  8
0
  6
Continuous
 62
               4
100
AcDbLine
 10
74759.974380700369
 20
92305.540725326457
 30
0.0
 11
74745.067207589644
 21
92260.81933914611
 31
0.0
  0
LINE
  5
1F7
100
AcDbEntity
  8
0
  6
Continuous
 62
               4
100
AcDbLine
 10
74706.308557501805
 20
92144.543735077183
 30
0.0
 11
74691.401384391094
 21
92099.822348896836
 31
0.0
  0
LINE
  5
1F8
100
AcDbEntity
  8
0
  6
Continuous
 62
               4
100
AcDbLine
 10
74747.325258761382
 20
92299.216164356971
 30
0.0
 11
74732.418085650672
 21
92254.49477817661
 31
0.0
  0
LINE
  5
1F9
100
AcDbEntity
  8
0
  6
Continuous
 62
               4
100
AcDbLine
 10
74693.659435562819
 20
92138.219174107697
 30
0.0
 11
74678.752262452108
 21
92093.49778792735
 31
0.0
  0
LINE
  5
1FA
100
AcDbEntity
  8
0
  6
Continuous
 62
               4
100
AcDbLine
 10
74734.676136822396
 20
92292.89160338747
 30
0.0
 11
74719.768963711686
 21
92248.170217207124
 31
0.0
  0
LINE
  5
1FB
100
AcDbEntity
  8
0
  6
Continuous
 62
               4
100
AcDbLine
 10
74681.010313623832
 20
92131.894613138211
 30
0.0
 11
74666.103140513122
 21
92087.17322695785
 31
0.0
  0
LINE
  5
1FC
100
AcDbEntity
  8
0
  6
Continuous
 62
               4
100
AcDbLine
 10
74722.02701488341
 20
92286.567042417984
 30
0.0
 11
74707.119841772699
 21
92241.845656237638
 31
0.0
  0
LINE
  5
1FD
100
AcDbEntity
  8
0
  6
Continuous
 62
               4
100
AcDbLine
 10
74668.36119168486
 20
92125.57005216871
 30
0.0
 11
74653.454018574135
 21
92080.848665988364
 31
0.0
  0
LINE
  5
1FE
100
AcDbEntity
  8
0
  6
Continuous
 62
               4
100
AcDbLine
 10
74709.377892944438
 20
92280.242481448498
 30
0.0
 11
74694.470719833727
 21
92235.521095268137
 31
0.0
  0
LINE
  5
1FF
100
AcDbEntity
  8
0
  6
Continuous
 62
               4
100
AcDbLine
 10
74655.712069745874
 20
92119.245491199224
 30
0.0
 11
74640.804896635163
 21
92074.524105018863
 31
0.0
  0
LINE
  5
200
100
AcDbEntity
  8
0
  6
Continuous
 62
               4
100
AcDbLine
 10
74696.728771005452
 20
92273.917920478998
 30
0.0
 11
74681.821597894741
 21
92229.196534298651
 31
0.0
  0
LINE
  5
201
100
AcDbEntity
  8
0
  6
Continuous
 62
               4
100
AcDbLine
 10
74643.062947806888
 20
92112.920930229739
 30
0.0
 11
74628.155774696177
 21
92068.199544049377
 31
0.0
  0
LINE
  5
202
100
AcDbEntity
  8
0
  6
Continuous
 62
               4
100
AcDbLine
 10
74684.079649066465
 20
92267.593359509512
 30
0.0
 11
74669.172475955755
 21
92222.871973329165
 31
0.0
  0
LINE
  5
203
100
AcDbEntity
  8
0
  6
Continuous
 62
               4
100
AcDbLine
 10
74630.413825867901
 20
92106.596369260238
 30
0.0
 11
74615.506652757191
 21
92061.874983079892
 31
0.0
  0
LINE
  5
204
100
AcDbEntity
  8
0
  6
Continuous
 62
               4
100
AcDbLine
 10
74671.430527127493
 20
92261.268798540026
 30
0.0
 11
74656.523354016783
 21
92216.547412359665
 31
0.0
  0
LINE
  5
205
100
AcDbEntity
  8
0
  6
Continuous
 62
               4
100
AcDbLine
 10
74617.76470392893
 20
92100.271808290752
 30
0.0
 11
74602.857530818219
 21
92055.550422110391
 31
0.0
  0
LINE
  5
206
100
AcDbEntity
  8
0
  6
Continuous
 62
               4
100
AcDbLine
 10
74658.781405188507
 20
92254.944237570526
 30
0.0
 11
74643.874232077796
 21
92210.222851390179
 31
0.0
  0
LINE
  5
207
100
AcDbEntity
  8
0
  6
Continuous
 62
               4
100
AcDbLine
 10
74609.675517726893
 20
92107.627013802499
 30
0.0
 11
74594.768371246595
 21
92062.905707513113
 31
0.0
  0
LINE
  5
208
100
AcDbEntity
  8
0
  6
Continuous
 62
               4
100
AcDbLine
 10
74646.132283249521
 20
92248.61967660104
 30
0.0
 11
74631.22511013881
 21
92203.898290420679
 31
0.0
  0
LINE
  5
209
100
AcDbEntity
  8
0
  6
Continuous
 62
               4
100
AcDbLine
 10
74603.350968055704
 20
92120.276113144893
 30
0.0
 11
74588.443821575391
 21
92075.554806855522
 31
0.0
  0
LINE
  5
20A
100
AcDbEntity
  8
0
  6
Continuous
 62
               4
100
AcDbLine
 10
74633.483161310549
 20
92242.295115631539
 30
0.0
 11
74618.575988199824
 21
92197.573729451193
 31
0.0
  0
LINE
  5
20B
100
AcDbEntity
  8
0
  6
Continuous
 62
               4
100
AcDbLine
 10
74597.026418384499
 20
92132.925212487287
 30
0.0
 11
74582.119271904201
 21
92088.203906197916
 31
0.0
  0
LINE
  5
20C
100
AcDbEntity
  8
0
  6
Continuous
 62
               4
100
AcDbLine
 10
74620.834039371563
 20
92235.970554662053
 30
0.0
 11
74605.926866260852
 21
92191.249168481707
 31
0.0
  0
LINE
  5
20D
100
AcDbEntity
  8
0
  6
Continuous
 62
               4
100
AcDbLine
 10
74590.70186871331
 20
92145.574311829681
 30
0.0
 11
74575.794722232997
 21
92100.85300554031
 31
0.0
  0
LINE
  5
20E
100
AcDbEntity
  8
0
  6
Continuous
 62
               4
100
AcDbLine
 10
74608.184917432576
 20
92229.645993692568
 30
0.0
 11
74593.277744321866
 21
92184.924607512206
 31
0.0
  0
LINE
  5
20F
100
AcDbEntity
  8
0
  6
Continuous
 62
               4
100
AcDbLine
 10
74584.377319042105
 20
92158.223411172075
 30
0.0
 11
74569.470172561807
 21
92113.502104882704
 31
0.0
  0
LINE
  5
210
100
AcDbEntity
  8
0
  6
Continuous
 62
               4
100
AcDbLine
 10
74595.53579549359
 20
92223.321432723067
 30
0.0
 11
74580.628622382879
 21
92178.600046542721
 31
0.0
  0
LINE
  5
211
100
AcDbEntity
  8
0
  6
Continuous
 62
               4
100
AcDbLine
 10
74578.052769370915
 20
92170.872510514469
 30
0.0
 11
74563.145622890603
 21
92126.151204225098
 31
0.0
  0
LINE
  5
212
100
AcDbEntity
  8
0
  6
Continuous
 62
               4
100
AcDbLine
 10
74582.886673554618
 20
92216.996871753581
 30
0.0
 11
74556.821073219398
 21
92138.800303567492
 31
0.0
  0
LINE
  5
213
100
AcDbEntity
  8
0
  6
Continuous
 62
               4
100
AcDbLine
 10
74570.237551615632
 20
92210.672310784095
 30
0.0
 11
74550.496523548209
 21
92151.449402909886
 31
0.0
  0
LINE
  5
214
100
AcDbEntity
  8
0
  6
Continuous
 62
               4
100
AcDbLine
 10
74557.588429676645
 20
92204.347749814595
 30
0.0
 11
74544.171973877004
 21
92164.09850225228
 31
0.0
  0
LINE
  5
215
100
AcDbEntity
  8
0
  6
Continuous
 62
               4
100
AcDbLine
 10
74544.939307737674
 20
92198.023188845109
 30
0.0
 11
74537.847424205815
 21
92176.747601594674
 31
0.0
  0
LINE
  5
216
100
AcDbEntity
  8
0
  6
Continuous
 62
               4
100
AcDbLine
 10
74534.504286560172
 20
92166.718218518858
 30
0.0
 11
74531.522851938033
 21
92157.773941282794
 31
0.0
  0
LINE
  5
217
100
AcDbEntity
  8
0
  6
Continuous
 62
               4
100
AcDbLine
 10
74481.200267580643
 20
92006.806637695045
 30
0.0
 11
74476.366311428399
 21
91992.304812415488
 31
0.0
  0
LINE
  5
218
100
AcDbEntity
  8
0
  6
Continuous
 62
               4
100
AcDbLine
 10
74532.290185798687
 20
92191.698627875623
 30
0.0
 11
74531.52287453461
 21
92189.396700937068
 31
0.0
  0
LINE
  5
219
100
AcDbEntity
  8
0
  6
Continuous
 62
               4
100
AcDbLine
 10
74527.050730590519
 20
92175.980309050254
 30
0.0
 11
74524.069301294454
 21
92167.036047792382
 31
0.0
  0
LINE
  5
21A
100
AcDbEntity
  8
0
  6
Continuous
 62
               4
100
AcDbLine
 10
74474.875717909439
 20
92019.455737037439
 30
0.0
 11
74463.717189489413
 21
91985.980251445988
 31
0.0
  0
LINE
  5
21B
100
AcDbEntity
  8
0
  6
Continuous
 62
               4
100
AcDbLine
 10
74468.551168238249
 20
92032.104836379833
 30
0.0
 11
74451.068067550426
 21
91979.655690476502
 31
0.0
  0
LINE
  5
21C
100
AcDbEntity
  8
0
  6
Continuous
 62
               4
100
AcDbLine
 10
74462.226618567045
 20
92044.753935722227
 30
0.0
 11
74438.418945611455
 21
91973.331129507016
 31
0.0
  0
LINE
  5
21D
100
AcDbEntity
  8
0
  6
Continuous
 62
               4
100
AcDbLine
 10
74455.902068895855
 20
92057.403035064621
 30
0.0
 11
74440.994922415543
 21
92012.681728775249
 31
0.0
  0
LINE
  5
21E
100
AcDbEntity
  8
0
  6
Continuous
 62
               4
100
AcDbLine
 10
74440.676996783179
 20
92011.727954717877
 30
0.0
 11
74425.769823672468
 21
91967.006568537516
 31
0.0
  0
LINE
  5
21F
100
AcDbEntity
  8
0
  6
Continuous
 62
               4
100
AcDbLine
 10
74449.577519224651
 20
92070.052134407015
 30
0.0
 11
74434.670372744353
 21
92025.330828117643
 31
0.0
  0
LINE
  5
220
100
AcDbEntity
  8
0
  6
Continuous
 62
               4
100
AcDbLine
 10
74428.027874844192
 20
92005.403393748376
 30
0.0
 11
74413.120701733482
 21
91960.68200756803
 31
0.0
  0
LINE
  5
221
100
AcDbEntity
  8
0
  6
Continuous
 62
               4
100
AcDbLine
 10
74443.252969553461
 20
92082.701233749409
 30
0.0
 11
74428.345823073148
 21
92037.979927460037
 31
0.0
  0
LINE
  5
222
100
AcDbEntity
  8
0
  6
Continuous
 62
               4
100
AcDbLine
 10
74415.378752905221
 20
91999.078832778891
 30
0.0
 11
74400.471579794495
 21
91954.357446598544
 31
0.0
  0
LINE
  5
223
100
AcDbEntity
  8
0
  6
Continuous
 62
               4
100
AcDbLine
 10
74444.381993122413
 20
92117.710986236489
 30
0.0
 11
74442.978998365157
 21
92113.502014496349
 31
0.0
  0
LINE
  5
224
100
AcDbEntity
  8
0
  6
Continuous
 62
               4
100
AcDbLine
 10
74436.928419882257
 20
92095.350333091803
 30
0.0
 11
74422.021273401944
 21
92050.629026802431
 31
0.0
  0
LINE
  5
225
100
AcDbEntity
  8
0
  6
Continuous
 62
               4
100
AcDbLine
 10
74402.729630966234
 20
91992.754271809405
 30
0.0
 11
74387.822457855524
 21
91948.032885629043
 31
0.0
  0
LINE
  5
226
100
AcDbEntity
  8
0
  6
Continuous
 62
               4
100
AcDbLine
 10
74438.057443451209
 20
92130.360085578897
 30
0.0
 11
74435.076014155158
 21
92121.415824321011
 31
0.0
  0
LINE
  5
227
100
AcDbEntity
  8
0
  6
Continuous
 62
               4
100
AcDbLine
 10
74433.31131104831
 20
92116.121730762927
 30
0.0
 11
74415.696723730754
 21
92063.278126144825
 31
0.0
  0
LINE
  5
228
100
AcDbEntity
  8
0
  6
Continuous
 62
               4
100
AcDbLine
 10
74390.080509027248
 20
91986.429710839904
 30
0.0
 11
74375.173335916537
 21
91941.708324659558
 31
0.0
  0
LINE
  5
229
100
AcDbEntity
  8
0
  6
Continuous
 62
               4
100
AcDbLine
 10
74424.279320539863
 20
92120.648531776591
 30
0.0
 11
74409.37217405955
 21
92075.927225487219
 31
0.0
  0
LINE
  5
22A
100
AcDbEntity
  8
0
  6
Continuous
 62
               4
100
AcDbLine
 10
74377.431387088262
 20
91980.105149870418
 30
0.0
 11
74362.524213977551
 21
91935.383763690072
 31
0.0
  0
LINE
  5
22B
100
AcDbEntity
  8
0
  6
Continuous
 62
               4
100
AcDbLine
 10
74417.954770868673
 20
92133.297631119
 30
0.0
 11
74403.04762438836
 21
92088.576324829613
 31
0.0
  0
LINE
  5
22C
100
AcDbEntity
  8
0
  6
Continuous
 62
               4
100
AcDbLine
 10
74364.78226514929
 20
91973.780588900932
 30
0.0
 11
74349.875092038579
 21
91929.059202720571
 31
0.0
  0
LINE
  5
22D
100
AcDbEntity
  8
0
  6
Continuous
 62
               4
100
AcDbLine
 10
74405.798966408867
 20
92128.453018180706
 30
0.0
 11
74390.891793298157
 21
92083.731632000359
 31
0.0
  0
LINE
  5
22E
100
AcDbEntity
  8
0
  6
Continuous
 62
               4
100
AcDbLine
 10
74352.133143210303
 20
91967.456027931432
 30
0.0
 11
74337.225970099593
 21
91922.734641751085
 31
0.0
  0
LINE
  5
22F
100
AcDbEntity
  8
0
  6
Continuous
 62
               4
100
AcDbLine
 10
74393.149844469881
 20
92122.12845721122
 30
0.0
 11
74378.24267135917
 21
92077.407071030859
 31
0.0
  0
LINE
  5
230
100
AcDbEntity
  8
0
  6
Continuous
 62
               4
100
AcDbLine
 10
74339.484021271317
 20
91961.131466961946
 30
0.0
 11
74324.576848160606
 21
91916.410080781599
 31
0.0
  0
LINE
  5
231
100
AcDbEntity
  8
0
  6
Continuous
 62
               4
100
AcDbLine
 10
74380.500722530909
 20
92115.803896241719
 30
0.0
 11
74365.593549420184
 21
92071.082510061373
 31
0.0
  0
LINE
  5
232
100
AcDbEntity
  8
0
  6
Continuous
 62
               4
100
AcDbLine
 10
74326.834899332345
 20
91954.80690599246
 30
0.0
 11
74311.927726221635
 21
91910.085519812099
 31
0.0
  0
LINE
  5
233
100
AcDbEntity
  8
0
  6
Continuous
 62
               4
100
AcDbLine
 10
74367.851600591923
 20
92109.479335272234
 30
0.0
 11
74352.944427481212
 21
92064.757949091872
 31
0.0
  0
LINE
  5
234
100
AcDbEntity
  8
0
  6
Continuous
 62
               4
100
AcDbLine
 10
74314.185777393359
 20
91948.48234502296
 30
0.0
 11
74299.278604282648
 21
91903.760958842613
 31
0.0
  0
LINE
  5
235
100
AcDbEntity
  8
0
  6
Continuous
 62
               4
100
AcDbLine
 10
74355.202478652936
 20
92103.154774302748
 30
0.0
 11
74340.295305542226
 21
92058.433388122387
 31
0.0
  0
LINE
  5
236
100
AcDbEntity
  8
0
  6
Continuous
 62
               4
100
AcDbLine
 10
74301.536655454373
 20
91942.157784053474
 30
0.0
 11
74286.629482343662
 21
91897.436397873113
 31
0.0
  0
LINE
  5
237
100
AcDbEntity
  8
0
  6
Continuous
 62
               4
100
AcDbLine
 10
74342.55335671395
 20
92096.830213333247
 30
0.0
 11
74327.646183603239
 21
92052.108827152901
 31
0.0
  0
LINE
  5
238
100
AcDbEntity
  8
0
  6
Continuous
 62
               4
100
AcDbLine
 10
74288.887533515401
 20
91935.833223083973
 30
0.0
 11
74273.980360404676
 21
91891.111836903627
 31
0.0
  0
LINE
  5
239
100
AcDbEntity
  8
0
  6
Continuous
 62
               4
100
AcDbLine
 10
74329.904234774978
 20
92090.505652363761
 30
0.0
 11
74314.997061664268
 21
92045.7842661834
 31
0.0
  0
LINE
  5
23A
100
AcDbEntity
  8
0
  6
Continuous
 62
               4
100
AcDbLine
 10
74276.238411576414
 20
91929.508662114487
 30
0.0
 11
74261.331238465704
 21
91884.787275934141
 31
0.0
  0
LINE
  5
23B
100
AcDbEntity
  8
0
  6
Continuous
 62
               4
100
AcDbLine
 10
74317.255112835992
 20
92084.181091394261
 30
0.0
 11
74302.347939725281
 21
92039.459705213914
 31
0.0
  0
LINE
  5
23C
100
AcDbEntity
  8
0
  6
Continuous
 62
               4
100
AcDbLine
 10
74263.589289637428
 20
91923.184101145001
 30
0.0
 11
74248.682116526717
 21
91878.46271496464
 31
0.0
  0
LINE
  5
23D
100
AcDbEntity
  8
0
  6
Continuous
 62
               4
100
AcDbLine
 10
74304.605990897006
 20
92077.856530424775
 30
0.0
 11
74289.698817786295
 21
92033.135144244428
 31
0.0
  0
LINE
  5
23E
100
AcDbEntity
  8
0
  6
Continuous
 62
               4
100
AcDbLine
 10
74250.940167698442
 20
91916.859540175501
 30
0.0
 11
74236.032994587731
 21
91872.138153995154
 31
0.0
  0
LINE
  5
23F
100
AcDbEntity
  8
0
  6
Continuous
 62
               4
100
AcDbLine
 10
74291.956868958034
 20
92071.531969455289
 30
0.0
 11
74277.049695847323
 21
92026.810583274928
 31
0.0
  0
LINE
  5
240
100
AcDbEntity
  8
0
  6
Continuous
 62
               4
100
AcDbLine
 10
74238.29104575947
 20
91910.534979206015
 30
0.0
 11
74223.383872648759
 21
91865.813593025669
 31
0.0
  0
LINE
  5
241
100
AcDbEntity
  8
0
  6
Continuous
 62
               4
100
AcDbLine
 10
74279.307747019047
 20
92065.207408485789
 30
0.0
 11
74264.400573908337
 21
92020.486022305442
 31
0.0
  0
LINE
  5
242
100
AcDbEntity
  8
0
  6
Continuous
 62
               4
100
AcDbLine
 10
74225.641923820483
 20
91904.210418236529
 30
0.0
 11
74210.734750709773
 21
91859.489032056168
 31
0.0
  0
LINE
  5
243
100
AcDbEntity
  8
0
  6
Continuous
 62
               4
100
AcDbLine
 10
74266.658625080061
 20
92058.882847516303
 30
0.0
 11
74251.75145196935
 21
92014.161461335956
 31
0.0
  0
LINE
  5
244
100
AcDbEntity
  8
0
  6
Continuous
 62
               4
100
AcDbLine
 10
74212.992801881497
 20
91897.885857267029
 30
0.0
 11
74198.085628770787
 21
91853.164471086682
 31
0.0
  0
LINE
  5
245
100
AcDbEntity
  8
0
  6
Continuous
 62
               4
100
AcDbLine
 10
74254.009503141075
 20
92052.558286546817
 30
0.0
 11
74239.102330030364
 21
92007.836900366456
 31
0.0
  0
LINE
  5
246
100
AcDbEntity
  8
0
  6
Continuous
 62
               4
100
AcDbLine
 10
74200.343679942525
 20
91891.561296297543
 30
0.0
 11
74185.436506831815
 21
91846.839910117196
 31
0.0
  0
LINE
  5
247
100
AcDbEntity
  8
0
  6
Continuous
 62
               4
100
AcDbLine
 10
74241.360381202103
 20
92046.233725577316
 30
0.0
 11
74226.453208091392
 21
92001.51233939697
 31
0.0
  0
LINE
  5
248
100
AcDbEntity
  8
0
  6
Continuous
 62
               4
100
AcDbLine
 10
74187.694558003539
 20
91885.236735328057
 30
0.0
 11
74172.787384892828
 21
91840.515349147696
 31
0.0
  0
LINE
  5
249
100
AcDbEntity
  8
0
  6
Continuous
 62
               4
100
AcDbLine
 10
74228.711259263117
 20
92039.90916460783
 30
0.0
 11
74213.804086152406
 21
91995.187778427484
 31
0.0
  0
LINE
  5
24A
100
AcDbEntity
  8
0
  6
Continuous
 62
               4
100
AcDbLine
 10
74175.045436064553
 20
91878.912174358557
 30
0.0
 11
74160.138262953842
 21
91834.19078817821
 31
0.0
  0
LINE
  5
24B
100
AcDbEntity
  8
0
  6
Continuous
 62
               4
100
AcDbLine
 10
74216.06213732413
 20
92033.584603638345
 30
0.0
 11
74201.15496421342
 21
91988.863217457983
 31
0.0
  0
LINE
  5
24C
100
AcDbEntity
  8
0
  6
Continuous
 62
               4
100
AcDbLine
 10
74162.396314125581
 20
91872.587613389071
 30
0.0
 11
74147.489141014856
 21
91827.866227208709
 31
0.0
  0
LINE
  5
24D
100
AcDbEntity
  8
0
  6
Continuous
 62
               4
100
AcDbLine
 10
74203.413015385158
 20
92027.260042668844
 30
0.0
 11
74188.505842274448
 21
91982.538656488498
 31
0.0
  0
LINE
  5
24E
100
AcDbEntity
  8
0
  6
Continuous
 62
               4
100
AcDbLine
 10
74149.747192186594
 20
91866.263052419585
 30
0.0
 11
74134.840019075884
 21
91821.541666239224
 31
0.0
  0
LINE
  5
24F
100
AcDbEntity
  8
0
  6
Continuous
 62
               4
100
AcDbLine
 10
74190.763893446172
 20
92020.935481699358
 30
0.0
 11
74175.856720335461
 21
91976.214095518997
 31
0.0
  0
LINE
  5
250
100
AcDbEntity
  8
0
  6
Continuous
 62
               4
100
AcDbLine
 10
74137.098070247608
 20
91859.938491450084
 30
0.0
 11
74122.190897136898
 21
91815.217105269738
 31
0.0
  0
LINE
  5
251
100
AcDbEntity
  8
0
  6
Continuous
 62
               4
100
AcDbLine
 10
74178.114771507186
 20
92014.610920729872
 30
0.0
 11
74163.207598396475
 21
91969.889534549511
 31
0.0
  0
LINE
  5
252
100
AcDbEntity
  8
0
  6
Continuous
 62
               4
100
AcDbLine
 10
74124.448948308622
 20
91853.613930480598
 30
0.0
 11
74109.541775197911
 21
91808.892544300237
 31
0.0
  0
LINE
  5
253
100
AcDbEntity
  8
0
  6
Continuous
 62
               4
100
AcDbLine
 10
74165.465649568214
 20
92008.286359760372
 30
0.0
 11
74150.558476457503
 21
91963.564973580025
 31
0.0
  0
LINE
  5
254
100
AcDbEntity
  8
0
  6
Continuous
 62
               4
100
AcDbLine
 10
74111.79982636965
 20
91847.289369511098
 30
0.0
 11
74096.892653258939
 21
91802.567983330751
 31
0.0
  0
LINE
  5
255
100
AcDbEntity
  8
0
  6
Continuous
 62
               4
100
AcDbLine
 10
74152.816527629227
 20
92001.961798790886
 30
0.0
 11
74137.909354518517
 21
91957.240412610525
 31
0.0
  0
LINE
  5
256
100
AcDbEntity
  8
0
  6
Continuous
 62
               4
100
AcDbLine
 10
74099.150704430664
 20
91840.964808541612
 30
0.0
 11
74084.243531319953
 21
91796.243422361265
 31
0.0
  0
LINE
  5
257
100
AcDbEntity
  8
0
  6
Continuous
 62
               4
100
AcDbLine
 10
74140.167405690241
 20
91995.637237821385
 30
0.0
 11
74125.260232579531
 21
91950.915851641039
 31
0.0
  0
LINE
  5
258
100
AcDbEntity
  8
0
  6
Continuous
 62
               4
100
AcDbLine
 10
74086.501582491677
 20
91834.640247572126
 30
0.0
 11
74071.594409380967
 21
91789.918861391765
 31
0.0
  0
LINE
  5
259
100
AcDbEntity
  8
0
  6
Continuous
 62
               4
100
AcDbLine
 10
74127.518283751269
 20
91989.3126768519
 30
0.0
 11
74112.611110640544
 21
91944.591290671553
 31
0.0
  0
LINE
  5
25A
100
AcDbEntity
  8
0
  6
Continuous
 62
               4
100
AcDbLine
 10
74073.852460552705
 20
91828.315686602626
 30
0.0
 11
74058.945287441995
 21
91783.594300422279
 31
0.0
  0
LINE
  5
25B
100
AcDbEntity
  8
0
  6
Continuous
 62
               4
100
AcDbLine
 10
74114.869161812283
 20
91982.988115882414
 30
0.0
 11
74099.961988701572
 21
91938.266729702053
 31
0.0
  0
LINE
  5
25C
100
AcDbEntity
  8
0
  6
Continuous
 62
               4
100
AcDbLine
 10
74061.203338613719
 20
91821.99112563314
 30
0.0
 11
74046.296165503009
 21
91777.269739452793
 31
0.0
  0
LINE
  5
25D
100
AcDbEntity
  8
0
  6
Continuous
 62
               4
100
AcDbLine
 10
74102.220039873297
 20
91976.663554912913
 30
0.0
 11
74087.312866762586
 21
91931.942168732567
 31
0.0
  0
LINE
  5
25E
100
AcDbEntity
  8
0
  6
Continuous
 62
               4
100
AcDbLine
 10
74048.554216674733
 20
91815.666564663654
 30
0.0
 11
74033.647043564022
 21
91770.945178483293
 31
0.0
  0
LINE
  5
25F
100
AcDbEntity
  8
0
  6
Continuous
 62
               4
100
AcDbLine
 10
74089.57091793431
 20
91970.338993943427
 30
0.0
 11
74074.6637448236
 21
91925.617607763081
 31
0.0
  0
LINE
  5
260
100
AcDbEntity
  8
0
  6
Continuous
 62
               4
100
AcDbLine
 10
74035.905094735761
 20
91809.342003694153
 30
0.0
 11
74020.997921625036
 21
91764.620617513807
 31
0.0
  0
LINE
  5
261
100
AcDbEntity
  8
0
  6
Continuous
 62
               4
100
AcDbLine
 10
74076.921795995338
 20
91964.014432973941
 30
0.0
 11
74062.014622884628
 21
91919.29304679358
 31
0.0
  0
LINE
  5
262
100
AcDbEntity
  8
0
  6
Continuous
 62
               4
100
AcDbLine
 10
74023.255972796775
 20
91803.017442724667
 30
0.0
 11
74014.640444653531
 21
91777.170935249378
 31
0.0
  0
LINE
  5
263
100
AcDbEntity
  8
0
  6
Continuous
 62
               4
100
AcDbLine
 10
74064.272674056352
 20
91957.689872004441
 30
0.0
 11
74049.365500945642
 21
91912.968485824094
 31
0.0
  0
LINE
  5
264
100
AcDbEntity
  8
0
  6
Continuous
 62
               4
100
AcDbLine
 10
74010.606850857788
 20
91796.692881755182
 30
0.0
 11
74008.315894982341
 21
91789.820034591772
 31
0.0
  0
LINE
  5
265
100
AcDbEntity
  8
0
  6
Continuous
 62
               4
100
AcDbLine
 10
74051.623552117366
 20
91951.365311034955
 30
0.0
 11
74036.716379006655
 21
91906.643924854608
 31
0.0
  0
LINE
  5
266
100
AcDbEntity
  8
0
  6
Continuous
 62
               4
100
AcDbLine
 10
74038.974430178394
 20
91945.040750065469
 30
0.0
 11
74024.067257067683
 21
91900.319363885108
 31
0.0
  0
LINE
  5
267
100
AcDbEntity
  8
0
  6
Continuous
 62
               4
100
AcDbLine
 10
74026.325308239408
 20
91938.716189095969
 30
0.0
 11
74011.418135128697
 21
91893.994802915622
 31
0.0
  0
LINE
  5
268
100
AcDbEntity
  8
0
  6
Continuous
 62
               4
100
AcDbLine
 10
73908.857012082852
 20
91745.817962367713
 30
0.0
 11
73893.949838972141
 21
91701.096576187367
 31
0.0
  0
LINE
  5
269
100
AcDbEntity
  8
0
  6
Continuous
 62
               4
100
AcDbLine
 10
74013.676186300421
 20
91932.391628126483
 30
0.0
 11
73998.769013189711
 21
91887.670241946122
 31
0.0
  0
LINE
  5
26A
100
AcDbEntity
  8
0
  6
Continuous
 62
               4
100
AcDbLine
 10
73896.207890143865
 20
91739.493401398227
 30
0.0
 11
73881.300717033155
 21
91694.772015217866
 31
0.0
  0
LINE
  5
26B
100
AcDbEntity
  8
0
  6
Continuous
 62
               4
100
AcDbLine
 10
74001.027064361435
 20
91926.067067156982
 30
0.0
 11
73986.119891250724
 21
91881.345680976636
 31
0.0
  0
LINE
  5
26C
100
AcDbEntity
  8
0
  6
Continuous
 62
               4
100
AcDbLine
 10
73883.558768204894
 20
91733.168840428727
 30
0.0
 11
73868.651595094183
 21
91688.44745424838
 31
0.0
  0
LINE
  5
26D
100
AcDbEntity
  8
0
  6
Continuous
 62
               4
100
AcDbLine
 10
73988.377942422463
 20
91919.742506187496
 30
0.0
 11
73973.470769311753
 21
91875.02112000715
 31
0.0
  0
LINE
  5
26E
100
AcDbEntity
  8
0
  6
Continuous
 62
               4
100
AcDbLine
 10
73870.909646265907
 20
91726.844279459241
 30
0.0
 11
73856.002473155197
 21
91682.12289327888
 31
0.0
  0
LINE
  5
26F
100
AcDbEntity
  8
0
  6
Continuous
 62
               4
100
AcDbLine
 10
73975.728820483477
 20
91913.417945218011
 30
0.0
 11
73964.044047283955
 21
91878.36372998853
 31
0.0
  0
LINE
  5
270
100
AcDbEntity
  8
0
  6
Continuous
 62
               4
100
AcDbLine
 10
73858.260524326921
 20
91720.519718489755
 30
0.0
 11
73843.35335121621
 21
91675.798332309394
 31
0.0
  0
LINE
  5
271
100
AcDbEntity
  8
0
  6
Continuous
 62
               4
100
AcDbLine
 10
73963.07969854449
 20
91907.09338424851
 30
0.0
 11
73957.71949761275
 21
91891.012829330924
 31
0.0
  0
LINE
  5
272
100
AcDbEntity
  8
0
  6
Continuous
 62
               4
100
AcDbLine
 10
73845.611402387949
 20
91714.195157520255
 30
0.0
 11
73830.704229277224
 21
91669.473771339908
 31
0.0
  0
LINE
  5
273
100
AcDbEntity
  8
0
  6
Continuous
 62
               4
100
AcDbLine
 10
73832.962280448963
 20
91707.870596550769
 30
0.0
 11
73818.055107338252
 21
91663.149210370408
 31
0.0
  0
LINE
  5
274
100
AcDbEntity
  8
0
  6
Continuous
 62
               4
100
AcDbLine
 10
73820.313158509976
 20
91701.546035581268
 30
0.0
 11
73805.405985399266
 21
91656.824649400922
 31
0.0
  0
LINE
  5
275
100
AcDbEntity
  8
0
  6
Continuous
 62
               4
100
AcDbLine
 10
73807.66403657099
 20
91695.221474611782
 30
0.0
 11
73792.756863460279
 21
91650.500088431436
 31
0.0
  0
LINE
  5
276
100
AcDbEntity
  8
0
  6
Continuous
 62
               4
100
AcDbLine
 10
73848.680737830582
 20
91849.893903891556
 30
0.0
 11
73833.773564719872
 21
91805.172517711209
 31
0.0
  0
LINE
  5
277
100
AcDbEntity
  8
0
  6
Continuous
 62
               4
100
AcDbLine
 10
73795.014914632018
 20
91688.896913642297
 30
0.0
 11
73780.107741521308
 21
91644.175527461935
 31
0.0
  0
LINE
  5
278
100
AcDbEntity
  8
0
  6
Continuous
 62
               4
100
AcDbLine
 10
73836.031615891596
 20
91843.56934292207
 30
0.0
 11
73821.124442780885
 21
91798.847956741723
 31
0.0
  0
LINE
  5
279
100
AcDbEntity
  8
0
  6
Continuous
 62
               4
100
AcDbLine
 10
73782.365792693032
 20
91682.572352672796
 30
0.0
 11
73767.458619582321
 21
91637.85096649245
 31
0.0
  0
LINE
  5
27A
100
AcDbEntity
  8
0
  6
Continuous
 62
               4
100
AcDbLine
 10
73823.382493952609
 20
91837.244781952584
 30
0.0
 11
73808.475320841899
 21
91792.523395772223
 31
0.0
  0
LINE
  5
27B
100
AcDbEntity
  8
0
  6
Continuous
 62
               4
100
AcDbLine
 10
73769.716670754045
 20
91676.24779170331
 30
0.0
 11
73754.809497643335
 21
91631.526405522964
 31
0.0
  0
LINE
  5
27C
100
AcDbEntity
  8
0
  6
Continuous
 62
               4
100
AcDbLine
 10
73810.733372013638
 20
91830.920220983084
 30
0.0
 11
73795.826198902912
 21
91786.198834802737
 31
0.0
  0
LINE
  5
27D
100
AcDbEntity
  8
0
  6
Continuous
 62
               4
100
AcDbLine
 10
73757.067548815074
 20
91669.923230733824
 30
0.0
 11
73742.160375704363
 21
91625.201844553463
 31
0.0
  0
LINE
  5
27E
100
AcDbEntity
  8
0
  6
Continuous
 62
               4
100
AcDbLine
 10
73798.084250074651
 20
91824.595660013598
 30
0.0
 11
73783.177076963941
 21
91779.874273833251
 31
0.0
  0
LINE
  5
27F
100
AcDbEntity
  8
0
  6
Continuous
 62
               4
100
AcDbLine
 10
73744.418426876087
 20
91663.598669764324
 30
0.0
 11
73729.511253765377
 21
91618.877283583977
 31
0.0
  0
LINE
  5
280
100
AcDbEntity
  8
0
  6
Continuous
 62
               4
100
AcDbLine
 10
73785.435128135665
 20
91818.271099044112
 30
0.0
 11
73770.527955024954
 21
91773.549712863751
 31
0.0
  0
LINE
  5
281
100
AcDbEntity
  8
0
  6
Continuous
 62
               4
100
AcDbLine
 10
73731.769304937101
 20
91657.274108794838
 30
0.0
 11
73716.86213182639
 21
91612.552722614491
 31
0.0
  0
LINE
  5
282
100
AcDbEntity
  8
0
  6
Continuous
 62
               4
100
AcDbLine
 10
73772.786006196678
 20
91811.946538074611
 30
0.0
 11
73757.878833085968
 21
91767.225151894265
 31
0.0
  0
LINE
  5
283
100
AcDbEntity
  8
0
  6
Continuous
 62
               4
100
AcDbLine
 10
73719.120182998129
 20
91650.949547825352
 30
0.0
 11
73704.213009887404
 21
91606.228161644991
 31
0.0
  0
LINE
  5
284
100
AcDbEntity
  8
0
  6
Continuous
 62
               4
100
AcDbLine
 10
73760.136884257707
 20
91805.621977105126
 30
0.0
 11
73745.229711146996
 21
91760.900590924779
 31
0.0
  0
LINE
  5
285
100
AcDbEntity
  8
0
  6
Continuous
 62
               4
100
AcDbLine
 10
73706.471061059143
 20
91644.624986855852
 30
0.0
 11
73691.563887948432
 21
91599.903600675505
 31
0.0
  0
LINE
  5
286
100
AcDbEntity
  8
0
  6
Continuous
 62
               4
100
AcDbLine
 10
73747.48776231872
 20
91799.29741613564
 30
0.0
 11
73732.58058920801
 21
91754.576029955278
 31
0.0
  0
LINE
  5
287
100
AcDbEntity
  8
0
  6
Continuous
 62
               4
100
AcDbLine
 10
73693.821939120156
 20
91638.300425886366
 30
0.0
 11
73678.914766009446
 21
91593.579039706019
 31
0.0
  0
LINE
  5
288
100
AcDbEntity
  8
0
  6
Continuous
 62
               4
100
AcDbLine
 10
73734.838640379734
 20
91792.972855166139
 30
0.0
 11
73719.931467269023
 21
91748.251468985793
 31
0.0
  0
LINE
  5
289
100
AcDbEntity
  8
0
  6
Continuous
 62
               4
100
AcDbLine
 10
73681.172817181185
 20
91631.97586491688
 30
0.0
 11
73666.26564407046
 21
91587.254478736519
 31
0.0
  0
LINE
  5
28A
100
AcDbEntity
  8
0
  6
Continuous
 62
               4
100
AcDbLine
 10
73722.189518440762
 20
91786.648294196653
 30
0.0
 11
73707.282345330052
 21
91741.926908016307
 31
0.0
  0
LINE
  5
28B
100
AcDbEntity
  8
0
  6
Continuous
 62
               4
100
AcDbLine
 10
73668.523695242198
 20
91625.651303947379
 30
0.0
 11
73653.616522131488
 21
91580.929917767033
 31
0.0
  0
LINE
  5
28C
100
AcDbEntity
  8
0
  6
Continuous
 62
               4
100
AcDbLine
 10
73709.540396501776
 20
91780.323733227167
 30
0.0
 11
73694.633223391065
 21
91735.602347046806
 31
0.0
  0
LINE
  5
28D
100
AcDbEntity
  8
0
  6
Continuous
 62
               4
100
AcDbLine
 10
73655.874573303212
 20
91619.326742977893
 30
0.0
 11
73640.967400192501
 21
91574.605356797547
 31
0.0
  0
LINE
  5
28E
100
AcDbEntity
  8
0
  6
Continuous
 62
               4
100
AcDbLine
 10
73696.891274562789
 20
91773.999172257667
 30
0.0
 11
73681.984101452079
 21
91729.27778607732
 31
0.0
  0
LINE
  5
28F
100
AcDbEntity
  8
0
  6
Continuous
 62
               4
100
AcDbLine
 10
73643.225451364226
 20
91613.002182008408
 30
0.0
 11
73628.318278253515
 21
91568.280795828046
 31
0.0
  0
LINE
  5
290
100
AcDbEntity
  8
0
  6
Continuous
 62
               4
100
AcDbLine
 10
73684.242152623818
 20
91767.674611288181
 30
0.0
 11
73669.334979513093
 21
91722.95322510782
 31
0.0
  0
LINE
  5
291
100
AcDbEntity
  8
0
  6
Continuous
 62
               4
100
AcDbLine
 10
73630.576329425254
 20
91606.677621038907
 30
0.0
 11
73615.669156314543
 21
91561.95623485856
 31
0.0
  0
LINE
  5
292
100
AcDbEntity
  8
0
  6
Continuous
 62
               4
100
AcDbLine
 10
73671.593030684831
 20
91761.350050318681
 30
0.0
 11
73656.685857574121
 21
91716.628664138334
 31
0.0
  0
LINE
  5
293
100
AcDbEntity
  8
0
  6
Continuous
 62
               4
100
AcDbLine
 10
73617.927207486267
 20
91600.353060069421
 30
0.0
 11
73603.020034375557
 21
91555.63167388906
 31
0.0
  0
LINE
  5
294
100
AcDbEntity
  8
0
  6
Continuous
 62
               4
100
AcDbLine
 10
73658.943908745845
 20
91755.025489349195
 30
0.0
 11
73644.036735635134
 21
91710.304103168848
 31
0.0
  0
LINE
  5
295
100
AcDbEntity
  8
0
  6
Continuous
 62
               4
100
AcDbLine
 10
73605.278085547281
 20
91594.028499099935
 30
0.0
 11
73590.370912436571
 21
91549.307112919574
 31
0.0
  0
LINE
  5
296
100
AcDbEntity
  8
0
  6
Continuous
 62
               4
100
AcDbLine
 10
73646.294786806859
 20
91748.700928379709
 30
0.0
 11
73631.387613696148
 21
91703.979542199348
 31
0.0
  0
LINE
  5
297
100
AcDbEntity
  8
0
  6
Continuous
 62
               4
100
AcDbLine
 10
73592.628963608309
 20
91587.703938130435
 30
0.0
 11
73577.721790497599
 21
91542.982551950088
 31
0.0
  0
LINE
  5
298
100
AcDbEntity
  8
0
  6
Continuous
 62
               4
100
AcDbLine
 10
73633.645664867887
 20
91742.376367410208
 30
0.0
 11
73618.738491757176
 21
91697.654981229862
 31
0.0
  0
LINE
  5
299
100
AcDbEntity
  8
0
  6
Continuous
 62
               4
100
AcDbLine
 10
73579.979841669323
 20
91581.379377160949
 30
0.0
 11
73565.072668558612
 21
91536.657990980588
 31
0.0
  0
LINE
  5
29A
100
AcDbEntity
  8
0
  6
Continuous
 62
               4
100
AcDbLine
 10
73620.9965429289
 20
91736.051806440722
 30
0.0
 11
73606.08936981819
 21
91691.330420260376
 31
0.0
  0
LINE
  5
29B
100
AcDbEntity
  8
0
  6
Continuous
 62
               4
100
AcDbLine
 10
73567.330719730337
 20
91575.054816191448
 30
0.0
 11
73552.423546619626
 21
91530.333430011102
 31
0.0
  0
LINE
  5
29C
100
AcDbEntity
  8
0
  6
Continuous
 62
               4
100
AcDbLine
 10
73608.347420989914
 20
91729.727245471237
 30
0.0
 11
73593.440247879204
 21
91685.005859290875
 31
0.0
  0
LINE
  5
29D
100
AcDbEntity
  8
0
  6
Continuous
 62
               4
100
AcDbLine
 10
73554.68159779135
 20
91568.730255221963
 30
0.0
 11
73539.77442468064
 21
91524.008869041616
 31
0.0
  0
LINE
  5
29E
100
AcDbEntity
  8
0
  6
Continuous
 62
               4
100
AcDbLine
 10
73595.698299050942
 20
91723.402684501736
 30
0.0
 11
73580.791125940232
 21
91678.681298321389
 31
0.0
  0
LINE
  5
29F
100
AcDbEntity
  8
0
  6
Continuous
 62
               4
100
AcDbLine
 10
73542.032475852378
 20
91562.405694252477
 30
0.0
 11
73527.125302741668
 21
91517.684308072116
 31
0.0
  0
LINE
  5
2A0
100
AcDbEntity
  8
0
  6
Continuous
 62
               4
100
AcDbLine
 10
73583.049177111956
 20
91717.07812353225
 30
0.0
 11
73568.142004001245
 21
91672.356737351904
 31
0.0
  0
LINE
  5
2A1
100
AcDbEntity
  8
0
  6
Continuous
 62
               4
100
AcDbLine
 10
73529.383353913392
 20
91556.081133282976
 30
0.0
 11
73514.476180802681
 21
91511.35974710263
 31
0.0
  0
LINE
  5
2A2
100
AcDbEntity
  8
0
  6
Continuous
 62
               4
100
AcDbLine
 10
73570.40005517297
 20
91710.753562562764
 30
0.0
 11
73555.492882062259
 21
91666.032176382403
 31
0.0
  0
LINE
  5
2A3
100
AcDbEntity
  8
0
  6
Continuous
 62
               4
100
AcDbLine
 10
73516.734231974406
 20
91549.75657231349
 30
0.0
 11
73501.827058863695
 21
91505.035186133144
 31
0.0
  0
LINE
  5
2A4
100
AcDbEntity
  8
0
  6
Continuous
 62
               4
100
AcDbLine
 10
73557.750933233998
 20
91704.429001593264
 30
0.0
 11
73542.843760123273
 21
91659.707615412917
 31
0.0
  0
LINE
  5
2A5
100
AcDbEntity
  8
0
  6
Continuous
 62
               4
100
AcDbLine
 10
73504.085110035434
 20
91543.432011344004
 30
0.0
 11
73489.177936924723
 21
91498.710625163643
 31
0.0
  0
LINE
  5
2A6
100
AcDbEntity
  8
0
  6
Continuous
 62
               4
100
AcDbLine
 10
73545.101811295011
 20
91698.104440623778
 30
0.0
 11
73530.194638184301
 21
91653.383054443431
 31
0.0
  0
LINE
  5
2A7
100
AcDbEntity
  8
0
  6
Continuous
 62
               4
100
AcDbLine
 10
73491.435988096448
 20
91537.107450374504
 30
0.0
 11
73476.528814985737
 21
91492.386064194157
 31
0.0
  0
LINE
  5
2A8
100
AcDbEntity
  8
0
  6
Continuous
 62
               4
100
AcDbLine
 10
73532.452689356025
 20
91691.779879654292
 30
0.0
 11
73517.545516245315
 21
91647.058493473931
 31
0.0
  0
LINE
  5
2A9
100
AcDbEntity
  8
0
  6
Continuous
 62
               4
100
AcDbLine
 10
73478.786866157461
 20
91530.782889405018
 30
0.0
 11
73463.879693046751
 21
91486.061503224671
 31
0.0
  0
LINE
  5
2AA
100
AcDbEntity
  8
0
  6
Continuous
 62
               4
100
AcDbLine
 10
73519.803567417039
 20
91685.455318684792
 30
0.0
 11
73504.896394306328
 21
91640.733932504445
 31
0.0
  0
LINE
  5
2AB
100
AcDbEntity
  8
0
  6
Continuous
 62
               4
100
AcDbLine
 10
73466.137744218489
 20
91524.458328435532
 30
0.0
 11
73451.230571107779
 21
91479.736942255171
 31
0.0
  0
LINE
  5
2AC
100
AcDbEntity
  8
0
  6
Continuous
 62
               4
100
AcDbLine
 10
73507.154445478067
 20
91679.130757715306
 30
0.0
 11
73492.247272367356
 21
91634.409371534959
 31
0.0
  0
LINE
  5
2AD
100
AcDbEntity
  8
0
  6
Continuous
 62
               4
100
AcDbLine
 10
73453.488622279503
 20
91518.133767466032
 30
0.0
 11
73438.581449168792
 21
91473.412381285685
 31
0.0
  0
LINE
  5
2AE
100
AcDbEntity
  8
0
  6
Continuous
 62
               4
100
AcDbLine
 10
73494.505323539081
 20
91672.80619674582
 30
0.0
 11
73479.59815042837
 21
91628.084810565459
 31
0.0
  0
LINE
  5
2AF
100
AcDbEntity
  8
0
  6
Continuous
 62
               4
100
AcDbLine
 10
73440.839500340517
 20
91511.809206496546
 30
0.0
 11
73425.932327229806
 21
91467.087820316199
 31
0.0
  0
LINE
  5
2B0
100
AcDbEntity
  8
0
  6
Continuous
 62
               4
100
AcDbLine
 10
73481.856201600094
 20
91666.481635776319
 30
0.0
 11
73466.949028489384
 21
91621.760249595973
 31
0.0
  0
LINE
  5
2B1
100
AcDbEntity
  8
0
  6
Continuous
 62
               4
100
AcDbLine
 10
73428.190378401545
 20
91505.48464552706
 30
0.0
 11
73413.28320529082
 21
91460.763259346699
 31
0.0
  0
LINE
  5
2B2
100
AcDbEntity
  8
0
  6
Continuous
 62
               4
100
AcDbLine
 10
73469.207079661122
 20
91660.157074806833
 30
0.0
 11
73454.299906550412
 21
91615.435688626472
 31
0.0
  0
LINE
  5
2B3
100
AcDbEntity
  8
0
  6
Continuous
 62
               4
100
AcDbLine
 10
73418.603558287869
 20
91508.346962680807
 30
0.0
 11
73403.696411807556
 21
91463.625656391436
 31
0.0
  0
LINE
  5
2B4
100
AcDbEntity
  8
0
  6
Continuous
 62
               4
100
AcDbLine
 10
73456.557957722136
 20
91653.832513837348
 30
0.0
 11
73441.650784611425
 21
91609.111127656986
 31
0.0
  0
LINE
  5
2B5
100
AcDbEntity
  8
0
  6
Continuous
 62
               4
100
AcDbLine
 10
73412.279008616664
 20
91520.996062023216
 30
0.0
 11
73397.371862136351
 21
91476.27475573383
 31
0.0
  0
LINE
  5
2B6
100
AcDbEntity
  8
0
  6
Continuous
 62
               4
100
AcDbLine
 10
73443.90883578315
 20
91647.507952867847
 30
0.0
 11
73429.001662672439
 21
91602.7865666875
 31
0.0
  0
LINE
  5
2B7
100
AcDbEntity
  8
0
  6
Continuous
 62
               4
100
AcDbLine
 10
73405.95445894546
 20
91533.64516136561
 30
0.0
 11
73391.047312465162
 21
91488.923855076224
 31
0.0
  0
LINE
  5
2B8
100
AcDbEntity
  8
0
  6
Continuous
 62
               4
100
AcDbLine
 10
73431.259713844178
 20
91641.183391898361
 30
0.0
 11
73416.352540733467
 21
91596.462005718
 31
0.0
  0
LINE
  5
2B9
100
AcDbEntity
  8
0
  6
Continuous
 62
               4
100
AcDbLine
 10
73399.62990927427
 20
91546.294260708004
 30
0.0
 11
73384.722762793957
 21
91501.572954418618
 31
0.0
  0
LINE
  5
2BA
100
AcDbEntity
  8
0
  6
Continuous
 62
               4
100
AcDbLine
 10
73418.610591905192
 20
91634.858830928861
 30
0.0
 11
73403.703418794481
 21
91590.137444748514
 31
0.0
  0
LINE
  5
2BB
100
AcDbEntity
  8
0
  6
Continuous
 62
               4
100
AcDbLine
 10
73393.305359603066
 20
91558.943360050398
 30
0.0
 11
73378.398213122768
 21
91514.222053761012
 31
0.0
  0
LINE
  5
2BC
100
AcDbEntity
  8
0
  6
Continuous
 62
               4
100
AcDbLine
 10
73405.961469966205
 20
91628.534269959375
 30
0.0
 11
73391.054296855495
 21
91583.812883779028
 31
0.0
  0
LINE
  5
2BD
100
AcDbEntity
  8
0
  6
Continuous
 62
               4
100
AcDbLine
 10
73386.980809931876
 20
91571.592459392792
 30
0.0
 11
73372.073663451563
 21
91526.871153103406
 31
0.0
  0
LINE
  5
2BE
100
AcDbEntity
  8
0
  6
Continuous
 62
               4
100
AcDbLine
 10
73393.312348027233
 20
91622.209708989889
 30
0.0
 11
73365.749113780374
 21
91539.520252445815
 31
0.0
  0
LINE
  5
2BF
100
AcDbEntity
  8
0
  6
Continuous
 62
               4
100
AcDbLine
 10
73380.663226088247
 20
91615.885148020388
 30
0.0
 11
73359.424564109169
 21
91552.169351788209
 31
0.0
  0
LINE
  5
2C0
100
AcDbEntity
  8
0
  6
Continuous
 62
               4
100
AcDbLine
 10
73368.014104149261
 20
91609.560587050903
 30
0.0
 11
73353.10001443798
 21
91564.818451130603
 31
0.0
  0
LINE
  5
2C1
100
AcDbEntity
  8
0
  6
Continuous
 62
               4
100
AcDbLine
 10
73355.364982210274
 20
91603.236026081417
 30
0.0
 11
73346.775464766775
 21
91577.467550472997
 31
0.0
  0
LINE
  5
2C2
100
AcDbEntity
  8
0
  6
Continuous
 62
               4
100
AcDbLine
 10
73344.929961032787
 20
91571.931055755165
 30
0.0
 11
73341.948526410633
 21
91562.986778519087
 31
0.0
  0
LINE
  5
2C3
100
AcDbEntity
  8
0
  6
Continuous
 62
               4
100
AcDbLine
 10
73342.715860271303
 20
91596.911465111916
 30
0.0
 11
73340.450915095571
 21
91590.116649815391
 31
0.0
  0
LINE
  5
2C4
100
AcDbEntity
  8
0
  6
Continuous
 62
               4
100
AcDbLine
 10
73335.97877115148
 20
91576.700257928576
 30
0.0
 11
73332.997341855429
 21
91567.755996670705
 31
0.0
  0
LINE
  5
2C5
100
AcDbEntity
  8
0
  6
Continuous
 62
               4
100
AcDbLine
 10
74463.673526687024
 20
91985.958420044801
 30
0.0
 11
74444.389898396417
 21
92008.93975333836
 31
0.0
  0
LINE
  5
2C6
100
AcDbEntity
  8
0
  6
Continuous
 62
               4
100
AcDbLine
 10
74463.673526687024
 20
91985.958420044801
 30
0.0
 11
74453.412922387244
 21
92014.149198668369
 31
0.0
  0
LINE
  5
2C7
100
AcDbEntity
  8
0
  6
DASHED
 62
               6
100
AcDbLine
 10
73003.503632232008
 20
91135.1258020323
 30
0.0
 11
72992.125936493103
 21
91138.918378570437
 31
0.0
  0
LINE
  5
2C8
100
AcDbEntity
  8
0
  6
DASHED
 62
               6
100
AcDbLine
 10
73028.801830916796
 20
91147.774901374694
 30
0.0
 11
72979.476814554117
 21
91164.21662244841
 31
0.0
  0
LINE
  5
2C9
100
AcDbEntity
  8
0
  6
DASHED
 62
               6
100
AcDbLine
 10
73054.100029601585
 20
91160.424000717088
 30
0.0
 11
72966.82769261513
 21
91189.514866326368
 31
0.0
  0
LINE
  5
2CA
100
AcDbEntity
  8
0
  6
DASHED
 62
               6
100
AcDbLine
 10
73079.398228286373
 20
91173.073100059482
 30
0.0
 11
72954.178570676158
 21
91214.813110204341
 31
0.0
  0
LINE
  5
2CB
100
AcDbEntity
  8
0
  6
DASHED
 62
               6
100
AcDbLine
 10
73075.693607278226
 20
91195.389834750167
 30
0.0
 11
72970.532508103075
 21
91230.443638842786
 31
0.0
  0
LINE
  5
2CC
100
AcDbEntity
  8
0
  6
DASHED
 62
               6
100
AcDbLine
 10
73063.044485339255
 20
91220.688078628125
 30
0.0
 11
72995.830706787863
 21
91243.092738185194
 31
0.0
  0
LINE
  5
2CD
100
AcDbEntity
  8
0
  6
DASHED
 62
               6
100
AcDbLine
 10
73050.395363400268
 20
91245.986322506098
 30
0.0
 11
73021.128905472651
 21
91255.741837527588
 31
0.0
  0
LINE
  5
2CE
100
AcDbEntity
  8
0
  6
Continuous
 62
               4
100
AcDbLine
 10
73321.490003780113
 20
91590.770672821323
 30
0.0
 11
73302.206375489521
 21
91613.752006114897
 31
0.0
  0
LINE
  5
2CF
100
AcDbEntity
  8
0
  6
Continuous
 62
               4
100
AcDbLine
 10
73321.490003780113
 20
91590.770672821323
 30
0.0
 11
73311.229399480348
 21
91618.961451444906
 31
0.0
  0
LINE
  5
2D0
100
AcDbEntity
  8
0
  6
Continuous
 62
               4
100
AcDbLine
 10
74494.227748458143
 20
91299.216297927545
 30
0.0
 11
74759.418485150207
 21
91299.216297927545
 31
0.0
  0
LINE
  5
2D1
100
AcDbEntity
  8
0
  6
Continuous
 62
               3
100
AcDbLine
 10
75294.596387125945
 20
91826.005024054321
 30
0.0
 11
74251.097997626028
 21
91304.255829304369
 31
0.0
  0
LINE
  5
2D2
100
AcDbEntity
  8
0
  6
Continuous
 62
               3
100
AcDbLine
 10
74191.469518226048
 20
91274.441589604365
 30
0.0
 11
73428.224981906096
 21
90892.819321444389
 31
0.0
  0
LINE
  5
2D3
100
AcDbEntity
  8
0
  6
Continuous
 62
               3
100
AcDbLine
 10
73493.816309246089
 20
90925.614985114385
 30
0.0
 11
73516.1769890211
 21
90880.893625564393
 31
0.0
  0
LINE
  5
2D4
100
AcDbEntity
  8
0
  6
Continuous
 62
               6
100
AcDbLine
 10
73450.585661681092
 20
90848.097961894397
 30
0.0
 11
73493.816309246089
 21
90925.614985114385
 31
0.0
  0
LINE
  5
2D5
100
AcDbEntity
  8
0
  6
Continuous
 62
               4
100
AcDbLine
 10
72606.404209612752
 20
90872.538688904606
 30
0.0
 11
72480.179221744271
 21
91091.166781077569
 31
0.0
  0
LINE
  5
2D6
100
AcDbEntity
  8
0
  6
Continuous
 62
               4
100
AcDbLine
 10
72480.179221744271
 20
91091.166781077569
 30
0.0
 11
72193.739201600591
 21
91091.166781077569
 31
0.0
  0
LINE
  5
2D7
100
AcDbEntity
  8
0
  6
Continuous
 62
               4
100
AcDbLine
 10
72606.404209612752
 20
90872.538688904606
 30
0.0
 11
72587.12058132216
 21
90895.520022198165
 31
0.0
  0
LINE
  5
2D8
100
AcDbEntity
  8
0
  6
Continuous
 62
               4
100
AcDbLine
 10
72606.404209612752
 20
90872.538688904606
 30
0.0
 11
72596.143605312987
 21
90900.729467528174
 31
0.0
  0
LINE
  5
2D9
100
AcDbEntity
  8
0
  6
DIVIDE
 62
               7
100
AcDbLine
 10
72750.591638210433
 20
90595.709521678931
 30
0.0
 11
73157.25830487709
 21
90595.709521678931
 31
0.0
  0
LINE
  5
2DA
100
AcDbEntity
  8
0
  6
DIVIDE
 62
               7
100
AcDbLine
 10
73157.25830487709
 20
90597.709488345601
 30
0.0
 11
72750.591638210433
 21
90597.709488345601
 31
0.0
  0
LINE
  5
2DB
100
AcDbEntity
  8
0
  6
DIVIDE
 62
               7
100
AcDbLine
 10
73161.924971543762
 20
90897.375988345608
 30
0.0
 11
73163.924638210432
 21
90897.375988345608
 31
0.0
  0
LINE
  5
2DC
100
AcDbEntity
  8
0
  6
DIVIDE
 62
               7
100
AcDbLine
 10
73199.257971543761
 20
90868.709321678936
 30
0.0
 11
73199.257971543761
 21
90926.042655012265
 31
0.0
  0
LINE
  5
2DD
100
AcDbEntity
  8
0
  6
DIVIDE
 62
               7
100
AcDbLine
 10
73197.25830487709
 20
90868.709321678936
 30
0.0
 11
73197.25830487709
 21
90926.042655012265
 31
0.0
  0
LINE
  5
2DE
100
AcDbEntity
  8
0
  6
DIVIDE
 62
               7
100
AcDbLine
 10
73163.924638210432
 20
90926.042655012265
 30
0.0
 11
73163.924638210432
 21
90897.375988345608
 31
0.0
  0
LINE
  5
2DF
100
AcDbEntity
  8
0
  6
DIVIDE
 62
               7
100
AcDbLine
 10
73192.591638210433
 20
90932.709321678936
 30
0.0
 11
73168.591304877089
 21
90932.709321678936
 31
0.0
  0
LINE
  5
2E0
100
AcDbEntity
  8
0
  6
DIVIDE
 62
               7
100
AcDbLine
 10
73192.591638210433
 20
90862.042321678935
 30
0.0
 11
73168.591304877089
 21
90862.042321678935
 31
0.0
  0
LINE
  5
2E1
100
AcDbEntity
  8
0
  6
DIVIDE
 62
               7
100
AcDbLine
 10
73163.924638210432
 20
90602.376088345598
 30
0.0
 11
73163.924638210432
 21
90857.375988345608
 31
0.0
  0
LINE
  5
2E2
100
AcDbEntity
  8
0
  6
DIVIDE
 62
               7
100
AcDbLine
 10
73161.924971543762
 20
90926.042655012265
 30
0.0
 11
73161.924971543762
 21
90897.375988345608
 31
0.0
  0
LINE
  5
2E3
100
AcDbEntity
  8
0
  6
DIVIDE
 62
               7
100
AcDbLine
 10
73192.591638210433
 20
90930.709321678936
 30
0.0
 11
73168.591304877089
 21
90930.709321678936
 31
0.0
  0
LINE
  5
2E4
100
AcDbEntity
  8
0
  6
DIVIDE
 62
               7
100
AcDbLine
 10
73192.591638210433
 20
90864.042655012265
 30
0.0
 11
73168.591304877089
 21
90864.042655012265
 31
0.0
  0
LINE
  5
2E5
100
AcDbEntity
  8
0
  6
DIVIDE
 62
               7
100
AcDbLine
 10
73161.924971543762
 20
90602.376088345598
 30
0.0
 11
73161.924971543762
 21
90857.375988345608
 31
0.0
  0
LINE
  5
2E6
100
AcDbEntity
  8
0
  6
DIVIDE
 62
               7
100
AcDbLine
 10
72660.024638210423
 20
90980.375988345608
 30
0.0
 11
72703.144971543763
 21
90980.375988345608
 31
0.0
  0
LINE
  5
2E7
100
AcDbEntity
  8
0
  6
DIVIDE
 62
               7
100
AcDbLine
 10
72707.81130487709
 20
90975.709321678936
 30
0.0
 11
72707.81130487709
 21
90947.042655012265
 31
0.0
  0
LINE
  5
2E8
100
AcDbEntity
  8
0
  6
DIVIDE
 62
               7
100
AcDbLine
 10
72707.81130487709
 20
90947.042655012265
 30
0.0
 11
72709.81130487709
 21
90947.042655012265
 31
0.0
  0
LINE
  5
2E9
100
AcDbEntity
  8
0
  6
DIVIDE
 62
               7
100
AcDbLine
 10
72709.81130487709
 20
90947.042655012265
 30
0.0
 11
72709.81130487709
 21
90975.709321678936
 31
0.0
  0
LINE
  5
2EA
100
AcDbEntity
  8
0
  6
DIVIDE
 62
               7
100
AcDbLine
 10
72660.024638210423
 20
90982.375988345608
 30
0.0
 11
72703.144971543763
 21
90982.375988345608
 31
0.0
  0
LINE
  5
2EB
100
AcDbEntity
  8
0
  6
DIVIDE
 62
               7
100
AcDbLine
 10
72743.924638210432
 20
90634.04282167893
 30
0.0
 11
72743.924638210432
 21
90602.376088345598
 31
0.0
  0
LINE
  5
2EC
100
AcDbEntity
  8
0
  6
DIVIDE
 62
               7
100
AcDbLine
 10
72707.257971543761
 20
90638.709388345596
 30
0.0
 11
72739.257971543761
 21
90638.709388345596
 31
0.0
  0
LINE
  5
2ED
100
AcDbEntity
  8
0
  6
DIVIDE
 62
               7
100
AcDbLine
 10
72707.257971543761
 20
90640.709355012266
 30
0.0
 11
72739.257971543761
 21
90640.709355012266
 31
0.0
  0
LINE
  5
2EE
100
AcDbEntity
  8
0
  6
DIVIDE
 62
               7
100
AcDbLine
 10
72745.924971543762
 20
90634.04282167893
 30
0.0
 11
72745.924971543762
 21
90602.376088345598
 31
0.0
  0
LINE
  5
2EF
100
AcDbEntity
  8
0
  6
DIVIDE
 62
               7
100
AcDbLine
 10
72702.591304877089
 20
90677.042655012265
 30
0.0
 11
72702.591304877089
 21
90645.375955012263
 31
0.0
  0
LINE
  5
2F0
100
AcDbEntity
  8
0
  6
DIVIDE
 62
               7
100
AcDbLine
 10
72660.024638210423
 20
90683.709321678936
 30
0.0
 11
72695.924638210432
 21
90683.709321678936
 31
0.0
  0
LINE
  5
2F1
100
AcDbEntity
  8
0
  6
DIVIDE
 62
               7
100
AcDbLine
 10
72660.024638210423
 20
90681.708988345606
 30
0.0
 11
72695.924638210432
 21
90681.708988345606
 31
0.0
  0
LINE
  5
2F2
100
AcDbEntity
  8
0
  6
DIVIDE
 62
               7
100
AcDbLine
 10
72700.591304877089
 20
90677.042655012265
 30
0.0
 11
72700.591304877089
 21
90645.375955012263
 31
0.0
  0
LINE
  5
2F3
100
AcDbEntity
  8
0
  6
DIVIDE
 62
               6
100
AcDbLine
 10
72978.5753048771
 20
90848.709655012266
 30
0.0
 11
72941.908304877099
 21
90848.709655012266
 31
0.0
  0
LINE
  5
2F4
100
AcDbEntity
  8
0
  6
DIVIDE
 62
               6
100
AcDbLine
 10
73193.337971543762
 20
90966.042655012265
 30
0.0
 11
73054.488304877101
 21
90966.042655012265
 31
0.0
  0
LINE
  5
2F5
100
AcDbEntity
  8
0
  6
DIVIDE
 62
               6
100
AcDbLine
 10
72970.241638210427
 20
90905.375988345608
 30
0.0
 11
72950.241304877098
 21
90905.375988345608
 31
0.0
  0
LINE
  5
2F6
100
AcDbEntity
  8
0
  6
DIVIDE
 62
               6
100
AcDbLine
 10
73001.907971543755
 20
90901.042655012265
 30
0.0
 11
73001.907971543755
 21
90911.042655012265
 31
0.0
  0
LINE
  5
2F7
100
AcDbEntity
  8
0
  6
DIVIDE
 62
               6
100
AcDbLine
 10
72970.241638210427
 20
90891.042655012265
 30
0.0
 11
72970.241638210427
 21
90905.375988345608
 31
0.0
  0
LINE
  5
2F8
100
AcDbEntity
  8
0
  6
DIVIDE
 62
               6
100
AcDbLine
 10
72950.241304877098
 20
90891.042655012265
 30
0.0
 11
72950.241304877098
 21
90905.375988345608
 31
0.0
  0
LINE
  5
2F9
100
AcDbEntity
  8
0
  6
DIVIDE
 62
               6
100
AcDbLine
 10
72945.241638210427
 20
90891.042655012265
 30
0.0
 11
72943.504971543764
 21
90900.8929883456
 31
0.0
  0
LINE
  5
2FA
100
AcDbEntity
  8
0
  6
DIVIDE
 62
               6
100
AcDbLine
 10
72918.574971543756
 20
90911.042655012265
 30
0.0
 11
72925.241638210427
 21
90911.042655012265
 31
0.0
  0
LINE
  5
2FB
100
AcDbEntity
  8
0
  6
DIVIDE
 62
               6
100
AcDbLine
 10
72960.241971543757
 20
90891.042655012265
 30
0.0
 11
72945.241638210427
 21
90891.042655012265
 31
0.0
  0
LINE
  5
2FC
100
AcDbEntity
  8
0
  6
DIVIDE
 62
               6
100
AcDbLine
 10
72918.574971543756
 20
90911.042655012265
 30
0.0
 11
72918.574971543756
 21
90901.042655012265
 31
0.0
  0
LINE
  5
2FD
100
AcDbEntity
  8
0
  6
DIVIDE
 62
               6
100
AcDbLine
 10
72975.241304877098
 20
90891.042655012265
 30
0.0
 11
72976.977638210432
 21
90900.8929883456
 31
0.0
  0
LINE
  5
2FE
100
AcDbEntity
  8
0
  6
DIVIDE
 62
               6
100
AcDbLine
 10
73001.907971543755
 20
90911.042655012265
 30
0.0
 11
72995.241638210427
 21
90911.042655012265
 31
0.0
  0
LINE
  5
2FF
100
AcDbEntity
  8
0
  6
DIVIDE
 62
               6
100
AcDbLine
 10
72960.241971543757
 20
90891.042655012265
 30
0.0
 11
72975.241304877098
 21
90891.042655012265
 31
0.0
  0
LINE
  5
300
100
AcDbEntity
  8
0
  6
DIVIDE
 62
               6
100
AcDbLine
 10
73097.175304877092
 20
90945.375988345608
 30
0.0
 11
73054.488304877101
 21
90945.375988345608
 31
0.0
  0
LINE
  5
301
100
AcDbEntity
  8
0
  6
DIVIDE
 62
               6
100
AcDbLine
 10
72930.241304877098
 20
90867.042988345609
 30
0.0
 11
72926.908304877099
 21
90867.042988345609
 31
0.0
  0
LINE
  5
302
100
AcDbEntity
  8
0
  6
DIVIDE
 62
               6
100
AcDbLine
 10
73028.514971543758
 20
90884.712655012263
 30
0.0
 11
73042.251638210422
 21
90935.985988345608
 31
0.0
  0
LINE
  5
303
100
AcDbEntity
  8
0
  6
DIVIDE
 62
               6
100
AcDbLine
 10
73022.29163821043
 20
90941.336321678929
 30
0.0
 11
73008.551304877095
 21
90890.062655012269
 31
0.0
  0
LINE
  5
304
100
AcDbEntity
  8
0
  6
DIVIDE
 62
               6
100
AcDbLine
 10
72926.908304877099
 20
90877.709321678936
 30
0.0
 11
72992.45130487709
 21
90877.709321678936
 31
0.0
  0
LINE
  5
305
100
AcDbEntity
  8
0
  6
DIVIDE
 62
               6
100
AcDbLine
 10
72926.908304877099
 20
90877.709321678936
 30
0.0
 11
72926.908304877099
 21
90867.042988345609
 31
0.0
  0
LINE
  5
306
100
AcDbEntity
  8
0
  6
DIVIDE
 62
               6
100
AcDbLine
 10
72632.144638210433
 20
90852.042655012265
 30
0.0
 11
73072.414971543767
 21
90852.042655012265
 31
0.0
  0
LINE
  5
307
100
AcDbEntity
  8
0
  6
DIVIDE
 62
               6
100
AcDbLine
 10
73203.924638210432
 20
90863.709655012266
 30
0.0
 11
73203.924638210432
 21
90938.709655012266
 31
0.0
  0
LINE
  5
308
100
AcDbEntity
  8
0
  6
DIVIDE
 62
               6
100
AcDbLine
 10
72706.478304877091
 20
90980.375988345608
 30
0.0
 11
72661.161971543755
 21
90980.375988345608
 31
0.0
  0
LINE
  5
309
100
AcDbEntity
  8
0
  6
DIVIDE
 62
               6
100
AcDbLine
 10
72706.478304877091
 20
90975.376321678938
 30
0.0
 11
72706.478304877091
 21
90980.375988345608
 31
0.0
  0
LINE
  5
30A
100
AcDbEntity
  8
0
  6
DIVIDE
 62
               6
100
AcDbLine
 10
72689.811638210434
 20
90975.376321678938
 30
0.0
 11
72689.811638210434
 21
90980.375988345608
 31
0.0
  0
LINE
  5
30B
100
AcDbEntity
  8
0
  6
DIVIDE
 62
               6
100
AcDbLine
 10
72670.718304877097
 20
90965.375988345608
 30
0.0
 11
72679.811638210434
 21
90965.375988345608
 31
0.0
  0
LINE
  5
30C
100
AcDbEntity
  8
0
  6
DIVIDE
 62
               6
100
AcDbLine
 10
72656.631304877097
 20
90977.489655012265
 30
0.0
 11
72612.50830487709
 21
90882.865988345598
 31
0.0
  0
LINE
  5
30D
100
AcDbEntity
  8
0
  6
DIVIDE
 62
               6
100
AcDbLine
 10
72626.101638210428
 20
90876.526321678932
 30
0.0
 11
72666.187971543768
 21
90962.489655012265
 31
0.0
  0
LINE
  5
30E
100
AcDbEntity
  8
0
  6
DIVIDE
 62
               6
100
AcDbLine
 10
73068.578304877097
 20
90867.042988345609
 30
0.0
 11
72632.144638210433
 21
90867.042988345609
 31
0.0
  0
LINE
  5
30F
100
AcDbEntity
  8
0
  6
DIVIDE
 62
               6
100
AcDbLine
 10
73202.257638210431
 20
90940.376321678938
 30
0.0
 11
73120.381304877097
 21
90940.376321678938
 31
0.0
  0
LINE
  5
310
100
AcDbEntity
  8
0
  6
DIVIDE
 62
               6
100
AcDbLine
 10
73182.257304877086
 20
90955.376321678938
 30
0.0
 11
73120.381304877097
 21
90955.376321678938
 31
0.0
  0
LINE
  5
311
100
AcDbEntity
  8
0
  6
DIVIDE
 62
               6
100
AcDbLine
 10
73202.257638210431
 20
90862.042655012265
 30
0.0
 11
73170.591304877089
 21
90862.042655012265
 31
0.0
  0
LINE
  5
312
100
AcDbEntity
  8
0
  6
DIVIDE
 62
               6
100
AcDbLine
 10
73163.924638210432
 20
90795.376321678938
 30
0.0
 11
73163.924638210432
 21
90855.375988345608
 31
0.0
  0
LINE
  5
313
100
AcDbEntity
  8
0
  6
DIVIDE
 62
               6
100
AcDbLine
 10
73168.924304877088
 20
90853.709321678936
 30
0.0
 11
73168.924304877088
 21
90795.376321678938
 31
0.0
  0
LINE
  5
314
100
AcDbEntity
  8
0
  6
DIVIDE
 62
               6
100
AcDbLine
 10
73202.257638210431
 20
90857.042655012265
 30
0.0
 11
73172.257971543761
 21
90857.042655012265
 31
0.0
  0
LINE
  5
315
100
AcDbEntity
  8
0
  6
DIVIDE
 62
               6
100
AcDbLine
 10
73163.924638210432
 20
90795.376321678938
 30
0.0
 11
73168.924304877088
 21
90795.376321678938
 31
0.0
  0
LINE
  5
316
100
AcDbEntity
  8
0
  6
DIVIDE
 62
               6
100
AcDbLine
 10
73208.924304877088
 20
90863.709655012266
 30
0.0
 11
73208.924304877088
 21
90938.709655012266
 31
0.0
  0
LINE
  5
317
100
AcDbEntity
  8
0
  6
DIVIDE
 62
               6
100
AcDbLine
 10
73213.924304877088
 20
90863.709655012266
 30
0.0
 11
73213.924304877088
 21
90938.709655012266
 31
0.0
  0
LINE
  5
318
100
AcDbEntity
  8
0
  6
DIVIDE
 62
               6
100
AcDbLine
 10
73202.257638210431
 20
90852.042655012265
 30
0.0
 11
73197.257971543761
 21
90852.042655012265
 31
0.0
  0
LINE
  5
319
100
AcDbEntity
  8
0
  6
DIVIDE
 62
               6
100
AcDbLine
 10
73202.257638210431
 20
90950.375988345608
 30
0.0
 11
73193.437638210424
 21
90950.375988345608
 31
0.0
  0
LINE
  5
31A
100
AcDbEntity
  8
0
  6
DIVIDE
 62
               6
100
AcDbLine
 10
73104.284971543762
 20
90928.022988345605
 30
0.0
 11
73086.904638210428
 21
90863.159655012263
 31
0.0
  0
LINE
  5
31B
100
AcDbEntity
  8
0
  6
DIVIDE
 62
               6
100
AcDbLine
 10
73073.408304877099
 20
90870.74932167893
 30
0.0
 11
73089.794638210427
 21
90931.906321678936
 31
0.0
  0
LINE
  5
31C
100
AcDbEntity
  8
0
  6
DIVIDE
 62
               6
100
AcDbLine
 10
73202.257638210431
 20
90945.375988345608
 30
0.0
 11
73196.401304877087
 21
90945.375988345608
 31
0.0
  0
LINE
  5
31D
100
AcDbEntity
  8
0
  6
DIVIDE
 62
               6
100
AcDbLine
 10
72706.478304877091
 20
90975.376321678938
 30
0.0
 11
72689.811638210434
 21
90975.376321678938
 31
0.0
  0
LINE
  5
31E
100
AcDbEntity
  8
0
  6
DIVIDE
 62
               6
100
AcDbLine
 10
72702.591304877089
 20
90830.376321678938
 30
0.0
 11
72702.591304877089
 21
90665.375988345608
 31
0.0
  0
LINE
  5
31F
100
AcDbEntity
  8
0
  6
DIVIDE
 62
               6
100
AcDbLine
 10
72717.591638210433
 20
90665.375988345608
 30
0.0
 11
72717.591638210433
 21
90830.376321678938
 31
0.0
  0
LINE
  5
320
100
AcDbEntity
  8
0
  6
DIVIDE
 62
               6
100
AcDbLine
 10
72747.591304877089
 20
90643.709655012266
 30
0.0
 11
72724.257971543761
 21
90643.709655012266
 31
0.0
  0
LINE
  5
321
100
AcDbEntity
  8
0
  6
DIVIDE
 62
               6
100
AcDbLine
 10
72757.591304877089
 20
90603.709555012261
 30
0.0
 11
72757.591304877089
 21
90633.709655012266
 31
0.0
  0
LINE
  5
322
100
AcDbEntity
  8
0
  6
DIVIDE
 62
               6
100
AcDbLine
 10
72795.924971543762
 20
90847.042988345609
 30
0.0
 11
72795.924971543762
 21
90852.042655012265
 31
0.0
  0
LINE
  5
323
100
AcDbEntity
  8
0
  6
DIVIDE
 62
               6
100
AcDbLine
 10
72769.25830487709
 20
90837.042655012265
 30
0.0
 11
72724.257971543761
 21
90837.042655012265
 31
0.0
  0
LINE
  5
324
100
AcDbEntity
  8
0
  6
DIVIDE
 62
               6
100
AcDbLine
 10
72730.924638210432
 20
90658.709321678936
 30
0.0
 11
72724.257971543761
 21
90658.709321678936
 31
0.0
  0
LINE
  5
325
100
AcDbEntity
  8
0
  6
DIVIDE
 62
               6
100
AcDbLine
 10
72762.591638210433
 20
90633.709655012266
 30
0.0
 11
72762.591638210433
 21
90603.709555012261
 31
0.0
  0
LINE
  5
326
100
AcDbEntity
  8
0
  6
DIVIDE
 62
               6
100
AcDbLine
 10
72762.591638210433
 20
90603.709555012261
 30
0.0
 11
72757.591304877089
 21
90603.709555012261
 31
0.0
  0
LINE
  5
327
100
AcDbEntity
  8
0
  6
DIVIDE
 62
               6
100
AcDbLine
 10
72779.25830487709
 20
90847.042988345609
 30
0.0
 11
72795.924971543762
 21
90847.042988345609
 31
0.0
  0
LINE
  5
328
100
AcDbEntity
  8
0
  6
DIVIDE
 62
               6
100
AcDbLine
 10
72747.591304877089
 20
90648.709321678936
 30
0.0
 11
72740.924638210432
 21
90648.709321678936
 31
0.0
  0
LINE
  5
329
100
AcDbEntity
  8
0
  6
DIVIDE
 62
               6
100
AcDbLine
 10
72740.924638210432
 20
90648.709321678936
 30
0.0
 11
72740.924638210432
 21
90643.709655012266
 31
0.0
  0
LINE
  5
32A
100
AcDbEntity
  8
0
  6
DIVIDE
 62
               6
100
AcDbLine
 10
72779.25830487709
 20
90847.042988345609
 30
0.0
 11
72779.25830487709
 21
90852.042655012265
 31
0.0
  0
LINE
  5
32B
100
AcDbEntity
  8
0
  6
DIVIDE
 62
               6
100
AcDbLine
 10
73010.258638210435
 20
90852.042655012265
 30
0.0
 11
73010.258638210435
 21
90847.042988345609
 31
0.0
  0
LINE
  5
32C
100
AcDbEntity
  8
0
  6
DIVIDE
 62
               6
100
AcDbLine
 10
73155.258638210435
 20
90865.375988345608
 30
0.0
 11
73155.258638210435
 21
90855.375988345608
 31
0.0
  0
LINE
  5
32D
100
AcDbEntity
  8
0
  6
DIVIDE
 62
               6
100
AcDbLine
 10
73160.25830487709
 20
90865.375988345608
 30
0.0
 11
73160.25830487709
 21
90855.375988345608
 31
0.0
  0
LINE
  5
32E
100
AcDbEntity
  8
0
  6
DIVIDE
 62
               6
100
AcDbLine
 10
73010.258638210435
 20
90847.042988345609
 30
0.0
 11
73151.924971543762
 21
90847.042988345609
 31
0.0
  0
LINE
  5
32F
100
AcDbEntity
  8
0
  6
DIVIDE
 62
               6
100
AcDbLine
 10
73151.924971543762
 20
90852.042655012265
 30
0.0
 11
73073.748971543755
 21
90852.042655012265
 31
0.0
  0
LINE
  5
330
100
AcDbEntity
  8
0
  6
DIVIDE
 62
               6
100
AcDbLine
 10
73176.924638210432
 20
90868.709321678936
 30
0.0
 11
73163.591638210433
 21
90868.709321678936
 31
0.0
  0
LINE
  5
331
100
AcDbEntity
  8
0
  6
DIVIDE
 62
               6
100
AcDbLine
 10
73176.924638210432
 20
90873.709321678936
 30
0.0
 11
73163.591638210433
 21
90873.709321678936
 31
0.0
  0
LINE
  5
332
100
AcDbEntity
  8
0
  6
DIVIDE
 62
               6
100
AcDbLine
 10
73066.924971543762
 20
90845.375988345608
 30
0.0
 11
73046.925304877092
 21
90845.375988345608
 31
0.0
  0
LINE
  5
333
100
AcDbEntity
  8
0
  6
DIVIDE
 62
               6
100
AcDbLine
 10
73046.925304877092
 20
90845.375988345608
 30
0.0
 11
73046.925304877092
 21
90847.042988345609
 31
0.0
  0
LINE
  5
334
100
AcDbEntity
  8
0
  6
DIVIDE
 62
               6
100
AcDbLine
 10
73066.924971543762
 20
90845.375988345608
 30
0.0
 11
73066.924971543762
 21
90847.042988345609
 31
0.0
  0
LINE
  5
335
100
AcDbEntity
  8
0
  6
DIVIDE
 62
               6
100
AcDbLine
 10
73176.924638210432
 20
90868.709321678936
 30
0.0
 11
73176.924638210432
 21
90873.709321678936
 31
0.0
  0
LINE
  5
336
100
AcDbEntity
  8
0
  6
DIVIDE
 62
               6
100
AcDbLine
 10
73262.988304877101
 20
90978.709321678936
 30
0.0
 11
73247.381638210427
 21
90978.709321678936
 31
0.0
  0
LINE
  5
337
100
AcDbEntity
  8
0
  6
DIVIDE
 62
               6
100
AcDbLine
 10
73238.424638210432
 20
90974.99932167893
 30
0.0
 11
73219.738304877101
 21
90956.309321678942
 31
0.0
  0
LINE
  5
338
100
AcDbEntity
  8
0
  6
DIVIDE
 62
               6
100
AcDbLine
 10
73223.81130487709
 20
90989.612655012272
 30
0.0
 11
73205.121638210432
 21
90970.92632167894
 31
0.0
  0
LINE
  5
339
100
AcDbEntity
  8
0
  6
DIVIDE
 62
               6
100
AcDbLine
 10
73402.974971543765
 20
90760.936321678935
 30
0.0
 11
73354.464638210426
 21
90857.802988345604
 31
0.0
  0
LINE
  5
33A
100
AcDbEntity
  8
0
  6
DIVIDE
 62
               6
100
AcDbLine
 10
73363.597971543757
 20
90793.409321678933
 30
0.0
 11
73335.988638210431
 21
90848.549321678933
 31
0.0
  0
LINE
  5
33B
100
AcDbEntity
  8
0
  6
DIVIDE
 62
               6
100
AcDbLine
 10
73402.974971543765
 20
90760.936321678935
 30
0.0
 11
73398.501304877092
 21
90758.69632167893
 31
0.0
  0
LINE
  5
33C
100
AcDbEntity
  8
0
  6
DIVIDE
 62
               6
100
AcDbLine
 10
73385.06130487709
 20
90796.702655012268
 30
0.0
 11
73372.544971543757
 21
90790.432988345608
 31
0.0
  0
LINE
  5
33D
100
AcDbEntity
  8
0
  6
DIVIDE
 62
               6
100
AcDbLine
 10
73380.591971543763
 20
90794.462655012263
 30
0.0
 11
73398.501304877092
 21
90758.69632167893
 31
0.0
  0
LINE
  5
33E
100
AcDbEntity
  8
0
  6
DIVIDE
 62
               6
100
AcDbLine
 10
73279.277971543765
 20
90950.626321678938
 30
0.0
 11
73303.717638210423
 21
90962.866321678943
 31
0.0
  0
LINE
  5
33F
100
AcDbEntity
  8
0
  6
DIVIDE
 62
               6
100
AcDbLine
 10
73279.277971543765
 20
90950.626321678938
 30
0.0
 11
73331.514971543758
 21
90846.309321678942
 31
0.0
  0
LINE
  5
340
100
AcDbEntity
  8
0
  6
DIVIDE
 62
               6
100
AcDbLine
 10
73355.957971543758
 20
90858.549655012263
 30
0.0
 11
73303.717638210423
 21
90962.866321678943
 31
0.0
  0
LINE
  5
341
100
AcDbEntity
  8
0
  6
DIVIDE
 62
               6
100
AcDbLine
 10
73355.957971543758
 20
90858.549655012263
 30
0.0
 11
73331.514971543758
 21
90846.309321678942
 31
0.0
  0
LINE
  5
342
100
AcDbEntity
  8
0
  6
DIVIDE
 62
               6
100
AcDbLine
 10
73363.151638210431
 20
90794.302988345604
 30
0.0
 11
73335.988638210431
 21
90848.549321678933
 31
0.0
  0
LINE
  5
343
100
AcDbEntity
  8
0
  6
DIVIDE
 62
               6
100
AcDbLine
 10
73351.4843048771
 20
90856.309655012272
 30
0.0
 11
73299.248304877096
 21
90960.626321678938
 31
0.0
  0
LINE
  5
344
100
AcDbEntity
  8
0
  6
DIVIDE
 62
               6
100
AcDbLine
 10
73292.788304877089
 20
90980.969655012275
 30
0.0
 11
73302.228304877091
 21
90962.11932167894
 31
0.0
  0
LINE
  5
345
100
AcDbEntity
  8
0
  6
DIVIDE
 62
               6
100
AcDbLine
 10
73283.748304877096
 20
90952.866321678943
 30
0.0
 11
73274.31130487709
 21
90971.715988345604
 31
0.0
  0
LINE
  5
346
100
AcDbEntity
  8
0
  6
DIVIDE
 62
               6
100
AcDbLine
 10
73262.98463821043
 20
90999.375988345608
 30
0.0
 11
73247.381638210427
 21
90999.375988345608
 31
0.0
  0
LINE
  5
347
100
AcDbEntity
  8
0
  6
Continuous
 62
               4
100
AcDbLine
 10
73112.79035175858
 20
91642.945540539426
 30
0.0
 11
73217.140190708567
 21
91695.120460014412
 31
0.0
  0
LINE
  5
348
100
AcDbEntity
  8
0
  6
Continuous
 62
               4
100
AcDbLine
 10
73703.708507171497
 20
91777.407788562021
 30
0.0
 11
73772.281258481496
 21
91640.262285942037
 31
0.0
  0
LINE
  5
349
100
AcDbEntity
  8
0
  6
Continuous
 62
               7
100
AcDbLine
 10
73302.225938491538
 20
91144.81740827352
 30
0.0
 11
73264.314424920274
 21
91157.454579463942
 31
0.0
  0
LINE
  5
34A
100
AcDbEntity
  8
0
  6
Continuous
 62
               7
100
AcDbLine
 10
73291.685012957634
 20
91165.899259341313
 30
0.0
 11
73285.396275988067
 21
91167.995504997845
 31
0.0
  0
LINE
  5
34B
100
AcDbEntity
  8
0
  6
Continuous
 62
               4
100
AcDbLine
 10
74718.585345773681
 20
92284.846207863113
 30
0.0
 11
74708.523019043379
 21
92304.970861323731
 31
0.0
  0
LINE
  5
34C
100
AcDbEntity
  8
0
  6
Continuous
 62
               2
100
AcDbLine
 10
73386.48504632611
 20
91319.162949154357
 30
0.0
 11
72998.899930226136
 21
91125.37039110437
 31
0.0
  0
LINE
  5
34D
100
AcDbEntity
  8
0
  6
DASHED
 62
               6
100
AcDbLine
 10
73301.514463181113
 20
91340.032916944343
 30
0.0
 11
72973.557826481134
 21
91176.054598594361
 31
0.0
  0
LINE
  5
34E
100
AcDbEntity
  8
0
  6
Continuous
 62
               7
100
AcDbLine
 10
73425.333901372593
 20
90734.849026960204
 30
0.0
 11
73416.254111783317
 21
90737.875623489963
 31
0.0
  0
LINE
  5
34F
100
AcDbEntity
  8
0
  6
Continuous
 62
               4
100
AcDbLine
 10
73946.600422531585
 20
91764.17978099329
 30
0.0
 11
73931.897204789086
 21
91720.070259095839
 31
0.0
  0
LINE
  5
350
100
AcDbEntity
  8
0
  6
Continuous
 62
               4
100
AcDbLine
 10
73934.15525596081
 20
91758.4670843067
 30
0.0
 11
73919.248082850099
 21
91713.745698126339
 31
0.0
  0
LINE
  5
351
100
AcDbEntity
  8
0
  6
Continuous
 62
               4
100
AcDbLine
 10
73921.506134021838
 20
91752.142523337199
 30
0.0
 11
73906.598960911128
 21
91707.421137156853
 31
0.0
  0
LINE
  5
352
100
AcDbEntity
  8
0
  6
Continuous
 62
               4
100
AcDbLine
 10
73959.249521873979
 20
91738.881582308488
 30
0.0
 11
73957.195448667044
 21
91732.719381034811
 31
0.0
  0
LINE
  5
353
100
AcDbEntity
  8
0
  6
Continuous
 62
               4
100
AcDbLine
 10
73952.924972202774
 20
91751.530681650882
 30
0.0
 11
73944.546326728072
 21
91726.394820065325
 31
0.0
  0
LINE
  5
354
100
AcDbEntity
  8
0
  6
Continuous
 62
               4
100
AcDbLine
 10
73886.628103647527
 20
91868.867586800028
 30
0.0
 11
73871.720930536816
 21
91824.146200619682
 31
0.0
  0
LINE
  5
355
100
AcDbEntity
  8
0
  6
Continuous
 62
               4
100
AcDbLine
 10
73873.97898170854
 20
91862.543025830542
 30
0.0
 11
73859.07180859783
 21
91817.821639650196
 31
0.0
  0
LINE
  5
356
100
AcDbEntity
  8
0
  6
Continuous
 62
               4
100
AcDbLine
 10
73861.329859769554
 20
91856.218464861056
 30
0.0
 11
73846.422686658843
 21
91811.497078680695
 31
0.0
  0
LINE
  5
357
100
AcDbEntity
  8
0
  6
Continuous
 62
               4
100
AcDbLine
 10
73902.328574833198
 20
91852.723476390049
 30
0.0
 11
73897.019174414774
 21
91836.795322558668
 31
0.0
  0
LINE
  5
358
100
AcDbEntity
  8
0
  6
Continuous
 62
               4
100
AcDbLine
 10
73896.004025162008
 20
91865.372575732443
 30
0.0
 11
73884.370052475788
 21
91830.470761589168
 31
0.0
  0
LINE
  5
359
100
AcDbEntity
  8
0
  6
Continuous
 62
               2
100
AcDbLine
 10
71949.459276588372
 20
91723.692626230506
 30
0.0
 11
72379.459276588372
 21
91723.692626230506
 31
0.0
  0
LINE
  5
35A
100
AcDbEntity
  8
0
  6
Continuous
 62
               2
100
AcDbLine
 10
71949.459276588372
 20
91790.359292897163
 30
0.0
 11
72379.459276588372
 21
91790.359292897163
 31
0.0
  0
LINE
  5
35B
100
AcDbEntity
  8
0
  6
Continuous
 62
               2
100
AcDbLine
 10
71949.459276588372
 20
91790.359292897163
 30
0.0
 11
71949.459276588372
 21
91723.692626230506
 31
0.0
  0
LINE
  5
35C
100
AcDbEntity
  8
0
  6
Continuous
 62
               2
100
AcDbLine
 10
72379.459276588372
 20
91790.359292897163
 30
0.0
 11
72379.459276588372
 21
91723.692626230506
 31
0.0
  0
LINE
  5
35D
100
AcDbEntity
  8
0
  6
DASHDOT
 62
               7
100
AcDbLine
 10
73364.124366551114
 20
91192.452430429359
 30
0.0
 11
73314.930871046105
 21
91290.839421439348
 31
0.0
  0
LINE
  5
35E
100
AcDbEntity
  8
0
  6
Continuous
 62
               7
100
AcDbLine
 10
73303.005175166109
 20
91281.149793536853
 30
0.0
 11
73329.837990896107
 21
91294.56620140186
 31
0.0
  0
LINE
  5
35F
100
AcDbEntity
  8
0
  6
Continuous
 62
               7
100
AcDbLine
 10
73349.217246701111
 20
91207.359550279361
 30
0.0
 11
73313.440159061109
 21
91278.913725559352
 31
0.0
  0
LINE
  5
360
100
AcDbEntity
  8
0
  6
Continuous
 62
               7
100
AcDbLine
 10
73361.142942581107
 20
91213.322398219359
 30
0.0
 11
73325.365854941105
 21
91284.87657349935
 31
0.0
  0
LINE
  5
361
100
AcDbEntity
  8
0
  6
Continuous
 62
               7
100
AcDbLine
 10
73313.440159061109
 20
91278.913725559352
 30
0.0
 11
73325.365854941105
 21
91284.87657349935
 31
0.0
  0
LINE
  5
362
100
AcDbEntity
  8
0
  6
Continuous
 62
               7
100
AcDbLine
 10
73303.005175166109
 20
91281.149793536853
 30
0.0
 11
73313.440159061109
 21
91278.913725559352
 31
0.0
  0
LINE
  5
363
100
AcDbEntity
  8
0
  6
Continuous
 62
               7
100
AcDbLine
 10
73325.365854941105
 20
91284.87657349935
 30
0.0
 11
73329.837990896107
 21
91294.56620140186
 31
0.0
  0
LINE
  5
364
100
AcDbEntity
  8
0
  6
Continuous
 62
               7
100
AcDbLine
 10
73329.837990896107
 20
91246.118061889356
 30
0.0
 11
73336.297742831113
 21
91253.074717819356
 31
0.0
  0
LINE
  5
365
100
AcDbEntity
  8
0
  6
Continuous
 62
               7
100
AcDbLine
 10
73332.074058873608
 20
91241.645925934354
 30
0.0
 11
73341.763686776103
 21
91252.080909829354
 31
0.0
  0
LINE
  5
366
100
AcDbEntity
  8
0
  6
Continuous
 62
               7
100
AcDbLine
 10
73334.310126851109
 20
91237.173789979366
 30
0.0
 11
73343.999754753604
 21
91247.608773874352
 31
0.0
  0
LINE
  5
367
100
AcDbEntity
  8
0
  6
Continuous
 62
               7
100
AcDbLine
 10
73336.54619482861
 20
91232.701654024364
 30
0.0
 11
73346.235822731105
 21
91243.136637919364
 31
0.0
  0
LINE
  5
368
100
AcDbEntity
  8
0
  6
Continuous
 62
               7
100
AcDbLine
 10
73338.782262806111
 20
91228.229518069362
 30
0.0
 11
73348.471890708606
 21
91238.664501964362
 31
0.0
  0
LINE
  5
369
100
AcDbEntity
  8
0
  6
Continuous
 62
               7
100
AcDbLine
 10
73341.018330783612
 20
91223.75738211436
 30
0.0
 11
73350.707958686107
 21
91234.19236600936
 31
0.0
  0
LINE
  5
36A
100
AcDbEntity
  8
0
  6
Continuous
 62
               7
100
AcDbLine
 10
73343.254398761113
 20
91219.285246159357
 30
0.0
 11
73352.944026663608
 21
91229.720230054358
 31
0.0
  0
LINE
  5
36B
100
AcDbEntity
  8
0
  6
Continuous
 62
               7
100
AcDbLine
 10
73345.490466738614
 20
91214.813110204355
 30
0.0
 11
73355.180094641109
 21
91225.248094099356
 31
0.0
  0
LINE
  5
36C
100
AcDbEntity
  8
0
  6
Continuous
 62
               7
100
AcDbLine
 10
73347.726534716116
 20
91210.340974249368
 30
0.0
 11
73357.416162618611
 21
91220.775958144368
 31
0.0
  0
LINE
  5
36D
100
AcDbEntity
  8
0
  6
Continuous
 62
               7
100
AcDbLine
 10
73350.472583109527
 20
91206.418047973042
 30
0.0
 11
73359.652230596112
 21
91216.303822189366
 31
0.0
  0
LINE
  5
36E
100
AcDbEntity
  8
0
  6
Continuous
 62
               7
100
AcDbLine
 10
73354.23859233479
 20
91203.593541054099
 30
0.0
 11
73361.142942581107
 21
91211.028995165514
 31
0.0
  0
LINE
  5
36F
100
AcDbEntity
  8
0
  6
Continuous
 62
               7
100
AcDbLine
 10
73358.004601560053
 20
91200.769034135155
 30
0.0
 11
73361.142942581107
 21
91204.148786003978
 31
0.0
  0
LINE
  5
370
100
AcDbEntity
  8
0
  6
DOT
 62
               7
100
AcDbLine
 10
73310.458735091117
 20
91284.87657349935
 30
0.0
 11
73316.421583031115
 21
91280.404437544348
 31
0.0
  0
LINE
  5
371
100
AcDbEntity
  8
0
  6
DOT
 62
               7
100
AcDbLine
 10
73322.384430971113
 20
91283.385861514354
 30
0.0
 11
73322.384430971113
 21
91290.839421439348
 31
0.0
  0
LINE
  5
372
100
AcDbEntity
  8
0
  6
Continuous
 62
               7
100
AcDbLine
 10
73361.142942581107
 20
91198.415278369357
 30
0.0
 11
73361.142942581107
 21
91213.322398219359
 31
0.0
  0
LINE
  5
373
100
AcDbEntity
  8
0
  6
Continuous
 62
               7
100
AcDbLine
 10
73361.142942581107
 20
91198.415278369357
 30
0.0
 11
73349.217246701111
 21
91207.359550279361
 31
0.0
  0
CIRCLE
  5
374
100
AcDbEntity
  8
0
  6
Continuous
 62
               7
100
AcDbCircle
 10
73281.837064979118
 20
91532.185691810839
 30
0.0
 40
1.6666666666666647
  0
CIRCLE
  5
375
100
AcDbEntity
  8
0
  6
Continuous
 62
               7
100
AcDbCircle
 10
73273.936291458609
 20
91547.987238851827
 30
0.0
 40
1.6666666666666647
  0
CIRCLE
  5
376
100
AcDbEntity
  8
0
  6
Continuous
 62
               7
100
AcDbCircle
 10
73289.737838499612
 20
91516.384144769836
 30
0.0
 40
1.6666666666666647
  0
CIRCLE
  5
377
100
AcDbEntity
  8
0
  6
Continuous
 62
               7
100
AcDbCircle
 10
73277.886678218871
 20
91540.086465331333
 30
0.0
 40
1.6666666666666647
  0
CIRCLE
  5
378
100
AcDbEntity
  8
0
  6
Continuous
 62
               7
100
AcDbCircle
 10
73285.787451739365
 20
91524.28491829033
 30
0.0
 40
1.6666666666666647
  0
CIRCLE
  5
379
100
AcDbEntity
  8
0
  6
Continuous
 62
               7
100
AcDbCircle
 10
73308.669880709116
 20
91545.602099675831
 30
0.0
 40
1.6666666666666647
  0
CIRCLE
  5
37A
100
AcDbEntity
  8
0
  6
Continuous
 62
               7
100
AcDbCircle
 10
73300.769107188607
 20
91561.403646716833
 30
0.0
 40
1.6666666666666647
  0
CIRCLE
  5
37B
100
AcDbEntity
  8
0
  6
Continuous
 62
               7
100
AcDbCircle
 10
73316.57065422961
 20
91529.800552634828
 30
0.0
 40
1.6666666666666647
  0
CIRCLE
  5
37C
100
AcDbEntity
  8
0
  6
Continuous
 62
               7
100
AcDbCircle
 10
73304.719493948869
 20
91553.502873196325
 30
0.0
 40
1.6666666666666647
  0
CIRCLE
  5
37D
100
AcDbEntity
  8
0
  6
Continuous
 62
               7
100
AcDbCircle
 10
73312.620267469363
 20
91537.701326155337
 30
0.0
 40
1.6666666666666647
  0
CIRCLE
  5
37E
100
AcDbEntity
  8
0
  6
Continuous
 62
               7
100
AcDbCircle
 10
74474.406652979014
 20
92128.470485810787
 30
0.0
 40
1.6666666666666647
  0
CIRCLE
  5
37F
100
AcDbEntity
  8
0
  6
Continuous
 62
               7
100
AcDbCircle
 10
74466.50587945852
 20
92144.27203285179
 30
0.0
 40
1.6666666666666647
  0
CIRCLE
  5
380
100
AcDbEntity
  8
0
  6
Continuous
 62
               7
100
AcDbCircle
 10
74482.307426499508
 20
92112.668938769784
 30
0.0
 40
1.6666666666666647
  0
CIRCLE
  5
381
100
AcDbEntity
  8
0
  6
Continuous
 62
               7
100
AcDbCircle
 10
74470.456266218767
 20
92136.371259331281
 30
0.0
 40
1.6666666666666647
  0
CIRCLE
  5
382
100
AcDbEntity
  8
0
  6
Continuous
 62
               7
100
AcDbCircle
 10
74478.357039739261
 20
92120.569712290278
 30
0.0
 40
1.6666666666666647
  0
CIRCLE
  5
383
100
AcDbEntity
  8
0
  6
Continuous
 62
               7
100
AcDbCircle
 10
74501.239468709013
 20
92141.886893675779
 30
0.0
 40
1.6666666666666647
  0
CIRCLE
  5
384
100
AcDbEntity
  8
0
  6
Continuous
 62
               7
100
AcDbCircle
 10
74493.338695188519
 20
92157.688440716782
 30
0.0
 40
1.6666666666666647
  0
CIRCLE
  5
385
100
AcDbEntity
  8
0
  6
Continuous
 62
               7
100
AcDbCircle
 10
74509.140242229507
 20
92126.085346634791
 30
0.0
 40
1.6666666666666647
  0
CIRCLE
  5
386
100
AcDbEntity
  8
0
  6
Continuous
 62
               7
100
AcDbCircle
 10
74497.289081948766
 20
92149.787667196288
 30
0.0
 40
1.6666666666666647
  0
CIRCLE
  5
387
100
AcDbEntity
  8
0
  6
Continuous
 62
               7
100
AcDbCircle
 10
74505.18985546926
 20
92133.986120155285
 30
0.0
 40
1.6666666666666647
  0
CIRCLE
  5
388
100
AcDbEntity
  8
0
  6
Continuous
 62
               4
100
AcDbCircle
 10
73112.790325880123
 20
91642.945592296324
 30
0.0
 40
4.9999999999999947
  0
CIRCLE
  5
389
100
AcDbEntity
  8
0
  6
Continuous
 62
               4
100
AcDbCircle
 10
72814.647928880164
 20
91493.87439379633
 30
0.0
 40
4.9999999999999947
  0
CIRCLE
  5
38A
100
AcDbEntity
  8
0
  6
Continuous
 62
               4
100
AcDbCircle
 10
72908.562783935151
 20
91306.044683686341
 30
0.0
 40
4.9999999999999947
  0
CIRCLE
  5
38B
100
AcDbEntity
  8
0
  6
Continuous
 62
               4
100
AcDbCircle
 10
72998.00550303515
 20
91350.766043236348
 30
0.0
 40
4.9999999999999947
  0
CIRCLE
  5
38C
100
AcDbEntity
  8
0
  6
Continuous
 62
               4
100
AcDbCircle
 10
73692.080815859459
 20
90745.238847528497
 30
0.0
 40
4.9999999999999947
  0
CIRCLE
  5
38D
100
AcDbEntity
  8
0
  6
Continuous
 62
               4
100
AcDbCircle
 10
74884.650591250975
 20
91341.523628929368
 30
0.0
 40
4.9999999999999947
  0
CIRCLE
  5
38E
100
AcDbEntity
  8
0
  6
Continuous
 62
               4
100
AcDbCircle
 10
72851.634454893254
 20
91161.147478744373
 30
0.0
 40
4.9999999999999947
  0
CIRCLE
  5
38F
100
AcDbEntity
  8
0
  6
Continuous
 62
               4
100
AcDbCircle
 10
72851.634454893254
 20
90994.480812077702
 30
0.0
 40
4.9999999999999947
  0
CIRCLE
  5
390
100
AcDbEntity
  8
0
  6
Continuous
 62
               4
100
AcDbCircle
 10
73739.68261105998
 20
91462.220711858798
 30
0.0
 40
4.9999999999999947
  0
CIRCLE
  5
391
100
AcDbEntity
  8
0
  6
Continuous
 62
               4
100
AcDbCircle
 10
73727.16011398063
 20
91483.910313037864
 30
0.0
 40
4.9999999999999947
  0
CIRCLE
  5
392
100
AcDbEntity
  8
0
  6
Continuous
 62
               4
100
AcDbCircle
 10
73721.316282010259
 20
91494.032126921433
 30
0.0
 40
4.9999999999999947
  0
CIRCLE
  5
393
100
AcDbEntity
  8
0
  6
Continuous
 62
               4
100
AcDbCircle
 10
74853.345685994311
 20
92171.850227788455
 30
0.0
 40
4.9999999999999947
  0
CIRCLE
  5
394
100
AcDbEntity
  8
0
  6
Continuous
 62
               4
100
AcDbCircle
 10
74898.067045544318
 20
92082.407508688455
 30
0.0
 40
4.9999999999999947
  0
CIRCLE
  5
395
100
AcDbEntity
  8
0
  6
Continuous
 62
               4
100
AcDbCircle
 10
74905.520605469312
 20
92067.500388838453
 30
0.0
 40
4.9999999999999947
  0
CIRCLE
  5
396
100
AcDbEntity
  8
0
  6
Continuous
 62
               4
100
AcDbCircle
 10
74923.409149289306
 20
92031.723301198464
 30
0.0
 40
4.9999999999999947
  0
CIRCLE
  5
397
100
AcDbEntity
  8
0
  6
Continuous
 62
               4
100
AcDbCircle
 10
74790.735805847668
 20
92140.545287715126
 30
0.0
 40
4.9999999999999947
  0
CIRCLE
  5
398
100
AcDbEntity
  8
0
  6
Continuous
 62
               4
100
AcDbCircle
 10
74732.001753638673
 20
92258.013392133114
 30
0.0
 40
4.9999999999999947
  0
CIRCLE
  5
399
100
AcDbEntity
  8
0
  6
Continuous
 62
               4
100
AcDbCircle
 10
74732.001753638673
 20
92258.013392133114
 30
0.0
 40
4.9999999999999947
  0
CIRCLE
  5
39A
100
AcDbEntity
  8
0
  6
Continuous
 62
               4
100
AcDbCircle
 10
74718.585345773681
 20
92284.846207863113
 30
0.0
 40
4.9999999999999947
  0
CIRCLE
  5
39B
100
AcDbEntity
  8
0
  6
Continuous
 62
               4
100
AcDbCircle
 10
74853.345709217669
 20
92171.850239400126
 30
0.0
 40
4.9999999999999947
  0
CIRCLE
  5
39C
100
AcDbEntity
  8
0
  6
Continuous
 62
               4
100
AcDbCircle
 10
74781.195249143668
 20
92316.151159548113
 30
0.0
 40
4.9999999999999947
  0
CIRCLE
  5
39D
100
AcDbEntity
  8
0
  6
Continuous
 62
               4
100
AcDbCircle
 10
73112.79035175858
 20
91642.945540539426
 30
0.0
 40
4.9999999999999947
  0
CIRCLE
  5
39E
100
AcDbEntity
  8
0
  6
Continuous
 62
               4
100
AcDbCircle
 10
73217.140190708567
 20
91695.120460014412
 30
0.0
 40
4.9999999999999947
  0
CIRCLE
  5
39F
100
AcDbEntity
  8
0
  6
Continuous
 62
               4
100
AcDbCircle
 10
73703.708507171497
 20
91777.407788562021
 30
0.0
 40
4.9999999999999947
  0
CIRCLE
  5
3A0
100
AcDbEntity
  8
0
  6
Continuous
 62
               4
100
AcDbCircle
 10
73772.281258481496
 20
91640.262285942037
 30
0.0
 40
4.9999999999999947
  0
ARC
  5
3A1
100
AcDbEntity
  8
0
  6
Continuous
 62
               2
100
AcDbCircle
 10
73084.134445393633
 20
90996.980812077702
 30
0.0
 40
2.4999999999998406
100
AcDbArc
 50
180.00000000000156
 51
0.0
  0
ARC
  5
3A2
100
AcDbEntity
  8
0
  6
Continuous
 62
               6
100
AcDbCircle
 10
73264.395734754624
 20
91511.166652822329
 30
0.0
 40
3.3333333333333295
100
AcDbArc
 50
206.56505117707809
 51
26.565051177078093
  0
ARC
  5
3A3
100
AcDbEntity
  8
0
  6
Continuous
 62
               6
100
AcDbCircle
 10
73335.949910034615
 20
91546.943740462331
 30
0.0
 40
3.3333333333333295
100
AcDbArc
 50
206.56505117707809
 51
26.565051177078093
  0
ARC
  5
3A4
100
AcDbEntity
  8
0
  6
Continuous
 62
               6
100
AcDbCircle
 10
73301.365391982617
 20
91410.394522636343
 30
0.0
 40
4.9999999999999947
100
AcDbArc
 50
206.56505117707809
 51
296.56505117707803
  0
ARC
  5
3A5
100
AcDbEntity
  8
0
  6
Continuous
 62
               6
100
AcDbCircle
 10
73394.385819846604
 20
91456.904736568336
 30
0.0
 40
4.9999999999999947
100
AcDbArc
 50
296.56505117707803
 51
26.565051177078093
  0
ARC
  5
3A6
100
AcDbEntity
  8
0
  6
Continuous
 62
               7
100
AcDbCircle
 10
73283.774990843944
 20
91561.850859743674
 30
0.0
 40
42.666667302449497
100
AcDbArc
 50
98.355094593665939
 51
134.7750077604903
  0
ARC
  5
3A7
100
AcDbEntity
  8
0
  6
Continuous
 62
               7
100
AcDbCircle
 10
73251.589289900046
 20
91583.364292062732
 30
0.0
 40
9.0305854217389765
100
AcDbArc
 50
76.327888804624251
 51
156.8022135495321
  0
ARC
  5
3A8
100
AcDbEntity
  8
0
  6
Continuous
 62
               7
100
AcDbCircle
 10
73285.875665555039
 20
91600.507479890221
 30
0.0
 40
9.0305854217389765
100
AcDbArc
 50
76.327888804624138
 51
156.80221354953193
  0
ARC
  5
3A9
100
AcDbEntity
  8
0
  6
Continuous
 62
               7
100
AcDbCircle
 10
73299.427466402107
 20
91382.965422112349
 30
0.0
 40
10.666666666666655
100
AcDbArc
 50
116.56505117707812
 51
206.56505117707809
  0
ARC
  5
3AA
100
AcDbEntity
  8
0
  6
Continuous
 62
               7
100
AcDbCircle
 10
73417.491855614106
 20
91441.997616718334
 30
0.0
 40
10.666666666666655
100
AcDbArc
 50
26.565051177078555
 51
116.56505117707812
  0
ARC
  5
3AB
100
AcDbEntity
  8
0
  6
Continuous
 62
               7
100
AcDbCircle
 10
73352.496813352438
 20
91424.407214726685
 30
0.0
 40
42.666667302449497
100
AcDbArc
 50
98.355094593665939
 51
134.7750077604903
  0
ARC
  5
3AC
100
AcDbEntity
  8
0
  6
Continuous
 62
               7
100
AcDbCircle
 10
73320.311112408541
 20
91445.920647045743
 30
0.0
 40
9.0305854217389765
100
AcDbArc
 50
76.327888804624251
 51
156.8022135495321
  0
ARC
  5
3AD
100
AcDbEntity
  8
0
  6
Continuous
 62
               7
100
AcDbCircle
 10
73354.597488063533
 20
91463.063834873232
 30
0.0
 40
9.0305854217389765
100
AcDbArc
 50
76.327888804624138
 51
156.80221354953193
  0
ARC
  5
3AE
100
AcDbEntity
  8
0
  6
Continuous
 62
               6
100
AcDbCircle
 10
74456.96532275452
 20
92107.451446822291
 30
0.0
 40
3.3333333333333295
100
AcDbArc
 50
206.56505117707837
 51
26.565051177078399
  0
ARC
  5
3AF
100
AcDbEntity
  8
0
  6
Continuous
 62
               6
100
AcDbCircle
 10
74528.519498034511
 20
92143.22853446228
 30
0.0
 40
3.3333333333333295
100
AcDbArc
 50
206.56505117707837
 51
26.565051177078399
  0
ARC
  5
3B0
100
AcDbEntity
  8
0
  6
Continuous
 62
               6
100
AcDbCircle
 10
74493.934979982514
 20
92006.679316636291
 30
0.0
 40
4.9999999999999947
100
AcDbArc
 50
206.56505117707837
 51
296.56505117707837
  0
ARC
  5
3B1
100
AcDbEntity
  8
0
  6
Continuous
 62
               6
100
AcDbCircle
 10
74586.955407846501
 20
92053.189530568285
 30
0.0
 40
4.9999999999999947
100
AcDbArc
 50
296.56505117707837
 51
26.565051177078399
  0
ARC
  5
3B2
100
AcDbEntity
  8
0
  6
Continuous
 62
               7
100
AcDbCircle
 10
74476.34457884384
 20
92158.135653743622
 30
0.0
 40
42.666667302449497
100
AcDbArc
 50
98.355094593666223
 51
134.7750077604905
  0
ARC
  5
3B3
100
AcDbEntity
  8
0
  6
Continuous
 62
               7
100
AcDbCircle
 10
74444.158877899943
 20
92179.64908606268
 30
0.0
 40
9.0305854217389765
100
AcDbArc
 50
76.327888804624536
 51
156.80221354953233
  0
ARC
  5
3B4
100
AcDbEntity
  8
0
  6
Continuous
 62
               7
100
AcDbCircle
 10
74478.445253554935
 20
92196.792273890169
 30
0.0
 40
9.0305854217389765
100
AcDbArc
 50
76.327888804624422
 51
156.80221354953224
  0
ARC
  5
3B5
100
AcDbEntity
  8
0
  6
Continuous
 62
               7
100
AcDbCircle
 10
74491.997054402018
 20
91979.250216112297
 30
0.0
 40
10.666666666666655
100
AcDbArc
 50
116.56505117707835
 51
206.56505117707837
  0
ARC
  5
3B6
100
AcDbEntity
  8
0
  6
Continuous
 62
               7
100
AcDbCircle
 10
74610.061443614002
 20
92038.282410718297
 30
0.0
 40
10.666666666666655
100
AcDbArc
 50
26.565051177078555
 51
116.56505117707835
  0
ARC
  5
3B7
100
AcDbEntity
  8
0
  6
Continuous
 62
               7
100
AcDbCircle
 10
74545.066401352335
 20
92020.692008726634
 30
0.0
 40
42.666667302449497
100
AcDbArc
 50
98.355094593666223
 51
134.7750077604905
  0
ARC
  5
3B8
100
AcDbEntity
  8
0
  6
Continuous
 62
               7
100
AcDbCircle
 10
74512.880700408437
 20
92042.205441045691
 30
0.0
 40
9.0305854217389765
100
AcDbArc
 50
76.327888804624536
 51
156.80221354953233
  0
ARC
  5
3B9
100
AcDbEntity
  8
0
  6
Continuous
 62
               7
100
AcDbCircle
 10
74547.16707606343
 20
92059.348628873195
 30
0.0
 40
9.0305854217389765
100
AcDbArc
 50
76.327888804624422
 51
156.80221354953224
  0
ARC
  5
3BA
100
AcDbEntity
  8
0
  6
Continuous
 62
               2
100
AcDbCircle
 10
73000.0180041852
 20
91123.134243186243
 30
0.0
 40
2.499999893002284
100
AcDbArc
 50
116.56505117707748
 51
296.56505117707849
  0
ARC
  5
3BB
100
AcDbEntity
  8
0
  6
Continuous
 62
               2
100
AcDbCircle
 10
72999.547470919191
 20
91124.075309718275
 30
0.0
 40
8.1146116745176844
100
AcDbArc
 50
116.56505117707748
 51
296.56505117707849
  0
ARC
  5
3BC
100
AcDbEntity
  8
0
  6
Continuous
 62
               2
100
AcDbCircle
 10
72960.141418616156
 20
91217.794534174333
 30
0.0
 40
6.666666666666659
100
AcDbArc
 50
116.56505117707931
 51
206.56505117707854
  0
ARC
  5
3BD
100
AcDbEntity
  8
0
  6
DIVIDE
 62
               7
100
AcDbCircle
 10
72750.591638210433
 20
90602.376088345598
 30
0.0
 40
4.6666666666666607
100
AcDbArc
 50
180.0
 51
270.0
  0
ARC
  5
3BE
100
AcDbEntity
  8
0
  6
DIVIDE
 62
               7
100
AcDbCircle
 10
72750.591638210433
 20
90602.376088345598
 30
0.0
 40
4.6666666666666607
100
AcDbArc
 50
180.0
 51
270.0
  0
ARC
  5
3BF
100
AcDbEntity
  8
0
  6
DIVIDE
 62
               7
100
AcDbCircle
 10
72750.591638210433
 20
90602.376088345598
 30
0.0
 40
6.6666663333333256
100
AcDbArc
 50
180.0
 51
270.0
  0
ARC
  5
3C0
100
AcDbEntity
  8
0
  6
DIVIDE
 62
               7
100
AcDbCircle
 10
73157.25830487709
 20
90602.376088345598
 30
0.0
 40
6.6666663333333256
100
AcDbArc
 50
270.0
 51
0.0
  0
ARC
  5
3C1
100
AcDbEntity
  8
0
  6
DIVIDE
 62
               7
100
AcDbCircle
 10
73156.925304877092
 20
90602.709388345596
 30
0.0
 40
4.9999999999999947
100
AcDbArc
 50
270.0
 51
0.0
  0
ARC
  5
3C2
100
AcDbEntity
  8
0
  6
DIVIDE
 62
               7
100
AcDbCircle
 10
73192.591638210433
 20
90868.709321678936
 30
0.0
 40
6.6666663333333256
100
AcDbArc
 50
270.0
 51
0.0
  0
ARC
  5
3C3
100
AcDbEntity
  8
0
  6
DIVIDE
 62
               7
100
AcDbCircle
 10
73192.591638210433
 20
90868.709321678936
 30
0.0
 40
4.6666666666666607
100
AcDbArc
 50
270.0
 51
0.0
  0
ARC
  5
3C4
100
AcDbEntity
  8
0
  6
DIVIDE
 62
               7
100
AcDbCircle
 10
73168.591304877089
 20
90857.375988345608
 30
0.0
 40
6.6666663333333256
100
AcDbArc
 50
89.999999999999957
 51
180.0
  0
ARC
  5
3C5
100
AcDbEntity
  8
0
  6
DIVIDE
 62
               7
100
AcDbCircle
 10
73168.591304877089
 20
90857.375988345608
 30
0.0
 40
4.6666666666666607
100
AcDbArc
 50
89.999999999999957
 51
180.0
  0
ARC
  5
3C6
100
AcDbEntity
  8
0
  6
DIVIDE
 62
               7
100
AcDbCircle
 10
73192.591638210433
 20
90926.042655012265
 30
0.0
 40
6.6666663333333256
100
AcDbArc
 50
0.0
 51
89.999999999999957
  0
ARC
  5
3C7
100
AcDbEntity
  8
0
  6
DIVIDE
 62
               7
100
AcDbCircle
 10
73168.591304877089
 20
90926.042655012265
 30
0.0
 40
6.6666663333333256
100
AcDbArc
 50
89.999999999999957
 51
180.0
  0
ARC
  5
3C8
100
AcDbEntity
  8
0
  6
DIVIDE
 62
               7
100
AcDbCircle
 10
73192.591638210433
 20
90926.042655012265
 30
0.0
 40
4.6666666666666607
100
AcDbArc
 50
0.0
 51
89.999999999999957
  0
ARC
  5
3C9
100
AcDbEntity
  8
0
  6
DIVIDE
 62
               7
100
AcDbCircle
 10
73168.591304877089
 20
90926.042655012265
 30
0.0
 40
4.6666666666666607
100
AcDbArc
 50
89.999999999999957
 51
180.0
  0
ARC
  5
3CA
100
AcDbEntity
  8
0
  6
DIVIDE
 62
               7
100
AcDbCircle
 10
72703.144971543763
 20
90975.709321678936
 30
0.0
 40
4.6666666666666607
100
AcDbArc
 50
0.0
 51
89.999999999999957
  0
ARC
  5
3CB
100
AcDbEntity
  8
0
  6
DIVIDE
 62
               7
100
AcDbCircle
 10
72703.144971543763
 20
90975.709321678936
 30
0.0
 40
6.6666663333333256
100
AcDbArc
 50
0.0
 51
89.999999999999957
  0
ARC
  5
3CC
100
AcDbEntity
  8
0
  6
DIVIDE
 62
               7
100
AcDbCircle
 10
72660.024638210423
 20
90975.709321678936
 30
0.0
 40
4.6666666666666607
100
AcDbArc
 50
89.999999999999957
 51
141.07997999999995
  0
ARC
  5
3CD
100
AcDbEntity
  8
0
  6
DIVIDE
 62
               7
100
AcDbCircle
 10
72660.024638210423
 20
90975.709321678936
 30
0.0
 40
6.6666663333333256
100
AcDbArc
 50
89.999999999999957
 51
141.07997999999995
  0
ARC
  5
3CE
100
AcDbEntity
  8
0
  6
DIVIDE
 62
               7
100
AcDbCircle
 10
72839.371304877088
 20
90832.042321678935
 30
0.0
 40
234.46062999999975
100
AcDbArc
 50
141.30208999999999
 51
218.92998999999998
  0
ARC
  5
3CF
100
AcDbEntity
  8
0
  6
DIVIDE
 62
               7
100
AcDbCircle
 10
72839.371304877088
 20
90832.042321678935
 30
0.0
 40
236.46061666666643
100
AcDbArc
 50
141.30020999999996
 51
218.92998999999998
  0
ARC
  5
3D0
100
AcDbEntity
  8
0
  6
DIVIDE
 62
               7
100
AcDbCircle
 10
72660.024638210423
 20
90688.375988345608
 30
0.0
 40
6.6666663333333256
100
AcDbArc
 50
218.91999000000001
 51
270.0
  0
ARC
  5
3D1
100
AcDbEntity
  8
0
  6
DIVIDE
 62
               7
100
AcDbCircle
 10
72660.024638210423
 20
90688.375988345608
 30
0.0
 40
4.6666666666666607
100
AcDbArc
 50
218.91999000000001
 51
270.0
  0
ARC
  5
3D2
100
AcDbEntity
  8
0
  6
DIVIDE
 62
               7
100
AcDbCircle
 10
72660.024638210423
 20
90688.375988345608
 30
0.0
 40
4.6666666666666607
100
AcDbArc
 50
218.91999000000001
 51
270.0
  0
ARC
  5
3D3
100
AcDbEntity
  8
0
  6
DIVIDE
 62
               7
100
AcDbCircle
 10
72739.257971543761
 20
90634.04282167893
 30
0.0
 40
4.6666666666666607
100
AcDbArc
 50
0.0
 51
89.999999999999957
  0
ARC
  5
3D4
100
AcDbEntity
  8
0
  6
DIVIDE
 62
               7
100
AcDbCircle
 10
72739.257971543761
 20
90634.04282167893
 30
0.0
 40
6.6666663333333256
100
AcDbArc
 50
0.0
 51
89.999999999999957
  0
ARC
  5
3D5
100
AcDbEntity
  8
0
  6
DIVIDE
 62
               7
100
AcDbCircle
 10
72707.257971543761
 20
90645.375955012263
 30
0.0
 40
6.6666663333333256
100
AcDbArc
 50
180.0
 51
270.0
  0
ARC
  5
3D6
100
AcDbEntity
  8
0
  6
DIVIDE
 62
               7
100
AcDbCircle
 10
72707.257971543761
 20
90645.375955012263
 30
0.0
 40
4.6666666666666607
100
AcDbArc
 50
180.0
 51
270.0
  0
ARC
  5
3D7
100
AcDbEntity
  8
0
  6
DIVIDE
 62
               7
100
AcDbCircle
 10
72707.257971543761
 20
90645.375955012263
 30
0.0
 40
4.6666666666666607
100
AcDbArc
 50
180.0
 51
270.0
  0
ARC
  5
3D8
100
AcDbEntity
  8
0
  6
DIVIDE
 62
               7
100
AcDbCircle
 10
72695.924638210432
 20
90677.042655012265
 30
0.0
 40
6.6666663333333256
100
AcDbArc
 50
0.0
 51
89.999999999999957
  0
ARC
  5
3D9
100
AcDbEntity
  8
0
  6
DIVIDE
 62
               7
100
AcDbCircle
 10
72695.924638210432
 20
90677.042655012265
 30
0.0
 40
4.6666666666666607
100
AcDbArc
 50
0.0
 51
89.999999999999957
  0
ARC
  5
3DA
100
AcDbEntity
  8
0
  6
DIVIDE
 62
               6
100
AcDbCircle
 10
72978.5753048771
 20
90850.376321678938
 30
0.0
 40
1.6666663333333314
100
AcDbArc
 50
270.0
 51
89.999999999999943
  0
ARC
  5
3DB
100
AcDbEntity
  8
0
  6
DIVIDE
 62
               6
100
AcDbCircle
 10
72941.908304877099
 20
90850.376321678938
 30
0.0
 40
1.6666663333333314
100
AcDbArc
 50
89.999999999999957
 51
270.0
  0
ARC
  5
3DC
100
AcDbEntity
  8
0
  6
DIVIDE
 62
               6
100
AcDbCircle
 10
72992.45130487709
 20
90894.375988345608
 30
0.0
 40
37.333333333333286
100
AcDbArc
 50
312.92998999999992
 51
345.0
  0
ARC
  5
3DD
100
AcDbEntity
  8
0
  6
DIVIDE
 62
               6
100
AcDbCircle
 10
72926.188304877098
 20
90890.882988345606
 30
0.0
 40
19.999999999999979
100
AcDbArc
 50
30.029997999999996
 51
95.669997999999993
  0
ARC
  5
3DE
100
AcDbEntity
  8
0
  6
DIVIDE
 62
               6
100
AcDbCircle
 10
72950.721304877094
 20
90909.855988345604
 30
0.0
 40
33.333331999999963
100
AcDbArc
 50
195.32997999999998
 51
254.66998999999998
  0
ARC
  5
3DF
100
AcDbEntity
  8
0
  6
DIVIDE
 62
               6
100
AcDbCircle
 10
72994.294304877098
 20
90890.882988345606
 30
0.0
 40
19.999999999999979
100
AcDbArc
 50
84.329985999999948
 51
149.96997999999996
  0
ARC
  5
3E0
100
AcDbEntity
  8
0
  6
DIVIDE
 62
               6
100
AcDbCircle
 10
72969.761638210432
 20
90909.855988345604
 30
0.0
 40
33.333331999999963
100
AcDbArc
 50
285.32997999999998
 51
344.66998999999998
  0
ARC
  5
3E1
100
AcDbEntity
  8
0
  6
DIVIDE
 62
               6
100
AcDbCircle
 10
72992.45130487709
 20
90894.375988345608
 30
0.0
 40
16.666665999999982
100
AcDbArc
 50
270.0
 51
345.0
  0
ARC
  5
3E2
100
AcDbEntity
  8
0
  6
DIVIDE
 62
               6
100
AcDbCircle
 10
73054.488304877101
 20
90932.709655012266
 30
0.0
 40
12.666665666666653
100
AcDbArc
 50
89.999999999999957
 51
164.99999999999997
  0
ARC
  5
3E3
100
AcDbEntity
  8
0
  6
DIVIDE
 62
               6
100
AcDbCircle
 10
73054.488304877101
 20
90932.709655012266
 30
0.0
 40
33.333331999999963
100
AcDbArc
 50
89.999999999999957
 51
164.99999999999997
  0
ARC
  5
3E4
100
AcDbEntity
  8
0
  6
DIVIDE
 62
               6
100
AcDbCircle
 10
72632.144638210433
 20
90873.709321678936
 30
0.0
 40
21.666666999999975
100
AcDbArc
 50
154.99999999999994
 51
270.0
  0
ARC
  5
3E5
100
AcDbEntity
  8
0
  6
DIVIDE
 62
               6
100
AcDbCircle
 10
72632.144638210433
 20
90873.709321678936
 30
0.0
 40
6.6666663333333256
100
AcDbArc
 50
154.99999999999994
 51
270.0
  0
ARC
  5
3E6
100
AcDbEntity
  8
0
  6
DIVIDE
 62
               6
100
AcDbCircle
 10
72679.811638210434
 20
90975.376321678938
 30
0.0
 40
9.9999999999999893
100
AcDbArc
 50
270.0
 51
0.0
  0
ARC
  5
3E7
100
AcDbEntity
  8
0
  6
DIVIDE
 62
               6
100
AcDbCircle
 10
72661.161971543755
 20
90975.376321678938
 30
0.0
 40
4.9999999999999947
100
AcDbArc
 50
89.999999999999957
 51
154.99999999999994
  0
ARC
  5
3E8
100
AcDbEntity
  8
0
  6
DIVIDE
 62
               6
100
AcDbCircle
 10
72670.718304877097
 20
90960.375988345608
 30
0.0
 40
4.9999999999999947
100
AcDbArc
 50
89.999999999999957
 51
154.99999999999994
  0
ARC
  5
3E9
100
AcDbEntity
  8
0
  6
DIVIDE
 62
               6
100
AcDbCircle
 10
73182.257304877086
 20
90940.376321678938
 30
0.0
 40
14.999999999999984
100
AcDbArc
 50
0.0
 51
89.999999999999957
  0
ARC
  5
3EA
100
AcDbEntity
  8
0
  6
DIVIDE
 62
               6
100
AcDbCircle
 10
73202.257638210431
 20
90938.709655012266
 30
0.0
 40
1.6666663333333314
100
AcDbArc
 50
0.0
 51
89.999999999999957
  0
ARC
  5
3EB
100
AcDbEntity
  8
0
  6
DIVIDE
 62
               6
100
AcDbCircle
 10
73202.257638210431
 20
90863.709655012266
 30
0.0
 40
1.6666663333333314
100
AcDbArc
 50
270.0
 51
0.0
  0
ARC
  5
3EC
100
AcDbEntity
  8
0
  6
DIVIDE
 62
               6
100
AcDbCircle
 10
73202.257638210431
 20
90938.709655012266
 30
0.0
 40
6.6666663333333256
100
AcDbArc
 50
0.0
 51
89.999999999999957
  0
ARC
  5
3ED
100
AcDbEntity
  8
0
  6
DIVIDE
 62
               6
100
AcDbCircle
 10
73202.257638210431
 20
90938.709655012266
 30
0.0
 40
11.666665999999987
100
AcDbArc
 50
0.0
 51
89.999999999999957
  0
ARC
  5
3EE
100
AcDbEntity
  8
0
  6
DIVIDE
 62
               6
100
AcDbCircle
 10
73202.257638210431
 20
90863.709655012266
 30
0.0
 40
6.6666663333333256
100
AcDbArc
 50
270.0
 51
0.0
  0
ARC
  5
3EF
100
AcDbEntity
  8
0
  6
DIVIDE
 62
               6
100
AcDbCircle
 10
73202.257638210431
 20
90863.709655012266
 30
0.0
 40
11.666665999999987
100
AcDbArc
 50
270.0
 51
0.0
  0
ARC
  5
3F0
100
AcDbEntity
  8
0
  6
DIVIDE
 62
               6
100
AcDbCircle
 10
73197.257971543761
 20
90857.042655012265
 30
0.0
 40
4.9999999999999947
100
AcDbArc
 50
180.0
 51
270.0
  0
ARC
  5
3F1
100
AcDbEntity
  8
0
  6
DIVIDE
 62
               6
100
AcDbCircle
 10
73172.257971543761
 20
90853.709321678936
 30
0.0
 40
3.3333329999999965
100
AcDbArc
 50
89.999999999999957
 51
180.0
  0
ARC
  5
3F2
100
AcDbEntity
  8
0
  6
DIVIDE
 62
               6
100
AcDbCircle
 10
73072.414971543767
 20
90867.042988345609
 30
0.0
 40
14.999999999999984
100
AcDbArc
 50
270.0
 51
345.0
  0
ARC
  5
3F3
100
AcDbEntity
  8
0
  6
DIVIDE
 62
               6
100
AcDbCircle
 10
73068.578304877097
 20
90872.042655012265
 30
0.0
 40
4.9999999999999947
100
AcDbArc
 50
270.0
 51
345.0
  0
ARC
  5
3F4
100
AcDbEntity
  8
0
  6
DIVIDE
 62
               6
100
AcDbCircle
 10
73120.381304877097
 20
90923.709321678936
 30
0.0
 40
16.666665999999982
100
AcDbArc
 50
89.999999999999957
 51
164.99999999999997
  0
ARC
  5
3F5
100
AcDbEntity
  8
0
  6
DIVIDE
 62
               6
100
AcDbCircle
 10
73120.381304877097
 20
90923.709321678936
 30
0.0
 40
31.666664999999963
100
AcDbArc
 50
89.999999999999957
 51
164.99999999999997
  0
ARC
  5
3F6
100
AcDbEntity
  8
0
  6
DIVIDE
 62
               6
100
AcDbCircle
 10
73170.591304877089
 20
90855.375988345608
 30
0.0
 40
6.6666663333333256
100
AcDbArc
 50
89.999999999999957
 51
180.0
  0
ARC
  5
3F7
100
AcDbEntity
  8
0
  6
DIVIDE
 62
               6
100
AcDbCircle
 10
72769.25830487709
 20
90847.042988345609
 30
0.0
 40
9.9999999999999893
100
AcDbArc
 50
270.0
 51
0.0
  0
ARC
  5
3F8
100
AcDbEntity
  8
0
  6
DIVIDE
 62
               6
100
AcDbCircle
 10
72747.591304877089
 20
90633.709655012266
 30
0.0
 40
9.9999999999999893
100
AcDbArc
 50
0.0
 51
89.999999999999957
  0
ARC
  5
3F9
100
AcDbEntity
  8
0
  6
DIVIDE
 62
               6
100
AcDbCircle
 10
72747.591304877089
 20
90633.709655012266
 30
0.0
 40
14.999999999999984
100
AcDbArc
 50
0.0
 51
89.999999999999957
  0
ARC
  5
3FA
100
AcDbEntity
  8
0
  6
DIVIDE
 62
               6
100
AcDbCircle
 10
72730.924638210432
 20
90648.709321678936
 30
0.0
 40
9.9999999999999893
100
AcDbArc
 50
0.0
 51
89.999999999999957
  0
ARC
  5
3FB
100
AcDbEntity
  8
0
  6
DIVIDE
 62
               6
100
AcDbCircle
 10
72724.257971543761
 20
90665.375988345608
 30
0.0
 40
21.666666999999975
100
AcDbArc
 50
180.0
 51
270.0
  0
ARC
  5
3FC
100
AcDbEntity
  8
0
  6
DIVIDE
 62
               6
100
AcDbCircle
 10
72724.257971543761
 20
90830.376321678938
 30
0.0
 40
21.666666999999975
100
AcDbArc
 50
89.999999999999957
 51
180.0
  0
ARC
  5
3FD
100
AcDbEntity
  8
0
  6
DIVIDE
 62
               6
100
AcDbCircle
 10
72724.257971543761
 20
90830.376321678938
 30
0.0
 40
6.6666663333333256
100
AcDbArc
 50
89.999999999999957
 51
180.0
  0
ARC
  5
3FE
100
AcDbEntity
  8
0
  6
DIVIDE
 62
               6
100
AcDbCircle
 10
72724.257971543761
 20
90665.375988345608
 30
0.0
 40
6.6666663333333256
100
AcDbArc
 50
180.0
 51
270.0
  0
ARC
  5
3FF
100
AcDbEntity
  8
0
  6
DIVIDE
 62
               6
100
AcDbCircle
 10
73151.924971543762
 20
90855.375988345608
 30
0.0
 40
3.3333329999999965
100
AcDbArc
 50
270.0
 51
0.0
  0
ARC
  5
400
100
AcDbEntity
  8
0
  6
DIVIDE
 62
               6
100
AcDbCircle
 10
73163.591638210433
 20
90865.375988345608
 30
0.0
 40
3.3333329999999965
100
AcDbArc
 50
89.999999999999957
 51
180.0
  0
ARC
  5
401
100
AcDbEntity
  8
0
  6
DIVIDE
 62
               6
100
AcDbCircle
 10
73163.591638210433
 20
90865.375988345608
 30
0.0
 40
8.3333329999999908
100
AcDbArc
 50
89.999999999999957
 51
180.0
  0
ARC
  5
402
100
AcDbEntity
  8
0
  6
DIVIDE
 62
               6
100
AcDbCircle
 10
73151.924971543762
 20
90855.375988345608
 30
0.0
 40
8.3333329999999908
100
AcDbArc
 50
270.0
 51
0.0
  0
ARC
  5
403
100
AcDbEntity
  8
0
  6
DIVIDE
 62
               6
100
AcDbCircle
 10
73247.381638210427
 20
90966.042655012265
 30
0.0
 40
12.666665666666653
100
AcDbArc
 50
89.999999999999957
 51
134.99999999999994
  0
ARC
  5
404
100
AcDbEntity
  8
0
  6
DIVIDE
 62
               6
100
AcDbCircle
 10
73247.381638210427
 20
90966.042655012265
 30
0.0
 40
33.333331999999963
100
AcDbArc
 50
89.999999999999957
 51
134.99999999999994
  0
ARC
  5
405
100
AcDbEntity
  8
0
  6
DIVIDE
 62
               6
100
AcDbCircle
 10
73369.561638210434
 20
90796.392655012271
 30
0.0
 40
6.6666663333333256
100
AcDbArc
 50
206.59998999999996
 51
296.59998999999993
  0
ARC
  5
406
100
AcDbEntity
  8
0
  6
DIVIDE
 62
               6
100
AcDbCircle
 10
73262.98463821043
 20
90966.042655012265
 30
0.0
 40
12.666665666666653
100
AcDbArc
 50
26.59998999999998
 51
89.999999999999957
  0
ARC
  5
407
100
AcDbEntity
  8
0
  6
DIVIDE
 62
               6
100
AcDbCircle
 10
73262.98463821043
 20
90966.042655012265
 30
0.0
 40
33.333331999999963
100
AcDbArc
 50
26.59998999999998
 51
89.999999999999957
  0
ARC
  5
408
100
AcDbEntity
  8
0
  6
DIVIDE
 62
               6
100
AcDbCircle
 10
73193.337971543762
 20
90982.709321678936
 30
0.0
 40
16.666665999999982
100
AcDbArc
 50
270.0
 51
314.99999999999994
  0
ARC
  5
409
100
AcDbEntity
  8
0
  6
DIVIDE
 62
               6
100
AcDbCircle
 10
73193.337971543762
 20
90982.709321678936
 30
0.0
 40
37.333333333333286
100
AcDbArc
 50
293.80635999999998
 51
314.99999999999994
  0
TEXT
  5
40A
100
AcDbEntity
  8
0
 62
               7
100
AcDbText
 10
72615.797167133031
 20
91970.473780095112
 30
0.0
 40
30.0
  1
屋根材：ＳＦル－フパネル，高級化粧鋼板 t0.5
 41
0.7695
  7
FontTableH_0
 72
               5
 11
73260.797167133031
 21
91970.473780095112
 31
0.0
100
AcDbText
  0
TEXT
  5
40B
100
AcDbEntity
  8
0
 62
               7
100
AcDbText
 10
72615.797167133031
 20
91910.473780095112
 30
0.0
 40
30.0
  1
下葺材：ゴムアスファルトル－フィング t1.0（別途工事）
 41
0.7695
  7
FontTableH_0
 72
               5
 11
73410.797167133031
 21
91910.473780095112
 31
0.0
100
AcDbText
  0
TEXT
  5
40C
100
AcDbEntity
  8
0
 62
               7
100
AcDbText
 10
72615.797167133031
 20
91850.473780095112
 30
0.0
 40
30.0
  1
野地板：耐水合板 t12（別途工事）
 41
0.7695
  7
FontTableH_0
 72
               5
 11
73095.797167133031
 21
91850.473780095112
 31
0.0
100
AcDbText
  0
TEXT
  5
40D
100
AcDbEntity
  8
0
 62
               7
100
AcDbText
 10
72937.631883929906
 20
91326.170598128971
 30
0.0
 40
30.0
  1
30
 50
26.565050889902427
 41
0.7695
  7
FontTableH_0
 72
               5
 11
72964.464699727148
 21
91339.587005859474
 31
0.0
100
AcDbText
  0
TEXT
  5
40E
100
AcDbEntity
  8
0
 62
               7
100
AcDbText
 10
72846.634162575734
 20
91062.814173161518
 30
0.0
 40
30.0
  1
50
 50
90.000002504478189
 41
0.7695
  7
FontTableH_0
 72
               5
 11
72846.634161264388
 21
91092.814173161518
 31
0.0
100
AcDbText
  0
TEXT
  5
40F
100
AcDbEntity
  8
0
 62
               7
100
AcDbText
 10
73668.249356260625
 20
90664.35892210358
 30
0.0
 40
30.0
  1
軒天（別途工事）
 41
0.7695
  7
FontTableH_0
 72
               5
 11
73908.249356260625
 21
90664.35892210358
 31
0.0
100
AcDbText
  0
TEXT
  5
410
100
AcDbEntity
  8
0
 62
               7
100
AcDbText
 10
74534.226936013234
 20
91304.216557601627
 30
0.0
 40
30.0
  1
垂木（別途工事）
 41
0.7695
  7
FontTableH_0
 72
               5
 11
74774.226936013234
 21
91304.216557601627
 31
0.0
100
AcDbText
  0
TEXT
  5
411
100
AcDbEntity
  8
0
 62
               7
100
AcDbText
 10
74873.47030352625
 20
92142.781315902408
 30
0.0
 40
30.0
  1
30
 50
296.56503791276947
 41
0.7695
  7
FontTableH_0
 72
               5
 11
74886.886705179291
 21
92115.948497066434
 31
0.0
100
AcDbText
  0
TEXT
  5
412
100
AcDbEntity
  8
0
 62
               7
100
AcDbText
 10
74912.228848448125
 20
92065.264226058658
 30
0.0
 40
30.0
  1
12
 50
296.56503791276947
 41
0.7695
  7
FontTableH_0
 72
               5
 11
74925.645250101166
 21
92038.431407222684
 31
0.0
100
AcDbText
  0
TEXT
  5
413
100
AcDbEntity
  8
0
 62
               7
100
AcDbText
 10
72874.852546364797
 20
91780.47337319408
 30
0.0
 40
30.0
  1
モジュ－ル側面カバ－
 41
0.7695
  7
FontTableH_0
 72
               5
 11
73174.852546364797
 21
91780.47337319408
 31
0.0
100
AcDbText
  0
TEXT
  5
414
100
AcDbEntity
  8
0
 62
               7
100
AcDbText
 10
72898.777310362188
 20
91710.473169743549
 30
0.0
 40
30.0
  1
アルミ架台
 41
0.7695
  7
FontTableH_0
 72
               5
 11
73048.777310362188
 21
91710.473169743549
 31
0.0
100
AcDbText
  0
TEXT
  5
415
100
AcDbEntity
  8
0
 62
               7
100
AcDbText
 10
74212.944587380422
 20
92442.374618311253
 30
0.0
 40
30.0
  1
太陽電池モジュ－ル
 41
0.7695
  7
FontTableH_0
 72
               5
 11
74482.944587380422
 21
92442.374618311253
 31
0.0
100
AcDbText
  0
TEXT
  5
416
100
AcDbEntity
  8
0
 62
               7
100
AcDbText
 10
74023.044888487188
 20
92302.374618311267
 30
0.0
 40
30.0
  1
モジュ－ル間カバ－
 41
0.7695
  7
FontTableH_0
 72
               5
 11
74293.044888487188
 21
92302.374618311267
 31
0.0
100
AcDbText
  0
TEXT
  5
417
100
AcDbEntity
  8
0
 62
               7
100
AcDbText
 10
74745.339403461141
 20
91812.374618311267
 30
0.0
 40
30.0
  1
取付金具
 41
0.7695
  7
FontTableH_0
 72
               5
 11
74865.339403461141
 21
91812.374618311267
 31
0.0
100
AcDbText
  0
TEXT
  5
418
100
AcDbEntity
  8
0
 62
               7
100
AcDbText
 10
74108.4922761825
 20
92372.374618311267
 30
0.0
 40
30.0
  1
Ｍ8 六角ボルト
 41
0.7695
  7
FontTableH_0
 72
               5
 11
74318.4922761825
 21
92372.374618311267
 31
0.0
100
AcDbText
  0
TEXT
  5
419
100
AcDbEntity
  8
0
 62
               7
100
AcDbText
 10
74134.291836729375
 20
92232.374414860737
 30
0.0
 40
30.0
  1
アルミ架台
 41
0.7695
  7
FontTableH_0
 72
               5
 11
74284.291836729375
 21
92232.374414860737
 31
0.0
100
AcDbText
  0
TEXT
  5
41A
100
AcDbEntity
  8
0
 62
               7
100
AcDbText
 10
74752.424567849172
 20
92228.348129053455
 30
0.0
 40
30.0
  1
39.4
 50
296.56503791276947
 41
0.7695
  7
FontTableH_0
 72
               5
 11
74779.257371155254
 21
92174.682491381507
 31
0.0
100
AcDbText
  0
TEXT
  5
41B
100
AcDbEntity
  8
0
 62
               7
100
AcDbText
 10
74712.995246560109
 20
92307.206975082096
 30
0.0
 40
30.0
  1
9
 50
296.56503791276947
 41
0.7695
  7
FontTableH_0
 72
               5
 11
74719.703447386637
 21
92293.790565664109
 31
0.0
100
AcDbText
  0
TEXT
  5
41C
100
AcDbEntity
  8
0
 62
               7
100
AcDbText
 10
74808.3262605575
 20
92273.069605290424
 30
0.0
 40
30.0
  1
48.4
 50
296.56503791276947
 41
0.7695
  7
FontTableH_0
 72
               5
 11
74835.159063863583
 21
92219.403967618477
 31
0.0
100
AcDbText
  0
TEXT
  5
41D
100
AcDbEntity
  8
0
 62
               7
100
AcDbText
 10
72774.331306130422
 20
90440.888971745502
 30
0.0
 40
30.0
  1
鼻隠シ（別途工事）
 41
0.7695
  7
FontTableH_0
 72
               5
 11
73044.331306130422
 21
90440.888971745502
 31
0.0
100
AcDbText
  0
TEXT
  5
41E
100
AcDbEntity
  8
0
 62
               7
100
AcDbText
 10
72570.290880511937
 20
90510.889124333393
 30
0.0
 40
30.0
  1
広小舞（別途工事）
 41
0.7695
  7
FontTableH_0
 72
               5
 11
72840.290880511937
 21
90510.889124333393
 31
0.0
100
AcDbText
  0
TEXT
  5
41F
100
AcDbEntity
  8
0
 62
               7
100
AcDbText
 10
72362.681932758031
 20
91560.890039860737
 30
0.0
 40
30.0
  1
ハゼ間・小口コ－キング充填
 41
0.7695
  7
FontTableH_0
 72
               5
 11
72752.681932758031
 21
91560.890039860737
 31
0.0
100
AcDbText
  0
TEXT
  5
420
100
AcDbEntity
  8
0
 62
               7
100
AcDbText
 10
72186.503293028203
 20
90580.888819157612
 30
0.0
 40
30.0
  1
軒先唐草：高級化粧鋼板 t0.4, L=2000
 41
0.7695
  7
FontTableH_0
 72
               5
 11
72711.503293028203
 21
90580.888819157612
 31
0.0
100
AcDbText
  0
TEXT
  5
421
100
AcDbEntity
  8
0
 62
               7
100
AcDbText
 10
72200.17933876389
 20
91096.167444645893
 30
0.0
 40
30.0
  1
軒樋（別途工事）
 41
0.7695
  7
FontTableH_0
 72
               5
 11
72440.17933876389
 21
91096.167444645893
 31
0.0
100
AcDbText
  0
TEXT
  5
422
100
AcDbEntity
  8
0
 62
               7
100
AcDbText
 10
73149.313199034063
 20
91666.797022282612
 30
0.0
 40
30.0
  1
35
 50
26.565052597449757
 41
0.7695
  7
FontTableH_0
 72
               5
 11
73176.146014431462
 21
91680.213430812801
 31
0.0
100
AcDbText
  0
TEXT
  5
423
100
AcDbEntity
  8
0
 62
               7
100
AcDbText
 10
73735.758714984579
 20
91724.487655420642
 30
0.0
 40
30.0
  1
46
 50
296.56506523352613
 41
0.7695
  7
FontTableH_0
 72
               5
 11
73749.175129432508
 21
91697.654842982112
 31
0.0
100
AcDbText
  0
TEXT
  5
424
100
AcDbEntity
  8
0
 62
               7
100
AcDbText
 10
72872.039537738499
 20
91483.440292139392
 30
0.0
 40
30.0
  1
（軒先先端から）
 50
26.565050889902427
 41
0.7695
  7
FontTableH_0
 72
               5
 11
73086.702064116442
 21
91590.771553983461
 31
0.0
100
AcDbText
  0
TEXT
  5
425
100
AcDbEntity
  8
0
 62
               7
100
AcDbText
 10
74160.909878721563
 20
91029.965967595112
 30
0.0
 40
30.0
  1
横置き ＠ 832
 50
26.565047474807887
 41
0.7695
  7
FontTableH_0
 72
               5
 11
74335.323186601556
 21
91117.172607447574
 31
0.0
100
AcDbText
  0
TEXT
  5
426
100
AcDbEntity
  8
0
 62
               7
100
AcDbText
 10
71986.958920469609
 20
91742.025598942768
 30
0.0
 40
30.0
  1
※1 各寸法は割付図を参照
 41
0.7695
  7
FontTableH_0
 72
               5
 11
72346.958920469609
 21
91742.025598942768
 31
0.0
100
AcDbText
  0
TEXT
  5
427
100
AcDbEntity
  8
0
 62
               7
100
AcDbText
 10
72914.525173607224
 20
91549.404331829472
 30
0.0
 40
30.0
  1
100以上
 50
26.565050889902427
 41
0.7695
  7
FontTableH_0
 72
               5
 11
73008.440028897574
 21
91596.361758886254
 31
0.0
100
AcDbText
  0
TEXT
  5
428
100
AcDbEntity
  8
0
 62
               7
100
AcDbText
 10
74178.798062315313
 20
90994.188684880268
 30
0.0
 40
30.0
  1
縦置き ＠1235 ※
 50
26.565047474807887
 41
0.7695
  7
FontTableH_0
 72
               5
 11
74393.460595090699
 21
91101.519933929449
 31
0.0
100
AcDbText
  0
LINE
  5
429
100
AcDbEntity
  8
Layer00001
  6
Continuous
 62
               2
100
AcDbLine
 10
72219.837307572132
 20
92443.486916619906
 30
0.0
 11
71753.17064090546
 21
92443.486916619891
 31
0.0
  0
LINE
  5
42A
100
AcDbEntity
  8
Layer00001
  6
DASHED
 62
               6
100
AcDbLine
 10
72219.837307572132
 20
92393.486916619906
 30
0.0
 11
72069.837307572132
 21
92393.486916619891
 31
0.0
  0
LINE
  5
42B
100
AcDbEntity
  8
Layer00001
  6
Continuous
 62
               6
100
AcDbLine
 10
72103.170640905475
 20
92443.486916619891
 30
0.0
 11
71869.837307572132
 21
92443.486916619906
 31
0.0
  0
LINE
  5
42C
100
AcDbEntity
  8
Layer00001
  6
Continuous
 62
               6
100
AcDbLine
 10
71923.170640905475
 20
92574.820249953234
 30
0.0
 11
71923.170640905475
 21
92451.486916619906
 31
0.0
  0
LINE
  5
42D
100
AcDbEntity
  8
Layer00001
  6
Continuous
 62
               6
100
AcDbLine
 10
72049.837307572132
 20
92574.820249953234
 30
0.0
 11
72049.837307572132
 21
92451.486916619891
 31
0.0
  0
LINE
  5
42E
100
AcDbEntity
  8
Layer00001
  6
Continuous
 62
               6
100
AcDbLine
 10
72099.837307572132
 20
92451.486916619891
 30
0.0
 11
72049.837307572132
 21
92451.486916619891
 31
0.0
  0
LINE
  5
42F
100
AcDbEntity
  8
Layer00001
  6
Continuous
 62
               6
100
AcDbLine
 10
72103.170640905475
 20
92448.153583286563
 30
0.0
 11
72103.170640905475
 21
92443.486916619891
 31
0.0
  0
LINE
  5
430
100
AcDbEntity
  8
Layer00001
  6
Continuous
 62
               6
100
AcDbLine
 10
71869.837307572132
 20
92448.153583286563
 30
0.0
 11
71869.837307572132
 21
92443.486916619906
 31
0.0
  0
LINE
  5
431
100
AcDbEntity
  8
Layer00001
  6
Continuous
 62
               6
100
AcDbLine
 10
72043.503974238803
 20
92456.486916619891
 30
0.0
 11
72043.503974238803
 21
92563.153583286563
 31
0.0
  0
LINE
  5
432
100
AcDbEntity
  8
Layer00001
  6
Continuous
 62
               6
100
AcDbLine
 10
71929.503974238803
 20
92456.486916619906
 30
0.0
 11
71929.503974238803
 21
92563.153583286563
 31
0.0
  0
LINE
  5
433
100
AcDbEntity
  8
Layer00001
  6
Continuous
 62
               6
100
AcDbLine
 10
72049.837307572132
 20
92574.820249953234
 30
0.0
 11
72023.170640905475
 21
92574.820249953234
 31
0.0
  0
LINE
  5
434
100
AcDbEntity
  8
Layer00001
  6
Continuous
 62
               6
100
AcDbLine
 10
72023.170640905475
 20
92563.153583286563
 30
0.0
 11
72023.170640905475
 21
92574.820249953234
 31
0.0
  0
LINE
  5
435
100
AcDbEntity
  8
Layer00001
  6
Continuous
 62
               6
100
AcDbLine
 10
71949.837307572132
 20
92563.153583286563
 30
0.0
 11
71949.837307572132
 21
92574.820249953234
 31
0.0
  0
LINE
  5
436
100
AcDbEntity
  8
Layer00001
  6
Continuous
 62
               6
100
AcDbLine
 10
72043.503974238803
 20
92563.153583286563
 30
0.0
 11
72029.837307572132
 21
92563.153583286563
 31
0.0
  0
LINE
  5
437
100
AcDbEntity
  8
Layer00001
  6
Continuous
 62
               6
100
AcDbLine
 10
71943.170640905475
 20
92563.153583286563
 30
0.0
 11
71929.503974238803
 21
92563.153583286563
 31
0.0
  0
LINE
  5
438
100
AcDbEntity
  8
Layer00001
  6
Continuous
 62
               6
100
AcDbLine
 10
71949.837307572132
 20
92574.820249953234
 30
0.0
 11
71923.170640905475
 21
92574.820249953234
 31
0.0
  0
LINE
  5
439
100
AcDbEntity
  8
Layer00001
  6
Continuous
 62
               6
100
AcDbLine
 10
71873.170640905475
 20
92451.486916619906
 30
0.0
 11
71923.170640905475
 21
92451.486916619906
 31
0.0
  0
LINE
  5
43A
100
AcDbEntity
  8
Layer00001
  6
Continuous
 62
               6
100
AcDbLine
 10
72038.503974238803
 20
92451.486916619891
 30
0.0
 11
72016.837307572132
 21
92451.486916619891
 31
0.0
  0
LINE
  5
43B
100
AcDbEntity
  8
Layer00001
  6
Continuous
 62
               6
100
AcDbLine
 10
72013.170640905475
 20
92455.153583286563
 30
0.0
 11
71959.837307572132
 21
92455.153583286563
 31
0.0
  0
LINE
  5
43C
100
AcDbEntity
  8
Layer00001
  6
DASHDOT
 62
               4
100
AcDbLine
 10
71986.503974238803
 20
92383.486916619891
 30
0.0
 11
71986.503974238803
 21
92659.153583286563
 31
0.0
  0
LINE
  5
43D
100
AcDbEntity
  8
Layer00001
  6
Continuous
 62
               6
100
AcDbLine
 10
72016.837307572132
 20
92451.486916619891
 30
0.0
 11
72013.170640905475
 21
92455.153583286563
 31
0.0
  0
LINE
  5
43E
100
AcDbEntity
  8
Layer00001
  6
Continuous
 62
               6
100
AcDbLine
 10
71934.503974238803
 20
92451.486916619906
 30
0.0
 11
71956.170640905475
 21
92451.486916619891
 31
0.0
  0
LINE
  5
43F
100
AcDbEntity
  8
Layer00001
  6
Continuous
 62
               6
100
AcDbLine
 10
71956.170640905475
 20
92451.486916619891
 30
0.0
 11
71959.837307572132
 21
92455.153583286563
 31
0.0
  0
LINE
  5
440
100
AcDbEntity
  8
Layer00001
  6
Continuous
 62
               6
100
AcDbLine
 10
72103.170640905475
 20
92448.153583286563
 30
0.0
 11
72099.837307572132
 21
92451.486916619891
 31
0.0
  0
LINE
  5
441
100
AcDbEntity
  8
Layer00001
  6
Continuous
 62
               6
100
AcDbLine
 10
71873.170640905475
 20
92451.486916619906
 30
0.0
 11
71869.837307572132
 21
92448.153583286563
 31
0.0
  0
LINE
  5
442
100
AcDbEntity
  8
Layer00001
  6
Continuous
 62
               4
100
AcDbLine
 10
72058.170640905475
 20
92581.486916619891
 30
0.0
 11
72058.170640905475
 21
92604.820249953234
 31
0.0
  0
LINE
  5
443
100
AcDbEntity
  8
Layer00001
  6
Continuous
 62
               4
100
AcDbLine
 10
72036.503974238803
 20
92574.820249953234
 30
0.0
 11
72036.503974238803
 21
92593.153583286563
 31
0.0
  0
LINE
  5
444
100
AcDbEntity
  8
Layer00001
  6
Continuous
 62
               4
100
AcDbLine
 10
72043.170640905475
 20
92593.153583286563
 30
0.0
 11
72036.503974238803
 21
92593.153583286563
 31
0.0
  0
LINE
  5
445
100
AcDbEntity
  8
Layer00001
  6
Continuous
 62
               4
100
AcDbLine
 10
72058.170640905475
 20
92581.486916619891
 30
0.0
 11
72043.170640905475
 21
92581.486916619891
 31
0.0
  0
LINE
  5
446
100
AcDbEntity
  8
Layer00001
  6
Continuous
 62
               4
100
AcDbLine
 10
72043.170640905475
 20
92581.486916619891
 30
0.0
 11
72043.170640905475
 21
92593.153583286563
 31
0.0
  0
LINE
  5
447
100
AcDbEntity
  8
Layer00001
  6
Continuous
 62
               4
100
AcDbLine
 10
72058.170640905475
 20
92604.820249953234
 30
0.0
 11
72219.837307572132
 21
92604.820249953234
 31
0.0
  0
LINE
  5
448
100
AcDbEntity
  8
Layer00001
  6
Continuous
 62
               4
100
AcDbLine
 10
72058.170640905475
 20
92451.486916619891
 30
0.0
 11
72219.837307572132
 21
92451.486916619891
 31
0.0
  0
LINE
  5
449
100
AcDbEntity
  8
Layer00001
  6
Continuous
 62
               4
100
AcDbLine
 10
72058.170640905475
 20
92574.820249953234
 30
0.0
 11
72036.503974238803
 21
92574.820249953234
 31
0.0
  0
LINE
  5
44A
100
AcDbEntity
  8
Layer00001
  6
Continuous
 62
               4
100
AcDbLine
 10
72058.170640905475
 20
92574.820249953234
 30
0.0
 11
72058.170640905475
 21
92451.486916619891
 31
0.0
  0
LINE
  5
44B
100
AcDbEntity
  8
Layer00001
  6
Continuous
 62
               4
100
AcDbLine
 10
71914.837307572132
 20
92581.486916619906
 30
0.0
 11
71914.837307572132
 21
92604.820249953234
 31
0.0
  0
LINE
  5
44C
100
AcDbEntity
  8
Layer00001
  6
Continuous
 62
               4
100
AcDbLine
 10
71936.503974238803
 20
92574.820249953234
 30
0.0
 11
71936.503974238803
 21
92593.153583286563
 31
0.0
  0
LINE
  5
44D
100
AcDbEntity
  8
Layer00001
  6
Continuous
 62
               4
100
AcDbLine
 10
71929.837307572132
 20
92593.153583286563
 30
0.0
 11
71936.503974238803
 21
92593.153583286563
 31
0.0
  0
LINE
  5
44E
100
AcDbEntity
  8
Layer00001
  6
Continuous
 62
               4
100
AcDbLine
 10
71914.837307572132
 20
92581.486916619906
 30
0.0
 11
71929.837307572132
 21
92581.486916619906
 31
0.0
  0
LINE
  5
44F
100
AcDbEntity
  8
Layer00001
  6
Continuous
 62
               4
100
AcDbLine
 10
71929.837307572132
 20
92581.486916619906
 30
0.0
 11
71929.837307572132
 21
92593.153583286563
 31
0.0
  0
LINE
  5
450
100
AcDbEntity
  8
Layer00001
  6
Continuous
 62
               4
100
AcDbLine
 10
71914.837307572132
 20
92604.820249953234
 30
0.0
 11
71753.17064090546
 21
92604.820249953234
 31
0.0
  0
LINE
  5
451
100
AcDbEntity
  8
Layer00001
  6
Continuous
 62
               4
100
AcDbLine
 10
71914.837307572132
 20
92451.486916619906
 30
0.0
 11
71753.17064090546
 21
92451.486916619906
 31
0.0
  0
LINE
  5
452
100
AcDbEntity
  8
Layer00001
  6
Continuous
 62
               4
100
AcDbLine
 10
71914.837307572132
 20
92574.820249953234
 30
0.0
 11
71936.503974238803
 21
92574.820249953234
 31
0.0
  0
LINE
  5
453
100
AcDbEntity
  8
Layer00001
  6
Continuous
 62
               4
100
AcDbLine
 10
71914.837307572132
 20
92574.820249953234
 30
0.0
 11
71914.837307572132
 21
92451.486916619906
 31
0.0
  0
LINE
  5
454
100
AcDbEntity
  8
Layer00001
  6
Continuous
 62
               6
100
AcDbLine
 10
72043.170640905475
 20
92581.486916619891
 30
0.0
 11
72043.170640905475
 21
92598.153583286563
 31
0.0
  0
LINE
  5
455
100
AcDbEntity
  8
Layer00001
  6
Continuous
 62
               6
100
AcDbLine
 10
71929.837307572132
 20
92581.486916619906
 30
0.0
 11
71929.837307572132
 21
92598.153583286563
 31
0.0
  0
LINE
  5
456
100
AcDbEntity
  8
Layer00001
  6
Continuous
 62
               6
100
AcDbLine
 10
72043.170640905475
 20
92598.153583286563
 30
0.0
 11
71929.837307572132
 21
92598.153583286563
 31
0.0
  0
LINE
  5
457
100
AcDbEntity
  8
Layer00001
  6
Continuous
 62
               6
100
AcDbLine
 10
72033.170640905475
 20
92608.820249953234
 30
0.0
 11
71939.837307572132
 21
92608.820249953234
 31
0.0
  0
LINE
  5
458
100
AcDbEntity
  8
Layer00001
  6
Continuous
 62
               6
100
AcDbLine
 10
71923.170640905475
 20
92604.820249953234
 30
0.0
 11
71939.837307572132
 21
92608.820249953234
 31
0.0
  0
LINE
  5
459
100
AcDbEntity
  8
Layer00001
  6
Continuous
 62
               6
100
AcDbLine
 10
72049.837307572132
 20
92604.820249953234
 30
0.0
 11
72033.170640905475
 21
92608.820249953234
 31
0.0
  0
LINE
  5
45A
100
AcDbEntity
  8
Layer00001
  6
Continuous
 62
               6
100
AcDbLine
 10
72043.170640905475
 20
92593.486916619891
 30
0.0
 11
71929.837307572132
 21
92593.486916619906
 31
0.0
  0
LINE
  5
45B
100
AcDbEntity
  8
Layer00001
  6
Continuous
 62
               7
100
AcDbLine
 10
72014.837307572132
 20
92614.153583286563
 30
0.0
 11
72014.837307572132
 21
92608.820249953234
 31
0.0
  0
LINE
  5
45C
100
AcDbEntity
  8
Layer00001
  6
Continuous
 62
               7
100
AcDbLine
 10
71958.170640905475
 20
92614.153583286563
 30
0.0
 11
71958.170640905475
 21
92608.820249953234
 31
0.0
  0
LINE
  5
45D
100
AcDbEntity
  8
Layer00001
  6
Continuous
 62
               7
100
AcDbLine
 10
72014.837307572132
 20
92614.153583286563
 30
0.0
 11
71958.170640905475
 21
92614.153583286563
 31
0.0
  0
LINE
  5
45E
100
AcDbEntity
  8
Layer00001
  6
Continuous
 62
               7
100
AcDbLine
 10
72010.670640905475
 20
92620.820249953234
 30
0.0
 11
72010.670640905475
 21
92614.153583286563
 31
0.0
  0
LINE
  5
45F
100
AcDbEntity
  8
Layer00001
  6
Continuous
 62
               7
100
AcDbLine
 10
71962.337307572132
 20
92620.820249953234
 30
0.0
 11
71962.337307572132
 21
92614.153583286563
 31
0.0
  0
LINE
  5
460
100
AcDbEntity
  8
Layer00001
  6
Continuous
 62
               7
100
AcDbLine
 10
72011.503974238803
 20
92620.820249953234
 30
0.0
 11
71961.503974238803
 21
92620.820249953234
 31
0.0
  0
LINE
  5
461
100
AcDbEntity
  8
Layer00001
  6
Continuous
 62
               7
100
AcDbLine
 10
71961.503974238803
 20
92620.820249953234
 30
0.0
 11
71961.503974238803
 21
92640.35007439628
 31
0.0
  0
LINE
  5
462
100
AcDbEntity
  8
Layer00001
  6
Continuous
 62
               7
100
AcDbLine
 10
71967.337307572132
 20
92642.486916619891
 30
0.0
 11
72005.670640905475
 21
92642.486916619891
 31
0.0
  0
LINE
  5
463
100
AcDbEntity
  8
Layer00001
  6
Continuous
 62
               7
100
AcDbLine
 10
71999.837307572132
 20
92620.820249953234
 30
0.0
 11
71999.837307572132
 21
92640.35007439628
 31
0.0
  0
LINE
  5
464
100
AcDbEntity
  8
Layer00001
  6
Continuous
 62
               7
100
AcDbLine
 10
71973.170640905475
 20
92620.820249953234
 30
0.0
 11
71973.170640905475
 21
92640.35007439628
 31
0.0
  0
LINE
  5
465
100
AcDbEntity
  8
Layer00001
  6
Continuous
 62
               7
100
AcDbLine
 10
71973.170640905475
 20
92524.153583286563
 30
0.0
 11
71973.170640905475
 21
92593.486916619906
 31
0.0
  0
LINE
  5
466
100
AcDbEntity
  8
Layer00001
  6
Continuous
 62
               7
100
AcDbLine
 10
71999.837307572132
 20
92524.153583286563
 30
0.0
 11
71999.837307572132
 21
92593.486916619891
 31
0.0
  0
LINE
  5
467
100
AcDbEntity
  8
Layer00001
  6
Continuous
 62
               7
100
AcDbLine
 10
72011.503974238803
 20
92620.820249953234
 30
0.0
 11
72011.503974238803
 21
92640.35007439628
 31
0.0
  0
LINE
  5
468
100
AcDbEntity
  8
Layer00001
  6
Continuous
 62
               7
100
AcDbLine
 10
71996.503974238803
 20
92520.820249953234
 30
0.0
 11
71976.503974238803
 21
92520.820249953234
 31
0.0
  0
LINE
  5
469
100
AcDbEntity
  8
Layer00001
  6
Continuous
 62
               7
100
AcDbLine
 10
71996.503974238803
 20
92593.486916619891
 30
0.0
 11
71996.503974238803
 21
92520.820249953234
 31
0.0
  0
LINE
  5
46A
100
AcDbEntity
  8
Layer00001
  6
Continuous
 62
               7
100
AcDbLine
 10
71976.503974238803
 20
92593.486916619891
 30
0.0
 11
71976.503974238803
 21
92520.820249953234
 31
0.0
  0
LINE
  5
46B
100
AcDbEntity
  8
Layer00001
  6
Continuous
 62
               7
100
AcDbLine
 10
71999.837307572132
 20
92524.153583286563
 30
0.0
 11
71973.170640905475
 21
92524.153583286563
 31
0.0
  0
LINE
  5
46C
100
AcDbEntity
  8
Layer00001
  6
Continuous
 62
               7
100
AcDbLine
 10
71976.503974238803
 20
92520.820249953234
 30
0.0
 11
71973.170640905475
 21
92524.153583286563
 31
0.0
  0
LINE
  5
46D
100
AcDbEntity
  8
Layer00001
  6
Continuous
 62
               7
100
AcDbLine
 10
71996.503974238803
 20
92520.820249953234
 30
0.0
 11
71999.837307572132
 21
92524.153583286563
 31
0.0
  0
LINE
  5
46E
100
AcDbEntity
  8
Layer00001
  6
Continuous
 62
               6
100
AcDbLine
 10
72019.837307572132
 20
92554.820249953234
 30
0.0
 11
71953.170640905475
 21
92554.820249953234
 31
0.0
  0
LINE
  5
46F
100
AcDbEntity
  8
Layer00001
  6
Continuous
 62
               6
100
AcDbLine
 10
72022.379131752474
 20
92544.820249953234
 30
0.0
 11
71950.628816725133
 21
92544.820249953234
 31
0.0
  0
LINE
  5
470
100
AcDbEntity
  8
Layer00001
  6
Continuous
 62
               6
100
AcDbLine
 10
72019.837307572132
 20
92554.820249953234
 30
0.0
 11
72035.170640905475
 21
92563.153583286563
 31
0.0
  0
LINE
  5
471
100
AcDbEntity
  8
Layer00001
  6
Continuous
 62
               6
100
AcDbLine
 10
72022.379131752474
 20
92544.820249953234
 30
0.0
 11
72039.94577410967
 21
92554.367338190845
 31
0.0
  0
LINE
  5
472
100
AcDbEntity
  8
Layer00001
  6
Continuous
 62
               6
100
AcDbLine
 10
72039.94577410967
 20
92554.367338190845
 30
0.0
 11
72035.170640905475
 21
92563.153583286563
 31
0.0
  0
LINE
  5
473
100
AcDbEntity
  8
Layer00001
  6
Continuous
 62
               6
100
AcDbLine
 10
71953.170640905475
 20
92554.820249953234
 30
0.0
 11
71937.837307572132
 21
92563.153583286563
 31
0.0
  0
LINE
  5
474
100
AcDbEntity
  8
Layer00001
  6
Continuous
 62
               6
100
AcDbLine
 10
71950.628816725133
 20
92544.820249953234
 30
0.0
 11
71933.062174367937
 21
92554.367338190845
 31
0.0
  0
LINE
  5
475
100
AcDbEntity
  8
Layer00001
  6
Continuous
 62
               6
100
AcDbLine
 10
71933.062174367937
 20
92554.367338190845
 30
0.0
 11
71937.837307572132
 21
92563.153583286563
 31
0.0
  0
LINE
  5
476
100
AcDbEntity
  8
Layer00001
  6
Continuous
 62
               7
100
AcDbLine
 10
72069.837307572132
 20
92383.486916619891
 30
0.0
 11
71903.170640905475
 21
92383.486916619906
 31
0.0
  0
LINE
  5
477
100
AcDbEntity
  8
Layer00001
  6
Continuous
 62
               7
100
AcDbLine
 10
71909.837307572132
 20
92432.820249953234
 30
0.0
 11
71909.837307572132
 21
92383.486916619906
 31
0.0
  0
LINE
  5
478
100
AcDbEntity
  8
Layer00001
  6
Continuous
 62
               7
100
AcDbLine
 10
72052.503974238803
 20
92443.486916619891
 30
0.0
 11
71920.503974238803
 21
92443.486916619906
 31
0.0
  0
LINE
  5
479
100
AcDbEntity
  8
Layer00001
  6
Continuous
 62
               7
100
AcDbLine
 10
72063.170640905475
 20
92432.820249953234
 30
0.0
 11
72063.170640905475
 21
92383.486916619891
 31
0.0
  0
LINE
  5
47A
100
AcDbEntity
  8
Layer00001
  6
Continuous
 62
               7
100
AcDbLine
 10
72052.503974238803
 20
92383.486916619891
 30
0.0
 11
72052.503974238803
 21
92432.820249953234
 31
0.0
  0
LINE
  5
47B
100
AcDbEntity
  8
Layer00001
  6
Continuous
 62
               7
100
AcDbLine
 10
71920.503974238803
 20
92432.820249953234
 30
0.0
 11
72052.503974238803
 21
92432.820249953234
 31
0.0
  0
LINE
  5
47C
100
AcDbEntity
  8
Layer00001
  6
Continuous
 62
               7
100
AcDbLine
 10
71920.503974238803
 20
92383.486916619906
 30
0.0
 11
71920.503974238803
 21
92432.820249953234
 31
0.0
  0
LINE
  5
47D
100
AcDbEntity
  8
Layer00001
  6
Continuous
 62
               7
100
AcDbLine
 10
71903.170640905475
 20
92430.153583286563
 30
0.0
 11
71903.170640905475
 21
92383.486916619906
 31
0.0
  0
LINE
  5
47E
100
AcDbEntity
  8
Layer00001
  6
DASHED
 62
               7
100
AcDbLine
 10
71986.503974238803
 20
92433.486916619891
 30
0.0
 11
71976.503974238803
 21
92443.486916619891
 31
0.0
  0
LINE
  5
47F
100
AcDbEntity
  8
Layer00001
  6
DASHED
 62
               7
100
AcDbLine
 10
71986.503974238803
 20
92433.486916619891
 30
0.0
 11
71996.503974238803
 21
92443.486916619891
 31
0.0
  0
LINE
  5
480
100
AcDbEntity
  8
Layer00001
  6
DASHED
 62
               7
100
AcDbLine
 10
71966.503974238803
 20
92433.486916619891
 30
0.0
 11
71976.503974238803
 21
92443.486916619891
 31
0.0
  0
LINE
  5
481
100
AcDbEntity
  8
Layer00001
  6
DASHED
 62
               7
100
AcDbLine
 10
71966.503974238803
 20
92433.486916619891
 30
0.0
 11
71956.503974238803
 21
92443.486916619891
 31
0.0
  0
LINE
  5
482
100
AcDbEntity
  8
Layer00001
  6
DASHED
 62
               7
100
AcDbLine
 10
71946.503974238803
 20
92433.486916619906
 30
0.0
 11
71956.503974238803
 21
92443.486916619891
 31
0.0
  0
LINE
  5
483
100
AcDbEntity
  8
Layer00001
  6
DASHED
 62
               7
100
AcDbLine
 10
71946.503974238803
 20
92433.486916619906
 30
0.0
 11
71936.503974238803
 21
92443.486916619906
 31
0.0
  0
LINE
  5
484
100
AcDbEntity
  8
Layer00001
  6
DASHED
 62
               7
100
AcDbLine
 10
71926.503974238803
 20
92433.486916619906
 30
0.0
 11
71936.503974238803
 21
92443.486916619906
 31
0.0
  0
LINE
  5
485
100
AcDbEntity
  8
Layer00001
  6
DASHED
 62
               7
100
AcDbLine
 10
71926.503974238803
 20
92433.486916619906
 30
0.0
 11
71916.503974238803
 21
92443.486916619906
 31
0.0
  0
LINE
  5
486
100
AcDbEntity
  8
Layer00001
  6
Continuous
 62
               7
100
AcDbLine
 10
71903.170640905475
 20
92430.153583286563
 30
0.0
 11
71911.406806698098
 21
92438.389749079186
 31
0.0
  0
LINE
  5
487
100
AcDbEntity
  8
Layer00001
  6
DASHED
 62
               7
100
AcDbLine
 10
71911.406806698098
 20
92438.389749079186
 30
0.0
 11
71916.503974238803
 21
92443.486916619906
 31
0.0
  0
LINE
  5
488
100
AcDbEntity
  8
Layer00001
  6
Continuous
 62
               7
100
AcDbLine
 10
72069.837307572132
 20
92430.153583286563
 30
0.0
 11
72069.837307572132
 21
92383.486916619891
 31
0.0
  0
LINE
  5
489
100
AcDbEntity
  8
Layer00001
  6
DASHED
 62
               7
100
AcDbLine
 10
72006.503974238803
 20
92433.486916619891
 30
0.0
 11
71996.503974238803
 21
92443.486916619891
 31
0.0
  0
LINE
  5
48A
100
AcDbEntity
  8
Layer00001
  6
DASHED
 62
               7
100
AcDbLine
 10
72006.503974238803
 20
92433.486916619891
 30
0.0
 11
72016.503974238803
 21
92443.486916619891
 31
0.0
  0
LINE
  5
48B
100
AcDbEntity
  8
Layer00001
  6
DASHED
 62
               7
100
AcDbLine
 10
72026.503974238803
 20
92433.486916619891
 30
0.0
 11
72016.503974238803
 21
92443.486916619891
 31
0.0
  0
LINE
  5
48C
100
AcDbEntity
  8
Layer00001
  6
DASHED
 62
               7
100
AcDbLine
 10
72026.503974238803
 20
92433.486916619891
 30
0.0
 11
72036.503974238803
 21
92443.486916619891
 31
0.0
  0
LINE
  5
48D
100
AcDbEntity
  8
Layer00001
  6
DASHED
 62
               7
100
AcDbLine
 10
72046.503974238803
 20
92433.486916619891
 30
0.0
 11
72036.503974238803
 21
92443.486916619891
 31
0.0
  0
LINE
  5
48E
100
AcDbEntity
  8
Layer00001
  6
DASHED
 62
               7
100
AcDbLine
 10
72046.503974238803
 20
92433.486916619891
 30
0.0
 11
72056.503974238803
 21
92443.486916619891
 31
0.0
  0
LINE
  5
48F
100
AcDbEntity
  8
Layer00001
  6
Continuous
 62
               7
100
AcDbLine
 10
72069.837307572132
 20
92430.153583286563
 30
0.0
 11
72061.601141779509
 21
92438.389749079186
 31
0.0
  0
LINE
  5
490
100
AcDbEntity
  8
Layer00001
  6
Continuous
 62
               7
100
AcDbLine
 10
72014.837307572132
 20
92460.486916619891
 30
0.0
 11
72014.837307572132
 21
92455.153583286563
 31
0.0
  0
LINE
  5
491
100
AcDbEntity
  8
Layer00001
  6
Continuous
 62
               7
100
AcDbLine
 10
71958.170640905475
 20
92460.486916619891
 30
0.0
 11
71958.17064090546
 21
92455.153583286563
 31
0.0
  0
LINE
  5
492
100
AcDbEntity
  8
Layer00001
  6
Continuous
 62
               7
100
AcDbLine
 10
72014.837307572132
 20
92460.486916619891
 30
0.0
 11
71958.170640905475
 21
92460.486916619891
 31
0.0
  0
LINE
  5
493
100
AcDbEntity
  8
Layer00001
  6
Continuous
 62
               7
100
AcDbLine
 10
72010.670640905475
 20
92467.153583286563
 30
0.0
 11
72010.670640905475
 21
92460.486916619891
 31
0.0
  0
LINE
  5
494
100
AcDbEntity
  8
Layer00001
  6
Continuous
 62
               7
100
AcDbLine
 10
71962.337307572132
 20
92467.153583286563
 30
0.0
 11
71962.337307572132
 21
92460.486916619891
 31
0.0
  0
LINE
  5
495
100
AcDbEntity
  8
Layer00001
  6
Continuous
 62
               7
100
AcDbLine
 10
72011.503974238803
 20
92467.153583286563
 30
0.0
 11
71961.503974238803
 21
92467.153583286563
 31
0.0
  0
LINE
  5
496
100
AcDbEntity
  8
Layer00001
  6
Continuous
 62
               7
100
AcDbLine
 10
71961.503974238803
 20
92467.153583286563
 30
0.0
 11
71961.503974238803
 21
92486.683407729608
 31
0.0
  0
LINE
  5
497
100
AcDbEntity
  8
Layer00001
  6
Continuous
 62
               7
100
AcDbLine
 10
71967.337307572132
 20
92488.820249953234
 30
0.0
 11
72005.670640905475
 21
92488.820249953234
 31
0.0
  0
LINE
  5
498
100
AcDbEntity
  8
Layer00001
  6
Continuous
 62
               7
100
AcDbLine
 10
71999.837307572132
 20
92467.153583286563
 30
0.0
 11
71999.837307572132
 21
92486.683407729608
 31
0.0
  0
LINE
  5
499
100
AcDbEntity
  8
Layer00001
  6
Continuous
 62
               7
100
AcDbLine
 10
71973.170640905475
 20
92467.153583286563
 30
0.0
 11
71973.170640905475
 21
92486.683407729608
 31
0.0
  0
LINE
  5
49A
100
AcDbEntity
  8
Layer00001
  6
Continuous
 62
               7
100
AcDbLine
 10
72011.503974238803
 20
92467.153583286563
 30
0.0
 11
72011.503974238803
 21
92486.683407729608
 31
0.0
  0
LINE
  5
49B
100
AcDbEntity
  8
Layer00001
  6
Continuous
 62
               7
100
AcDbLine
 10
71973.170640905475
 20
92399.219995048392
 30
0.0
 11
71973.170640905475
 21
92432.820249953234
 31
0.0
  0
LINE
  5
49C
100
AcDbEntity
  8
Layer00001
  6
Continuous
 62
               7
100
AcDbLine
 10
71999.837307572132
 20
92399.219995048392
 30
0.0
 11
71999.837307572132
 21
92432.820249953234
 31
0.0
  0
LINE
  5
49D
100
AcDbEntity
  8
Layer00001
  6
Continuous
 62
               7
100
AcDbLine
 10
71996.503974238803
 20
92395.886661715063
 30
0.0
 11
71976.503974238803
 21
92395.886661715063
 31
0.0
  0
LINE
  5
49E
100
AcDbEntity
  8
Layer00001
  6
Continuous
 62
               7
100
AcDbLine
 10
71996.503974238803
 20
92432.820249953234
 30
0.0
 11
71996.503974238803
 21
92395.886661715063
 31
0.0
  0
LINE
  5
49F
100
AcDbEntity
  8
Layer00001
  6
Continuous
 62
               7
100
AcDbLine
 10
71976.503974238803
 20
92432.820249953234
 30
0.0
 11
71976.503974238803
 21
92395.886661715063
 31
0.0
  0
LINE
  5
4A0
100
AcDbEntity
  8
Layer00001
  6
Continuous
 62
               7
100
AcDbLine
 10
71999.837307572132
 20
92399.219995048392
 30
0.0
 11
71973.170640905475
 21
92399.219995048392
 31
0.0
  0
LINE
  5
4A1
100
AcDbEntity
  8
Layer00001
  6
Continuous
 62
               7
100
AcDbLine
 10
71976.503974238803
 20
92395.886661715063
 30
0.0
 11
71973.170640905475
 21
92399.219995048392
 31
0.0
  0
LINE
  5
4A2
100
AcDbEntity
  8
Layer00001
  6
Continuous
 62
               7
100
AcDbLine
 10
71996.503974238803
 20
92395.886661715063
 30
0.0
 11
71999.837307572132
 21
92399.219995048392
 31
0.0
  0
LINE
  5
4A3
100
AcDbEntity
  8
Layer00001
  6
DASHED
 62
               6
100
AcDbLine
 10
71903.170640905475
 20
92393.486916619891
 30
0.0
 11
71753.17064090546
 21
92393.486916619891
 31
0.0
  0
LINE
  5
4A4
100
AcDbEntity
  8
Layer00001
  6
Continuous
 62
               4
100
AcDbLine
 10
72180.302703962152
 20
92484.820249953234
 30
0.0
 11
72146.969311081528
 21
92451.486916619891
 31
0.0
  0
LINE
  5
4A5
100
AcDbEntity
  8
Layer00001
  6
Continuous
 62
               4
100
AcDbLine
 10
72166.160555706534
 20
92484.820249953234
 30
0.0
 11
72132.82716282591
 21
92451.486916619891
 31
0.0
  0
LINE
  5
4A6
100
AcDbEntity
  8
Layer00001
  6
Continuous
 62
               4
100
AcDbLine
 10
72152.018407450902
 20
92484.820249953234
 30
0.0
 11
72118.685014570277
 21
92451.486916619891
 31
0.0
  0
LINE
  5
4A7
100
AcDbEntity
  8
Layer00001
  6
Continuous
 62
               4
100
AcDbLine
 10
72137.876259195284
 20
92484.820249953234
 30
0.0
 11
72104.542866314659
 21
92451.486916619891
 31
0.0
  0
LINE
  5
4A8
100
AcDbEntity
  8
Layer00001
  6
Continuous
 62
               4
100
AcDbLine
 10
72123.734110939651
 20
92484.820249953234
 30
0.0
 11
72090.400718059042
 21
92451.486916619891
 31
0.0
  0
LINE
  5
4A9
100
AcDbEntity
  8
Layer00001
  6
Continuous
 62
               4
100
AcDbLine
 10
72109.591962684033
 20
92484.820249953234
 30
0.0
 11
72076.258569803409
 21
92451.486916619891
 31
0.0
  0
LINE
  5
4AA
100
AcDbEntity
  8
Layer00001
  6
Continuous
 62
               4
100
AcDbLine
 10
72095.449814428415
 20
92484.820249953234
 30
0.0
 11
72062.116421547791
 21
92451.486916619891
 31
0.0
  0
LINE
  5
4AB
100
AcDbEntity
  8
Layer00001
  6
Continuous
 62
               4
100
AcDbLine
 10
72091.503974238803
 20
92495.016539804405
 30
0.0
 11
72058.170640905475
 21
92461.683266018255
 31
0.0
  0
LINE
  5
4AC
100
AcDbEntity
  8
Layer00001
  6
Continuous
 62
               4
100
AcDbLine
 10
72187.165732287394
 20
92604.820249953234
 30
0.0
 11
72153.83233940677
 21
92571.486916619891
 31
0.0
  0
LINE
  5
4AD
100
AcDbEntity
  8
Layer00001
  6
Continuous
 62
               4
100
AcDbLine
 10
72091.503974238803
 20
92509.158662796282
 30
0.0
 11
72058.170640905475
 21
92475.825389010133
 31
0.0
  0
LINE
  5
4AE
100
AcDbEntity
  8
Layer00001
  6
Continuous
 62
               4
100
AcDbLine
 10
72173.023584031776
 20
92604.820249953234
 30
0.0
 11
72139.690191151152
 21
92571.486916619891
 31
0.0
  0
LINE
  5
4AF
100
AcDbEntity
  8
Layer00001
  6
Continuous
 62
               4
100
AcDbLine
 10
72091.503974238803
 20
92523.300785788146
 30
0.0
 11
72058.170640905475
 21
92489.967512001997
 31
0.0
  0
LINE
  5
4B0
100
AcDbEntity
  8
Layer00001
  6
Continuous
 62
               4
100
AcDbLine
 10
72158.881435776144
 20
92604.820249953234
 30
0.0
 11
72125.548042895534
 21
92571.486916619891
 31
0.0
  0
LINE
  5
4B1
100
AcDbEntity
  8
Layer00001
  6
Continuous
 62
               4
100
AcDbLine
 10
72091.503974238803
 20
92537.442908780024
 30
0.0
 11
72058.170640905475
 21
92504.109634993874
 31
0.0
  0
LINE
  5
4B2
100
AcDbEntity
  8
Layer00001
  6
Continuous
 62
               4
100
AcDbLine
 10
72144.739287520526
 20
92604.820249953234
 30
0.0
 11
72111.405894639902
 21
92571.486916619891
 31
0.0
  0
LINE
  5
4B3
100
AcDbEntity
  8
Layer00001
  6
Continuous
 62
               4
100
AcDbLine
 10
72091.503974238803
 20
92551.585031771901
 30
0.0
 11
72058.170640905475
 21
92518.251757985738
 31
0.0
  0
LINE
  5
4B4
100
AcDbEntity
  8
Layer00001
  6
Continuous
 62
               4
100
AcDbLine
 10
72130.597139264908
 20
92604.820249953234
 30
0.0
 11
72097.263746384284
 21
92571.486916619891
 31
0.0
  0
LINE
  5
4B5
100
AcDbEntity
  8
Layer00001
  6
Continuous
 62
               4
100
AcDbLine
 10
72091.503974238803
 20
92565.727154763765
 30
0.0
 11
72058.170640905475
 21
92532.393880977615
 31
0.0
  0
LINE
  5
4B6
100
AcDbEntity
  8
Layer00001
  6
Continuous
 62
               4
100
AcDbLine
 10
72116.454991009276
 20
92604.820249953234
 30
0.0
 11
72058.170640905475
 21
92546.536003969493
 31
0.0
  0
LINE
  5
4B7
100
AcDbEntity
  8
Layer00001
  6
Continuous
 62
               4
100
AcDbLine
 10
72102.312842753658
 20
92604.820249953234
 30
0.0
 11
72058.170640905475
 21
92560.678126961357
 31
0.0
  0
LINE
  5
4B8
100
AcDbEntity
  8
Layer00001
  6
Continuous
 62
               4
100
AcDbLine
 10
72088.170694498025
 20
92604.820249953234
 30
0.0
 11
72058.170640905475
 21
92574.820249953234
 31
0.0
  0
LINE
  5
4B9
100
AcDbEntity
  8
Layer00001
  6
Continuous
 62
               4
100
AcDbLine
 10
72050.695171225976
 20
92581.486916619891
 30
0.0
 11
72044.028492649843
 21
92574.820249953234
 31
0.0
  0
LINE
  5
4BA
100
AcDbEntity
  8
Layer00001
  6
Continuous
 62
               4
100
AcDbLine
 10
71914.837307572132
 20
92462.295932557725
 30
0.0
 11
71904.028272324882
 21
92451.486916619906
 31
0.0
  0
LINE
  5
4BB
100
AcDbEntity
  8
Layer00001
  6
Continuous
 62
               4
100
AcDbLine
 10
72059.886397986789
 20
92604.820249953234
 30
0.0
 11
72058.170640905475
 21
92603.104495936976
 31
0.0
  0
LINE
  5
4BC
100
AcDbEntity
  8
Layer00001
  6
Continuous
 62
               4
100
AcDbLine
 10
71914.837307572132
 20
92476.438055549603
 30
0.0
 11
71889.886124069264
 21
92451.486916619906
 31
0.0
  0
LINE
  5
4BD
100
AcDbEntity
  8
Layer00001
  6
Continuous
 62
               4
100
AcDbLine
 10
71914.837307572132
 20
92490.580178541466
 30
0.0
 11
71875.743975813632
 21
92451.486916619906
 31
0.0
  0
LINE
  5
4BE
100
AcDbEntity
  8
Layer00001
  6
Continuous
 62
               4
100
AcDbLine
 10
71914.837307572132
 20
92504.722301533344
 30
0.0
 11
71861.601827558014
 21
92451.486916619906
 31
0.0
  0
LINE
  5
4BF
100
AcDbEntity
  8
Layer00001
  6
Continuous
 62
               4
100
AcDbLine
 10
71914.837307572132
 20
92518.864424525207
 30
0.0
 11
71881.503974238803
 21
92485.531150739058
 31
0.0
  0
LINE
  5
4C0
100
AcDbEntity
  8
Layer00001
  6
Continuous
 62
               4
100
AcDbLine
 10
71880.793072183005
 20
92484.820249953234
 30
0.0
 11
71847.459679302381
 21
92451.486916619906
 31
0.0
  0
LINE
  5
4C1
100
AcDbEntity
  8
Layer00001
  6
Continuous
 62
               4
100
AcDbLine
 10
71914.837307572132
 20
92533.006547517085
 30
0.0
 11
71881.503974238803
 21
92499.673273730936
 31
0.0
  0
LINE
  5
4C2
100
AcDbEntity
  8
Layer00001
  6
Continuous
 62
               4
100
AcDbLine
 10
71866.650923927387
 20
92484.820249953234
 30
0.0
 11
71833.317531046763
 21
92451.486916619906
 31
0.0
  0
LINE
  5
4C3
100
AcDbEntity
  8
Layer00001
  6
Continuous
 62
               4
100
AcDbLine
 10
71914.837307572132
 20
92547.148670508963
 30
0.0
 11
71881.503974238803
 21
92513.815396722799
 31
0.0
  0
LINE
  5
4C4
100
AcDbEntity
  8
Layer00001
  6
Continuous
 62
               4
100
AcDbLine
 10
71852.508775671755
 20
92484.820249953234
 30
0.0
 11
71819.175382791131
 21
92451.486916619906
 31
0.0
  0
LINE
  5
4C5
100
AcDbEntity
  8
Layer00001
  6
Continuous
 62
               4
100
AcDbLine
 10
71936.503974238803
 20
92583.624086937547
 30
0.0
 11
71927.700121527145
 21
92574.820249953234
 31
0.0
  0
LINE
  5
4C6
100
AcDbEntity
  8
Layer00001
  6
Continuous
 62
               4
100
AcDbLine
 10
71914.837307572132
 20
92561.290793500826
 30
0.0
 11
71881.503974238803
 21
92527.957519714677
 31
0.0
  0
LINE
  5
4C7
100
AcDbEntity
  8
Layer00001
  6
Continuous
 62
               4
100
AcDbLine
 10
71838.366627416137
 20
92484.820249953234
 30
0.0
 11
71805.033234535513
 21
92451.486916619906
 31
0.0
  0
LINE
  5
4C8
100
AcDbEntity
  8
Layer00001
  6
Continuous
 62
               4
100
AcDbLine
 10
71931.891339355861
 20
92593.153583286563
 30
0.0
 11
71929.837307572132
 21
92591.099555172186
 31
0.0
  0
LINE
  5
4C9
100
AcDbEntity
  8
Layer00001
  6
Continuous
 62
               4
100
AcDbLine
 10
71920.891318514317
 20
92581.486916619906
 30
0.0
 11
71881.503974238803
 21
92542.099642706555
 31
0.0
  0
LINE
  5
4CA
100
AcDbEntity
  8
Layer00001
  6
Continuous
 62
               4
100
AcDbLine
 10
71824.224479160504
 20
92484.820249953234
 30
0.0
 11
71790.891086279895
 21
92451.486916619906
 31
0.0
  0
LINE
  5
4CB
100
AcDbEntity
  8
Layer00001
  6
Continuous
 62
               4
100
AcDbLine
 10
71914.837307572132
 20
92589.575039484567
 30
0.0
 11
71881.503974238803
 21
92556.241765698418
 31
0.0
  0
LINE
  5
4CC
100
AcDbEntity
  8
Layer00001
  6
Continuous
 62
               4
100
AcDbLine
 10
71810.082330904886
 20
92484.820249953234
 30
0.0
 11
71776.748938024262
 21
92451.486916619906
 31
0.0
  0
LINE
  5
4CD
100
AcDbEntity
  8
Layer00001
  6
Continuous
 62
               4
100
AcDbLine
 10
71914.837307572132
 20
92603.717162476445
 30
0.0
 11
71881.503974238803
 21
92570.383888690296
 31
0.0
  0
LINE
  5
4CE
100
AcDbEntity
  8
Layer00001
  6
Continuous
 62
               4
100
AcDbLine
 10
71901.79824876388
 20
92604.820249953234
 30
0.0
 11
71868.464855883256
 21
92571.486916619906
 31
0.0
  0
LINE
  5
4CF
100
AcDbEntity
  8
Layer00001
  6
Continuous
 62
               4
100
AcDbLine
 10
71887.656100508248
 20
92604.820249953234
 30
0.0
 11
71854.322707627638
 21
92571.486916619906
 31
0.0
  0
LINE
  5
4D0
100
AcDbEntity
  8
Layer00001
  6
Continuous
 62
               4
100
AcDbLine
 10
71873.51395225263
 20
92604.820249953234
 30
0.0
 11
71840.180559372006
 21
92571.486916619906
 31
0.0
  0
LINE
  5
4D1
100
AcDbEntity
  8
Layer00001
  6
Continuous
 62
               4
100
AcDbLine
 10
71859.371803997012
 20
92604.820249953234
 30
0.0
 11
71826.038411116388
 21
92571.486916619906
 31
0.0
  0
LINE
  5
4D2
100
AcDbEntity
  8
Layer00001
  6
Continuous
 62
               4
100
AcDbLine
 10
71845.229655741379
 20
92604.820249953234
 30
0.0
 11
71811.896262860755
 21
92571.486916619906
 31
0.0
  0
LINE
  5
4D3
100
AcDbEntity
  8
Layer00001
  6
Continuous
 62
               4
100
AcDbLine
 10
71831.087507485761
 20
92604.820249953234
 30
0.0
 11
71797.754114605137
 21
92571.486916619906
 31
0.0
  0
LINE
  5
4D4
100
AcDbEntity
  8
Layer00001
  6
Continuous
 62
               4
100
AcDbLine
 10
71816.945359230129
 20
92604.820249953234
 30
0.0
 11
71783.611966349519
 21
92571.486916619906
 31
0.0
  0
LINE
  5
4D5
100
AcDbEntity
  8
Layer00001
  6
Continuous
 62
               2
100
AcDbLine
 10
72219.837307572132
 20
92343.486916619906
 30
0.0
 11
71753.17064090546
 21
92343.486916619891
 31
0.0
  0
LINE
  5
4D6
100
AcDbEntity
  8
Layer00001
  6
Continuous
 62
               6
100
AcDbLine
 10
72219.837307572132
 20
92360.153583286563
 30
0.0
 11
71753.17064090546
 21
92360.153583286563
 31
0.0
  0
LINE
  5
4D7
100
AcDbEntity
  8
Layer00001
  6
Continuous
 62
               4
100
AcDbLine
 10
71802.803210974511
 20
92604.820249953234
 30
0.0
 11
71769.469818093887
 21
92571.486916619906
 31
0.0
  0
LINE
  5
4D8
100
AcDbEntity
  8
Layer00001
  6
Continuous
 62
               4
100
AcDbLine
 10
71788.661062718893
 20
92604.820249953234
 30
0.0
 11
71755.327669838269
 21
92571.486916619906
 31
0.0
  0
LINE
  5
4D9
100
AcDbEntity
  8
Layer00001
  6
Continuous
 62
               4
100
AcDbLine
 10
71774.51891446326
 20
92604.820249953234
 30
0.0
 11
71753.17064090546
 21
92583.472014532323
 31
0.0
  0
LINE
  5
4DA
100
AcDbEntity
  8
Layer00001
  6
Continuous
 62
               4
100
AcDbLine
 10
71760.376766207643
 20
92604.820249953234
 30
0.0
 11
71753.17064090546
 21
92597.6141375242
 31
0.0
  0
LINE
  5
4DB
100
AcDbEntity
  8
Layer00001
  6
Continuous
 62
               4
100
AcDbLine
 10
71795.940182649269
 20
92484.820249953234
 30
0.0
 11
71762.606789768644
 21
92451.486916619906
 31
0.0
  0
LINE
  5
4DC
100
AcDbEntity
  8
Layer00001
  6
Continuous
 62
               4
100
AcDbLine
 10
71781.798034393636
 20
92484.820249953234
 30
0.0
 11
71753.17064090546
 21
92456.19290760548
 31
0.0
  0
LINE
  5
4DD
100
AcDbEntity
  8
Layer00001
  6
Continuous
 62
               4
100
AcDbLine
 10
71767.655886138018
 20
92484.820249953234
 30
0.0
 11
71753.17064090546
 21
92470.335030597344
 31
0.0
  0
LINE
  5
4DE
100
AcDbEntity
  8
Layer00001
  6
Continuous
 62
               4
100
AcDbLine
 10
72219.837307572132
 20
92481.928413962363
 30
0.0
 11
72189.395755848396
 21
92451.486916619891
 31
0.0
  0
LINE
  5
4DF
100
AcDbEntity
  8
Layer00001
  6
Continuous
 62
               4
100
AcDbLine
 10
72208.587000473402
 20
92484.820249953234
 30
0.0
 11
72175.253607592778
 21
92451.486916619891
 31
0.0
  0
LINE
  5
4E0
100
AcDbEntity
  8
Layer00001
  6
Continuous
 62
               4
100
AcDbLine
 10
72194.44485221777
 20
92484.820249953234
 30
0.0
 11
72161.11145933716
 21
92451.486916619891
 31
0.0
  0
LINE
  5
4E1
100
AcDbEntity
  8
Layer00001
  6
Continuous
 62
               4
100
AcDbLine
 10
72219.837307572132
 20
92453.644167978622
 30
0.0
 11
72217.680052359647
 21
92451.486916619891
 31
0.0
  0
LINE
  5
4E2
100
AcDbEntity
  8
Layer00001
  6
Continuous
 62
               4
100
AcDbLine
 10
72219.837307572132
 20
92467.7862909705
 30
0.0
 11
72203.537904104029
 21
92451.486916619891
 31
0.0
  0
LINE
  5
4E3
100
AcDbEntity
  8
Layer00001
  6
Continuous
 62
               4
100
AcDbLine
 10
72219.837307572132
 20
92595.065397897342
 30
0.0
 11
72196.258784173653
 21
92571.486916619891
 31
0.0
  0
LINE
  5
4E4
100
AcDbEntity
  8
Layer00001
  6
Continuous
 62
               4
100
AcDbLine
 10
72215.450028798645
 20
92604.820249953234
 30
0.0
 11
72182.116635918021
 21
92571.486916619891
 31
0.0
  0
LINE
  5
4E5
100
AcDbEntity
  8
Layer00001
  6
Continuous
 62
               4
100
AcDbLine
 10
72201.307880543027
 20
92604.820249953234
 30
0.0
 11
72167.974487662403
 21
92571.486916619891
 31
0.0
  0
LINE
  5
4E6
100
AcDbEntity
  8
Layer00001
  6
Continuous
 62
               4
100
AcDbLine
 10
72219.837307572132
 20
92580.923274905464
 30
0.0
 11
72210.400932429271
 21
92571.486916619891
 31
0.0
  0
LINE
  5
4E7
100
AcDbEntity
  8
Layer00001
  6
Continuous
 62
               6
100
AcDbLine
 10
72049.837307572132
 20
92604.820249953234
 30
0.0
 11
72049.837307572132
 21
92581.486916619891
 31
0.0
  0
LINE
  5
4E8
100
AcDbEntity
  8
Layer00001
  6
Continuous
 62
               4
100
AcDbLine
 10
72054.837307572132
 20
92529.820249953234
 30
0.0
 11
72058.170640905475
 21
92529.820249953234
 31
0.0
  0
LINE
  5
4E9
100
AcDbEntity
  8
Layer00001
  6
Continuous
 62
               4
100
AcDbLine
 10
72054.837307572132
 20
92496.486916619891
 30
0.0
 11
72058.170640905475
 21
92496.486916619891
 31
0.0
  0
LINE
  5
4EA
100
AcDbEntity
  8
Layer00001
  6
DASHED
 62
               4
100
AcDbLine
 10
72050.666719193556
 20
92516.486916619891
 30
0.0
 11
72058.170640905475
 21
92514.820249953234
 31
0.0
  0
LINE
  5
4EB
100
AcDbEntity
  8
Layer00001
  6
DASHED
 62
               4
100
AcDbLine
 10
72050.666719193556
 20
92509.820249953234
 30
0.0
 11
72058.170640905475
 21
92511.486916619891
 31
0.0
  0
LINE
  5
4EC
100
AcDbEntity
  8
Layer00001
  6
Continuous
 62
               4
100
AcDbLine
 10
72043.170640905475
 20
92581.486916619891
 30
0.0
 11
72043.170640905475
 21
92593.153583286563
 31
0.0
  0
LINE
  5
4ED
100
AcDbEntity
  8
Layer00001
  6
Continuous
 62
               4
100
AcDbLine
 10
72043.170640905475
 20
92587.437857257479
 30
0.0
 11
72036.503974238803
 21
92580.771202500255
 31
0.0
  0
LINE
  5
4EE
100
AcDbEntity
  8
Layer00001
  6
Continuous
 62
               4
100
AcDbLine
 10
72074.028546242407
 20
92604.820249953234
 30
0.0
 11
72058.170640905475
 21
92588.962372945098
 31
0.0
  0
LINE
  5
4EF
100
AcDbEntity
  8
Layer00001
  6
Continuous
 62
               4
100
AcDbLine
 10
71918.17064090546
 20
92529.820249953234
 30
0.0
 11
71914.837307572132
 21
92529.820249953234
 31
0.0
  0
LINE
  5
4F0
100
AcDbEntity
  8
Layer00001
  6
Continuous
 62
               4
100
AcDbLine
 10
71918.17064090546
 20
92496.486916619891
 30
0.0
 11
71914.837307572132
 21
92496.486916619891
 31
0.0
  0
LINE
  5
4F1
100
AcDbEntity
  8
Layer00001
  6
DASHED
 62
               4
100
AcDbLine
 10
71922.341229284051
 20
92516.486916619891
 30
0.0
 11
71914.837307572132
 21
92514.820249953234
 31
0.0
  0
LINE
  5
4F2
100
AcDbEntity
  8
Layer00001
  6
DASHED
 62
               4
100
AcDbLine
 10
71922.341229284051
 20
92509.820249953234
 30
0.0
 11
71914.837307572132
 21
92511.486916619891
 31
0.0
  0
LINE
  5
4F3
100
AcDbEntity
  8
Layer00001
  6
Continuous
 62
               6
100
AcDbLine
 10
71923.170640905475
 20
92604.820249953234
 30
0.0
 11
71923.170640905475
 21
92581.486916619906
 31
0.0
  0
LINE
  5
4F4
100
AcDbEntity
  8
Layer00001
  6
Continuous
 62
               4
100
AcDbLine
 10
71914.837307572132
 20
92623.717162476445
 30
0.0
 11
71914.837307572132
 21
92792.486916619891
 31
0.0
  0
LINE
  5
4F5
100
AcDbEntity
  8
Layer00001
  6
Continuous
 62
               4
100
AcDbLine
 10
71923.170640905475
 20
92624.820249953234
 30
0.0
 11
71923.170640905475
 21
92792.486916619891
 31
0.0
  0
LINE
  5
4F6
100
AcDbEntity
  8
Layer00001
  6
Continuous
 62
               4
100
AcDbLine
 10
71914.837307572132
 20
92782.486916619891
 30
0.0
 11
71923.170640905475
 21
92782.486916619891
 31
0.0
  0
LINE
  5
4F7
100
AcDbEntity
  8
Layer00001
  6
Continuous
 62
               4
100
AcDbLine
 10
72049.837307572132
 20
92624.820249953234
 30
0.0
 11
72049.837307572132
 21
92792.486916619891
 31
0.0
  0
LINE
  5
4F8
100
AcDbEntity
  8
Layer00001
  6
Continuous
 62
               4
100
AcDbLine
 10
71923.170640905475
 20
92782.486916619891
 30
0.0
 11
72049.837307572132
 21
92782.486916619891
 31
0.0
  0
LINE
  5
4F9
100
AcDbEntity
  8
Layer00001
  6
Continuous
 62
               4
100
AcDbLine
 10
72058.170640905475
 20
92624.820249953234
 30
0.0
 11
72058.170640905475
 21
92792.486916619891
 31
0.0
  0
LINE
  5
4FA
100
AcDbEntity
  8
Layer00001
  6
Continuous
 62
               4
100
AcDbLine
 10
72049.837307572132
 20
92782.486916619891
 30
0.0
 11
72058.170640905475
 21
92782.486916619891
 31
0.0
  0
LINE
  5
4FB
100
AcDbEntity
  8
Layer00001
  6
Continuous
 62
               4
100
AcDbLine
 10
71936.503974238803
 20
92613.153623976672
 30
0.0
 11
71936.503974238803
 21
92722.486916619891
 31
0.0
  0
LINE
  5
4FC
100
AcDbEntity
  8
Layer00001
  6
Continuous
 62
               4
100
AcDbLine
 10
71753.170640905475
 20
92712.486916619891
 30
0.0
 11
71936.503974238803
 21
92712.486916619891
 31
0.0
  0
LINE
  5
4FD
100
AcDbEntity
  8
Layer00001
  6
Continuous
 62
               4
100
AcDbLine
 10
72036.503974238803
 20
92613.153583286563
 30
0.0
 11
72036.503974238803
 21
92722.486916619891
 31
0.0
  0
LINE
  5
4FE
100
AcDbEntity
  8
Layer00001
  6
Continuous
 62
               4
100
AcDbLine
 10
71936.503974238803
 20
92712.486916619891
 30
0.0
 11
72036.503974238803
 21
92712.486916619891
 31
0.0
  0
LINE
  5
4FF
100
AcDbEntity
  8
Layer00001
  6
Continuous
 62
               4
100
AcDbLine
 10
72036.503974238803
 20
92712.486916619891
 30
0.0
 11
72219.837307572132
 21
92712.486916619891
 31
0.0
  0
LINE
  5
500
100
AcDbEntity
  8
Layer00001
  6
Continuous
 62
               4
100
AcDbLine
 10
71673.17064090546
 20
92343.486916619891
 30
0.0
 11
71733.17064090546
 21
92343.486916619891
 31
0.0
  0
LINE
  5
501
100
AcDbEntity
  8
Layer00001
  6
Continuous
 62
               4
100
AcDbLine
 10
71673.17064090546
 20
92443.486916619891
 30
0.0
 11
71733.17064090546
 21
92443.486916619891
 31
0.0
  0
LINE
  5
502
100
AcDbEntity
  8
Layer00001
  6
Continuous
 62
               4
100
AcDbLine
 10
71683.17064090546
 20
92343.486916619891
 30
0.0
 11
71683.17064090546
 21
92443.486916619891
 31
0.0
  0
LINE
  5
503
100
AcDbEntity
  8
Layer00001
  6
Continuous
 62
               4
100
AcDbLine
 10
71673.17064090546
 20
92451.486916619906
 30
0.0
 11
71733.17064090546
 21
92451.486916619906
 31
0.0
  0
LINE
  5
504
100
AcDbEntity
  8
Layer00001
  6
Continuous
 62
               4
100
AcDbLine
 10
71673.17064090546
 20
92604.820249953234
 30
0.0
 11
71733.17064090546
 21
92604.820249953234
 31
0.0
  0
LINE
  5
505
100
AcDbEntity
  8
Layer00001
  6
Continuous
 62
               4
100
AcDbLine
 10
71683.17064090546
 20
92451.486916619906
 30
0.0
 11
71683.17064090546
 21
92604.820249953234
 31
0.0
  0
LINE
  5
506
100
AcDbEntity
  8
Layer00001
  6
Continuous
 62
               4
100
AcDbLine
 10
71753.170640905475
 20
92712.486916619891
 30
0.0
 11
71786.503974238803
 21
92718.364482643519
 31
0.0
  0
LINE
  5
507
100
AcDbEntity
  8
Layer00001
  6
Continuous
 62
               4
100
AcDbLine
 10
71786.503974238803
 20
92718.364482643519
 30
0.0
 11
71794.837307572132
 21
92695.820249953234
 31
0.0
  0
LINE
  5
508
100
AcDbEntity
  8
Layer00001
  6
Continuous
 62
               4
100
AcDbLine
 10
72219.837307572132
 20
92712.486916619891
 30
0.0
 11
72186.503974238803
 21
92718.364482643519
 31
0.0
  0
LINE
  5
509
100
AcDbEntity
  8
Layer00001
  6
Continuous
 62
               4
100
AcDbLine
 10
72186.503974238803
 20
92718.364482643519
 30
0.0
 11
72178.17064090546
 21
92695.820249953234
 31
0.0
  0
LINE
  5
50A
100
AcDbEntity
  8
Layer00001
  6
Continuous
 62
               4
100
AcDbLine
 10
72058.170640905475
 20
92782.486916619891
 30
0.0
 11
72116.504528766178
 21
92782.486916619891
 31
0.0
  0
LINE
  5
50B
100
AcDbEntity
  8
Layer00001
  6
Continuous
 62
               4
100
AcDbLine
 10
71914.837307572132
 20
92782.486916619891
 30
0.0
 11
71856.504528766178
 21
92782.486916619891
 31
0.0
  0
LINE
  5
50C
100
AcDbEntity
  8
Layer00001
  6
Continuous
 62
               4
100
AcDbLine
 10
72056.503974238803
 20
92529.820249953234
 30
0.0
 11
72127.325607259394
 21
92652.486916619891
 31
0.0
  0
LINE
  5
50D
100
AcDbEntity
  8
Layer00001
  6
Continuous
 62
               4
100
AcDbLine
 10
72127.325607259394
 20
92652.486916619891
 30
0.0
 11
72256.074021010674
 21
92652.486916619891
 31
0.0
  0
LINE
  5
50E
100
AcDbEntity
  8
Layer00001
  6
Continuous
 62
               4
100
AcDbLine
 10
72056.503974238803
 20
92529.820249953234
 30
0.0
 11
72066.764578538568
 21
92558.011028576802
 31
0.0
  0
LINE
  5
50F
100
AcDbEntity
  8
Layer00001
  6
Continuous
 62
               4
100
AcDbLine
 10
72056.503974238803
 20
92529.820249953234
 30
0.0
 11
72075.787602529395
 21
92552.801583246794
 31
0.0
  0
LINE
  5
510
100
AcDbEntity
  8
Layer00001
  6
Continuous
 62
               3
100
AcDbLine
 10
73086.503974238803
 20
92110.153583286563
 30
0.0
 11
71619.837307572132
 21
92110.153583286563
 31
0.0
  0
LINE
  5
511
100
AcDbEntity
  8
Layer00001
  6
Continuous
 62
               3
100
AcDbLine
 10
73086.503974238803
 20
92876.820249953234
 30
0.0
 11
71619.837307572132
 21
92876.82024995322
 31
0.0
  0
LINE
  5
512
100
AcDbEntity
  8
Layer00001
  6
Continuous
 62
               3
100
AcDbLine
 10
73086.503974238803
 20
92110.153583286563
 30
0.0
 11
73086.503974238803
 21
92876.820249953234
 31
0.0
  0
LINE
  5
513
100
AcDbEntity
  8
Layer00001
  6
Continuous
 62
               3
100
AcDbLine
 10
71619.837307572132
 20
92110.153583286563
 30
0.0
 11
71619.837307572132
 21
92876.82024995322
 31
0.0
  0
LINE
  5
514
100
AcDbEntity
  8
Layer00001
  6
Continuous
 62
               2
100
AcDbLine
 10
71914.837307572132
 20
92563.153583286563
 30
0.0
 11
71923.170640905475
 21
92563.153583286563
 31
0.0
  0
LINE
  5
515
100
AcDbEntity
  8
Layer00001
  6
Continuous
 62
               2
100
AcDbLine
 10
71914.837307572132
 20
92463.153583286563
 30
0.0
 11
71923.170640905475
 21
92463.153583286563
 31
0.0
  0
LINE
  5
516
100
AcDbEntity
  8
Layer00001
  6
Continuous
 62
               2
100
AcDbLine
 10
72058.17064090546
 20
92563.153583286563
 30
0.0
 11
72049.837307572132
 21
92563.153583286563
 31
0.0
  0
LINE
  5
517
100
AcDbEntity
  8
Layer00001
  6
Continuous
 62
               2
100
AcDbLine
 10
72058.17064090546
 20
92463.153583286563
 30
0.0
 11
72049.837307572132
 21
92463.153583286563
 31
0.0
  0
LINE
  5
518
100
AcDbEntity
  8
Layer00001
  6
Continuous
 62
               6
100
AcDbLine
 10
71917.696855493035
 20
92463.153583286563
 30
0.0
 11
71914.837307572132
 21
92466.013131207466
 31
0.0
  0
LINE
  5
519
100
AcDbEntity
  8
Layer00001
  6
Continuous
 62
               6
100
AcDbLine
 10
71922.410900700939
 20
92463.153583286563
 30
0.0
 11
71914.837307572132
 21
92470.72717641537
 31
0.0
  0
LINE
  5
51A
100
AcDbEntity
  8
Layer00001
  6
Continuous
 62
               6
100
AcDbLine
 10
71923.170640905475
 20
92467.107888289946
 30
0.0
 11
71914.837307572132
 21
92475.441221623289
 31
0.0
  0
LINE
  5
51B
100
AcDbEntity
  8
Layer00001
  6
Continuous
 62
               6
100
AcDbLine
 10
71923.170640905475
 20
92471.821933497864
 30
0.0
 11
71914.837307572132
 21
92480.155266831192
 31
0.0
  0
LINE
  5
51C
100
AcDbEntity
  8
Layer00001
  6
Continuous
 62
               6
100
AcDbLine
 10
71923.170640905475
 20
92476.535978705768
 30
0.0
 11
71914.837307572132
 21
92484.869312039111
 31
0.0
  0
LINE
  5
51D
100
AcDbEntity
  8
Layer00001
  6
Continuous
 62
               6
100
AcDbLine
 10
71923.170640905475
 20
92481.250023913686
 30
0.0
 11
71914.837307572132
 21
92489.583357247015
 31
0.0
  0
LINE
  5
51E
100
AcDbEntity
  8
Layer00001
  6
Continuous
 62
               6
100
AcDbLine
 10
71923.170640905475
 20
92485.96406912159
 30
0.0
 11
71914.837307572132
 21
92494.297402454918
 31
0.0
  0
LINE
  5
51F
100
AcDbEntity
  8
Layer00001
  6
Continuous
 62
               6
100
AcDbLine
 10
71923.170640905475
 20
92490.678114329494
 30
0.0
 11
71917.361838615077
 21
92496.486916619891
 31
0.0
  0
LINE
  5
520
100
AcDbEntity
  8
Layer00001
  6
Continuous
 62
               6
100
AcDbLine
 10
71923.170640905475
 20
92495.392159537412
 30
0.0
 11
71919.477978920506
 21
92499.084821522381
 31
0.0
  0
LINE
  5
521
100
AcDbEntity
  8
Layer00001
  6
Continuous
 62
               6
100
AcDbLine
 10
71923.170640905475
 20
92500.106204745316
 30
0.0
 11
71920.7967207068
 21
92502.480124943992
 31
0.0
  0
LINE
  5
522
100
AcDbEntity
  8
Layer00001
  6
Continuous
 62
               6
100
AcDbLine
 10
71923.170640905475
 20
92504.820249953234
 30
0.0
 11
71921.790145544932
 21
92506.200745313778
 31
0.0
  0
LINE
  5
523
100
AcDbEntity
  8
Layer00001
  6
Continuous
 62
               6
100
AcDbLine
 10
71923.170640905475
 20
92509.534295161138
 30
0.0
 11
71922.386332071939
 21
92510.318603994674
 31
0.0
  0
LINE
  5
524
100
AcDbEntity
  8
Layer00001
  6
Continuous
 62
               6
100
AcDbLine
 10
71923.170640905475
 20
92514.248340369057
 30
0.0
 11
71922.456107189937
 21
92514.96287408458
 31
0.0
  0
LINE
  5
525
100
AcDbEntity
  8
Layer00001
  6
Continuous
 62
               6
100
AcDbLine
 10
71923.170640905475
 20
92518.962385576961
 30
0.0
 11
71921.726452192248
 21
92520.406574290188
 31
0.0
  0
LINE
  5
526
100
AcDbEntity
  8
Layer00001
  6
Continuous
 62
               6
100
AcDbLine
 10
71923.170640905475
 20
92523.676430784879
 30
0.0
 11
71919.35483830476
 21
92527.492233385579
 31
0.0
  0
LINE
  5
527
100
AcDbEntity
  8
Layer00001
  6
Continuous
 62
               6
100
AcDbLine
 10
71923.170640905475
 20
92528.390475992783
 30
0.0
 11
71914.837307572132
 21
92536.723809326111
 31
0.0
  0
LINE
  5
528
100
AcDbEntity
  8
Layer00001
  6
Continuous
 62
               6
100
AcDbLine
 10
71923.170640905475
 20
92533.104521200687
 30
0.0
 11
71914.837307572132
 21
92541.43785453403
 31
0.0
  0
LINE
  5
529
100
AcDbEntity
  8
Layer00001
  6
Continuous
 62
               6
100
AcDbLine
 10
71923.170640905475
 20
92537.818566408605
 30
0.0
 11
71914.837307572132
 21
92546.151899741933
 31
0.0
  0
LINE
  5
52A
100
AcDbEntity
  8
Layer00001
  6
Continuous
 62
               6
100
AcDbLine
 10
71923.170640905475
 20
92542.532611616509
 30
0.0
 11
71914.837307572132
 21
92550.865944949852
 31
0.0
  0
LINE
  5
52B
100
AcDbEntity
  8
Layer00001
  6
Continuous
 62
               6
100
AcDbLine
 10
71923.170640905475
 20
92547.246656824427
 30
0.0
 11
71914.837307572132
 21
92555.579990157756
 31
0.0
  0
LINE
  5
52C
100
AcDbEntity
  8
Layer00001
  6
Continuous
 62
               6
100
AcDbLine
 10
71923.170640905475
 20
92551.960702032331
 30
0.0
 11
71914.837307572132
 21
92560.294035365674
 31
0.0
  0
LINE
  5
52D
100
AcDbEntity
  8
Layer00001
  6
Continuous
 62
               6
100
AcDbLine
 10
71923.170640905475
 20
92556.674747240249
 30
0.0
 11
71916.691804859147
 21
92563.153583286563
 31
0.0
  0
LINE
  5
52E
100
AcDbEntity
  8
Layer00001
  6
Continuous
 62
               6
100
AcDbLine
 10
71923.170640905475
 20
92561.388792448153
 30
0.0
 11
71921.405850067065
 21
92563.153583286563
 31
0.0
  0
LINE
  5
52F
100
AcDbEntity
  8
Layer00001
  6
Continuous
 62
               6
100
AcDbLine
 10
71917.026821737105
 20
92529.820249953234
 30
0.0
 11
71914.837307572132
 21
92532.009764118207
 31
0.0
  0
LINE
  5
530
100
AcDbEntity
  8
Layer00001
  6
Continuous
 62
               6
100
AcDbLine
 10
72054.404166522436
 20
92463.153583286563
 30
0.0
 11
72049.837307572132
 21
92467.720442236867
 31
0.0
  0
LINE
  5
531
100
AcDbEntity
  8
Layer00001
  6
Continuous
 62
               6
100
AcDbLine
 10
72058.170640905475
 20
92464.101154111442
 30
0.0
 11
72049.837307572132
 21
92472.434487444771
 31
0.0
  0
LINE
  5
532
100
AcDbEntity
  8
Layer00001
  6
Continuous
 62
               6
100
AcDbLine
 10
72058.170640905475
 20
92468.815199319346
 30
0.0
 11
72049.837307572132
 21
92477.148532652674
 31
0.0
  0
LINE
  5
533
100
AcDbEntity
  8
Layer00001
  6
Continuous
 62
               6
100
AcDbLine
 10
72058.170640905475
 20
92473.529244527264
 30
0.0
 11
72049.837307572132
 21
92481.862577860593
 31
0.0
  0
LINE
  5
534
100
AcDbEntity
  8
Layer00001
  6
Continuous
 62
               6
100
AcDbLine
 10
72058.170640905475
 20
92478.243289735168
 30
0.0
 11
72049.837307572132
 21
92486.576623068497
 31
0.0
  0
LINE
  5
535
100
AcDbEntity
  8
Layer00001
  6
Continuous
 62
               6
100
AcDbLine
 10
72058.170640905475
 20
92482.957334943072
 30
0.0
 11
72049.837307572132
 21
92491.290668276415
 31
0.0
  0
LINE
  5
536
100
AcDbEntity
  8
Layer00001
  6
Continuous
 62
               6
100
AcDbLine
 10
72058.170640905475
 20
92487.67138015099
 30
0.0
 11
72049.837307572132
 21
92496.004713484319
 31
0.0
  0
LINE
  5
537
100
AcDbEntity
  8
Layer00001
  6
Continuous
 62
               6
100
AcDbLine
 10
72058.170640905475
 20
92492.385425358894
 30
0.0
 11
72049.837307572132
 21
92500.718758692237
 31
0.0
  0
LINE
  5
538
100
AcDbEntity
  8
Layer00001
  6
Continuous
 62
               6
100
AcDbLine
 10
72051.946253361166
 20
92503.323858111122
 30
0.0
 11
72049.837307572132
 21
92505.432803900141
 31
0.0
  0
LINE
  5
539
100
AcDbEntity
  8
Layer00001
  6
Continuous
 62
               6
100
AcDbLine
 10
72050.726483582243
 20
92509.257673097949
 30
0.0
 11
72049.837307572132
 21
92510.146849108045
 31
0.0
  0
LINE
  5
53A
100
AcDbEntity
  8
Layer00001
  6
Continuous
 62
               6
100
AcDbLine
 10
72050.519338050697
 20
92514.178863837413
 30
0.0
 11
72049.837307572132
 21
92514.860894315963
 31
0.0
  0
LINE
  5
53B
100
AcDbEntity
  8
Layer00001
  6
Continuous
 62
               6
100
AcDbLine
 10
72050.922597378958
 20
92518.489649717056
 30
0.0
 11
72049.837307572132
 21
92519.574939523867
 31
0.0
  0
LINE
  5
53C
100
AcDbEntity
  8
Layer00001
  6
Continuous
 62
               6
100
AcDbLine
 10
72051.765861659922
 20
92522.36043064401
 30
0.0
 11
72049.837307572132
 21
92524.288984731786
 31
0.0
  0
LINE
  5
53D
100
AcDbEntity
  8
Layer00001
  6
Continuous
 62
               6
100
AcDbLine
 10
72052.959123485896
 20
92525.88121402594
 30
0.0
 11
72049.837307572132
 21
92529.003029939689
 31
0.0
  0
LINE
  5
53E
100
AcDbEntity
  8
Layer00001
  6
Continuous
 62
               6
100
AcDbLine
 10
72054.44945165707
 20
92529.104931062669
 30
0.0
 11
72049.837307572132
 21
92533.717075147608
 31
0.0
  0
LINE
  5
53F
100
AcDbEntity
  8
Layer00001
  6
Continuous
 62
               6
100
AcDbLine
 10
72058.170640905475
 20
92530.097787022183
 30
0.0
 11
72049.837307572132
 21
92538.431120355512
 31
0.0
  0
LINE
  5
540
100
AcDbEntity
  8
Layer00001
  6
Continuous
 62
               6
100
AcDbLine
 10
72058.170640905475
 20
92534.811832230087
 30
0.0
 11
72049.837307572132
 21
92543.14516556343
 31
0.0
  0
LINE
  5
541
100
AcDbEntity
  8
Layer00001
  6
Continuous
 62
               6
100
AcDbLine
 10
72058.170640905475
 20
92539.525877438005
 30
0.0
 11
72049.837307572132
 21
92547.859210771334
 31
0.0
  0
LINE
  5
542
100
AcDbEntity
  8
Layer00001
  6
Continuous
 62
               6
100
AcDbLine
 10
72058.170640905475
 20
92544.239922645909
 30
0.0
 11
72049.837307572132
 21
92552.573255979252
 31
0.0
  0
LINE
  5
543
100
AcDbEntity
  8
Layer00001
  6
Continuous
 62
               6
100
AcDbLine
 10
72058.170640905475
 20
92548.953967853828
 30
0.0
 11
72049.837307572132
 21
92557.287301187156
 31
0.0
  0
LINE
  5
544
100
AcDbEntity
  8
Layer00001
  6
Continuous
 62
               6
100
AcDbLine
 10
72058.170640905475
 20
92553.668013061731
 30
0.0
 11
72049.837307572132
 21
92562.00134639506
 31
0.0
  0
LINE
  5
545
100
AcDbEntity
  8
Layer00001
  6
Continuous
 62
               6
100
AcDbLine
 10
72058.170640905475
 20
92558.38205826965
 30
0.0
 11
72053.399115888547
 21
92563.153583286563
 31
0.0
  0
LINE
  5
546
100
AcDbEntity
  8
Layer00001
  6
Continuous
 62
               6
100
AcDbLine
 10
72058.170640905475
 20
92563.096103477554
 30
0.0
 11
72058.113161096466
 21
92563.153583286563
 31
0.0
  0
LINE
  5
547
100
AcDbEntity
  8
Layer00001
  6
Continuous
 62
               2
100
AcDbLine
 10
71914.837307572132
 20
92463.153583286563
 30
0.0
 11
71914.837307572132
 21
92563.153583286563
 31
0.0
  0
LINE
  5
548
100
AcDbEntity
  8
Layer00001
  6
Continuous
 62
               2
100
AcDbLine
 10
71923.170640905475
 20
92563.153583286563
 30
0.0
 11
71923.170640905475
 21
92463.153583286563
 31
0.0
  0
LINE
  5
549
100
AcDbEntity
  8
Layer00001
  6
Continuous
 62
               2
100
AcDbLine
 10
72049.837307572132
 20
92563.153583286563
 30
0.0
 11
72049.837307572132
 21
92463.153583286563
 31
0.0
  0
LINE
  5
54A
100
AcDbEntity
  8
Layer00001
  6
Continuous
 62
               2
100
AcDbLine
 10
72058.17064090546
 20
92463.153583286563
 30
0.0
 11
72058.17064090546
 21
92563.153583286563
 31
0.0
  0
LINE
  5
54B
100
AcDbEntity
  8
Layer00001
  6
Continuous
 62
               4
100
AcDbLine
 10
72054.003974238789
 20
92463.153583286563
 30
0.0
 11
71944.499873182504
 21
92273.486916619891
 31
0.0
  0
LINE
  5
54C
100
AcDbEntity
  8
Layer00001
  6
Continuous
 62
               4
100
AcDbLine
 10
72054.003974238789
 20
92463.153583286563
 30
0.0
 11
72043.743369939024
 21
92434.962804662995
 31
0.0
  0
LINE
  5
54D
100
AcDbEntity
  8
Layer00001
  6
Continuous
 62
               4
100
AcDbLine
 10
72054.003974238789
 20
92463.153583286563
 30
0.0
 11
72034.720345948197
 21
92440.172249992989
 31
0.0
  0
LINE
  5
54E
100
AcDbEntity
  8
Layer00001
  6
Continuous
 62
               4
100
AcDbLine
 10
71944.499873182504
 20
92273.486916619891
 30
0.0
 11
71632.620944670547
 21
92273.486916619891
 31
0.0
  0
LINE
  5
54F
100
AcDbEntity
  8
Layer00001
  6
Continuous
 62
               4
100
AcDbLine
 10
71919.003974238803
 20
92463.153583286563
 30
0.0
 11
71944.499873182504
 21
92273.486916619891
 31
0.0
  0
LINE
  5
550
100
AcDbEntity
  8
Layer00001
  6
Continuous
 62
               4
100
AcDbLine
 10
71919.003974238803
 20
92463.153583286563
 30
0.0
 11
71928.103054168692
 21
92434.566755123407
 31
0.0
  0
LINE
  5
551
100
AcDbEntity
  8
Layer00001
  6
Continuous
 62
               4
100
AcDbLine
 10
71919.003974238803
 20
92463.153583286563
 30
0.0
 11
71917.777041439273
 21
92433.17868318822
 31
0.0
  0
LINE
  5
552
100
AcDbEntity
  8
Layer00001
  6
Continuous
 62
               4
100
AcDbLine
 10
71916.503974238789
 20
92529.820249953234
 30
0.0
 11
72127.325607259394
 21
92652.486916619891
 31
0.0
  0
LINE
  5
553
100
AcDbEntity
  8
Layer00001
  6
Continuous
 62
               4
100
AcDbLine
 10
71916.503974238789
 20
92529.820249953234
 30
0.0
 11
71939.420218916552
 21
92549.181183036868
 31
0.0
  0
LINE
  5
554
100
AcDbEntity
  8
Layer00001
  6
Continuous
 62
               4
100
AcDbLine
 10
71916.503974238789
 20
92529.820249953234
 30
0.0
 11
71944.660029366802
 21
92540.175758614278
 31
0.0
  0
CIRCLE
  5
555
100
AcDbEntity
  8
Layer00001
  6
Continuous
 62
               7
100
AcDbCircle
 10
71971.503974238803
 20
92574.153583286563
 30
0.0
 40
1.6666666666666647
  0
CIRCLE
  5
556
100
AcDbEntity
  8
Layer00001
  6
Continuous
 62
               7
100
AcDbCircle
 10
71971.503974238803
 20
92591.820249953234
 30
0.0
 40
1.6666666666666647
  0
CIRCLE
  5
557
100
AcDbEntity
  8
Layer00001
  6
Continuous
 62
               7
100
AcDbCircle
 10
71971.503974238803
 20
92556.486916619891
 30
0.0
 40
1.6666666666666647
  0
CIRCLE
  5
558
100
AcDbEntity
  8
Layer00001
  6
Continuous
 62
               7
100
AcDbCircle
 10
71971.503974238803
 20
92582.986916619906
 30
0.0
 40
1.6666666666666647
  0
CIRCLE
  5
559
100
AcDbEntity
  8
Layer00001
  6
Continuous
 62
               7
100
AcDbCircle
 10
71971.503974238803
 20
92565.320249953234
 30
0.0
 40
1.6666666666666647
  0
CIRCLE
  5
55A
100
AcDbEntity
  8
Layer00001
  6
Continuous
 62
               7
100
AcDbCircle
 10
72001.503974238803
 20
92574.153583286563
 30
0.0
 40
1.6666666666666647
  0
CIRCLE
  5
55B
100
AcDbEntity
  8
Layer00001
  6
Continuous
 62
               7
100
AcDbCircle
 10
72001.503974238803
 20
92591.820249953234
 30
0.0
 40
1.6666666666666647
  0
CIRCLE
  5
55C
100
AcDbEntity
  8
Layer00001
  6
Continuous
 62
               7
100
AcDbCircle
 10
72001.503974238803
 20
92556.486916619891
 30
0.0
 40
1.6666666666666647
  0
CIRCLE
  5
55D
100
AcDbEntity
  8
Layer00001
  6
Continuous
 62
               7
100
AcDbCircle
 10
72001.503974238803
 20
92582.986916619891
 30
0.0
 40
1.6666666666666647
  0
CIRCLE
  5
55E
100
AcDbEntity
  8
Layer00001
  6
Continuous
 62
               7
100
AcDbCircle
 10
72001.503974238803
 20
92565.320249953234
 30
0.0
 40
1.6666666666666647
  0
CIRCLE
  5
55F
100
AcDbEntity
  8
Layer00001
  6
Continuous
 62
               4
100
AcDbCircle
 10
71914.837307572132
 20
92782.486916619891
 30
0.0
 40
4.9999999999999947
  0
CIRCLE
  5
560
100
AcDbEntity
  8
Layer00001
  6
Continuous
 62
               4
100
AcDbCircle
 10
71923.170640905475
 20
92782.486916619891
 30
0.0
 40
4.9999999999999947
  0
CIRCLE
  5
561
100
AcDbEntity
  8
Layer00001
  6
Continuous
 62
               4
100
AcDbCircle
 10
71923.170640905475
 20
92782.486916619891
 30
0.0
 40
4.9999999999999947
  0
CIRCLE
  5
562
100
AcDbEntity
  8
Layer00001
  6
Continuous
 62
               4
100
AcDbCircle
 10
72049.837307572132
 20
92782.486916619891
 30
0.0
 40
4.9999999999999947
  0
CIRCLE
  5
563
100
AcDbEntity
  8
Layer00001
  6
Continuous
 62
               4
100
AcDbCircle
 10
72049.837307572132
 20
92782.486916619891
 30
0.0
 40
4.9999999999999947
  0
CIRCLE
  5
564
100
AcDbEntity
  8
Layer00001
  6
Continuous
 62
               4
100
AcDbCircle
 10
72058.170640905475
 20
92782.486916619891
 30
0.0
 40
4.9999999999999947
  0
CIRCLE
  5
565
100
AcDbEntity
  8
Layer00001
  6
Continuous
 62
               4
100
AcDbCircle
 10
71936.503974238803
 20
92712.486916619891
 30
0.0
 40
4.9999999999999947
  0
CIRCLE
  5
566
100
AcDbEntity
  8
Layer00001
  6
Continuous
 62
               4
100
AcDbCircle
 10
71936.503974238803
 20
92712.486916619891
 30
0.0
 40
4.9999999999999947
  0
CIRCLE
  5
567
100
AcDbEntity
  8
Layer00001
  6
Continuous
 62
               4
100
AcDbCircle
 10
72036.503974238803
 20
92712.486916619891
 30
0.0
 40
4.9999999999999947
  0
CIRCLE
  5
568
100
AcDbEntity
  8
Layer00001
  6
Continuous
 62
               4
100
AcDbCircle
 10
72036.503974238803
 20
92712.486916619891
 30
0.0
 40
4.9999999999999947
  0
CIRCLE
  5
569
100
AcDbEntity
  8
Layer00001
  6
Continuous
 62
               4
100
AcDbCircle
 10
71683.17064090546
 20
92343.486916619891
 30
0.0
 40
4.9999999999999947
  0
CIRCLE
  5
56A
100
AcDbEntity
  8
Layer00001
  6
Continuous
 62
               4
100
AcDbCircle
 10
71683.17064090546
 20
92443.486916619891
 30
0.0
 40
4.9999999999999947
  0
CIRCLE
  5
56B
100
AcDbEntity
  8
Layer00001
  6
Continuous
 62
               4
100
AcDbCircle
 10
71683.17064090546
 20
92451.486916619906
 30
0.0
 40
4.9999999999999947
  0
CIRCLE
  5
56C
100
AcDbEntity
  8
Layer00001
  6
Continuous
 62
               4
100
AcDbCircle
 10
71683.17064090546
 20
92604.820249953234
 30
0.0
 40
4.9999999999999947
  0
ARC
  5
56D
100
AcDbEntity
  8
Layer00001
  6
Continuous
 62
               6
100
AcDbCircle
 10
71946.503974238803
 20
92563.153583286563
 30
0.0
 40
3.3333333333333295
100
AcDbArc
 50
179.99999999999977
 51
0.0
  0
ARC
  5
56E
100
AcDbEntity
  8
Layer00001
  6
Continuous
 62
               6
100
AcDbCircle
 10
72026.503974238803
 20
92563.153583286563
 30
0.0
 40
3.3333333333333295
100
AcDbArc
 50
179.99999999999977
 51
0.0
  0
ARC
  5
56F
100
AcDbEntity
  8
Layer00001
  6
Continuous
 62
               6
100
AcDbCircle
 10
71934.503974238803
 20
92456.486916619906
 30
0.0
 40
4.9999999999999947
100
AcDbArc
 50
179.99999999999977
 51
269.99999999999977
  0
ARC
  5
570
100
AcDbEntity
  8
Layer00001
  6
Continuous
 62
               6
100
AcDbCircle
 10
72038.503974238803
 20
92456.486916619891
 30
0.0
 40
4.9999999999999947
100
AcDbArc
 50
269.99999999999977
 51
0.0
  0
ARC
  5
571
100
AcDbEntity
  8
Layer00001
  6
Continuous
 62
               7
100
AcDbCircle
 10
71986.503974238803
 20
92599.820249317447
 30
0.0
 40
42.666667302449497
100
AcDbArc
 50
71.790043416587551
 51
108.20995658341192
  0
ARC
  5
572
100
AcDbEntity
  8
Layer00001
  6
Continuous
 62
               7
100
AcDbCircle
 10
71967.337307572132
 20
92633.456331198162
 30
0.0
 40
9.0305854217389765
100
AcDbArc
 50
49.762837627545871
 51
130.23716237245372
  0
ARC
  5
573
100
AcDbEntity
  8
Layer00001
  6
Continuous
 62
               7
100
AcDbCircle
 10
72005.670640905475
 20
92633.456331198162
 30
0.0
 40
9.0305854217389765
100
AcDbArc
 50
49.76283762754575
 51
130.23716237245361
  0
ARC
  5
574
100
AcDbEntity
  8
Layer00001
  6
Continuous
 62
               7
100
AcDbCircle
 10
71920.503974238803
 20
92432.820249953234
 30
0.0
 40
10.666666666666655
100
AcDbArc
 50
89.99999999999973
 51
179.99999999999977
  0
ARC
  5
575
100
AcDbEntity
  8
Layer00001
  6
Continuous
 62
               7
100
AcDbCircle
 10
72052.503974238803
 20
92432.820249953234
 30
0.0
 40
10.666666666666655
100
AcDbArc
 50
0.0
 51
89.99999999999973
  0
ARC
  5
576
100
AcDbEntity
  8
Layer00001
  6
Continuous
 62
               7
100
AcDbCircle
 10
71986.503974238803
 20
92446.153582650775
 30
0.0
 40
42.666667302449497
100
AcDbArc
 50
71.790043416587551
 51
108.20995658341192
  0
ARC
  5
577
100
AcDbEntity
  8
Layer00001
  6
Continuous
 62
               7
100
AcDbCircle
 10
71967.337307572132
 20
92479.78966453149
 30
0.0
 40
9.0305854217389765
100
AcDbArc
 50
49.762837627545871
 51
130.23716237245372
  0
ARC
  5
578
100
AcDbEntity
  8
Layer00001
  6
Continuous
 62
               7
100
AcDbCircle
 10
72005.670640905475
 20
92479.78966453149
 30
0.0
 40
9.0305854217389765
100
AcDbArc
 50
49.76283762754575
 51
130.23716237245361
  0
ARC
  5
579
100
AcDbEntity
  8
Layer00001
  6
Continuous
 62
               4
100
AcDbCircle
 10
72084.721922956756
 20
92513.153583286563
 30
0.0
 40
34.217948717948737
100
AcDbArc
 50
150.85156760392258
 51
209.14843239607737
  0
ARC
  5
57A
100
AcDbEntity
  8
Layer00001
  6
Continuous
 62
               4
100
AcDbCircle
 10
71888.286025520851
 20
92513.153583286563
 30
0.0
 40
34.217948717948737
100
AcDbArc
 50
330.85156760392255
 51
29.148432396077453
  0
ELLIPSE
  5
57B
100
AcDbEntity
  8
Layer00001
  6
Continuous
 62
               4
100
AcDbEllipse
 10
72092.337584835826
 20
92802.486916619891
 30
0.0
 11
-39.999999999999957
 21
0.0000000000000049
 31
0.0
210
0.0
220
0.0
230
1.0
 40
0.5
 41
0.0
 42
6.2831853071795862
  0
ELLIPSE
  5
57C
100
AcDbEntity
  8
Layer00001
  6
Continuous
 62
               4
100
AcDbEllipse
 10
71880.670363641766
 20
92802.486916619891
 30
0.0
 11
39.999999999999957
 21
0.0
 31
0.0
210
0.0
220
0.0
230
1.0
 40
0.5
 41
0.0
 42
6.2831853071795862
  0
TEXT
  5
57D
100
AcDbEntity
  8
Layer00001
 62
               7
100
AcDbText
 10
71856.497240375218
 20
92787.479598780003
 30
0.0
 40
30.0
  1
2.5
 41
0.7695
  7
FontTableH_0
 72
               5
 11
71901.497240375218
 21
92787.479598780003
 31
0.0
100
AcDbText
  0
TEXT
  5
57E
100
AcDbEntity
  8
Layer00001
 62
               7
100
AcDbText
 10
71971.497036924688
 20
92787.479598780003
 30
0.0
 40
30.0
  1
38
 41
0.7695
  7
FontTableH_0
 72
               5
 11
72001.497036924688
 21
92787.479598780003
 31
0.0
100
AcDbText
  0
TEXT
  5
57F
100
AcDbEntity
  8
Layer00001
 62
               7
100
AcDbText
 10
72071.497036924688
 20
92787.479598780003
 30
0.0
 40
30.0
  1
2.5
 41
0.7695
  7
FontTableH_0
 72
               5
 11
72116.497036924688
 21
92787.479598780003
 31
0.0
100
AcDbText
  0
TEXT
  5
580
100
AcDbEntity
  8
Layer00001
 62
               7
100
AcDbText
 10
71799.83260821375
 20
92717.482447087299
 30
0.0
 40
30.0
  1
＠1235
 41
0.7695
  7
FontTableH_0
 72
               5
 11
71889.83260821375
 21
92717.482447087299
 31
0.0
100
AcDbText
  0
TEXT
  5
581
100
AcDbEntity
  8
Layer00001
 62
               7
100
AcDbText
 10
71971.499173155156
 20
92717.482447087299
 30
0.0
 40
30.0
  1
30
 41
0.7695
  7
FontTableH_0
 72
               5
 11
72001.499173155156
 21
92717.482447087299
 31
0.0
100
AcDbText
  0
TEXT
  5
582
100
AcDbEntity
  8
Layer00001
 62
               7
100
AcDbText
 10
72083.165839821828
 20
92717.482447087299
 30
0.0
 40
30.0
  1
＠1235
 41
0.7695
  7
FontTableH_0
 72
               5
 11
72173.165839821828
 21
92717.482447087299
 31
0.0
100
AcDbText
  0
TEXT
  5
583
100
AcDbEntity
  8
Layer00001
 62
               7
100
AcDbText
 10
71678.163907041875
 20
92378.479354639392
 30
0.0
 40
30.0
  1
30
 50
90.000002504478189
 41
0.7695
  7
FontTableH_0
 72
               5
 11
71678.163905730529
 21
92408.479354639392
 31
0.0
100
AcDbText
  0
TEXT
  5
584
100
AcDbEntity
  8
Layer00001
 62
               7
100
AcDbText
 10
71678.163907041875
 20
92513.146102686253
 30
0.0
 40
30.0
  1
46
 50
90.000002504478189
 41
0.7695
  7
FontTableH_0
 72
               5
 11
71678.163905730529
 21
92543.146102686253
 31
0.0
100
AcDbText
  0
TEXT
  5
585
100
AcDbEntity
  8
Layer00001
 62
               7
100
AcDbText
 10
72167.327115049688
 20
92657.479191878971
 30
0.0
 40
30.0
  1
ビス頭
 41
0.7695
  7
FontTableH_0
 72
               5
 11
72257.327115049688
 21
92657.479191878971
 31
0.0
100
AcDbText
  0
TEXT
  5
586
100
AcDbEntity
  8
Layer00001
 62
               7
100
AcDbText
 10
72137.337694476781
 20
92802.487533350315
 30
0.0
 40
30.0
  1
※
 41
0.7695
  7
FontTableH_0
 72
               5
 11
72167.337694476781
 21
92802.487533350315
 31
0.0
100
AcDbText
  0
TEXT
  5
587
100
AcDbEntity
  8
Layer00001
 62
               7
100
AcDbText
 10
71925.670468321172
 20
92802.487533350315
 30
0.0
 40
30.0
  1
※
 41
0.7695
  7
FontTableH_0
 72
               5
 11
71955.670468321172
 21
92802.487533350315
 31
0.0
100
AcDbText
  0
TEXT
  5
588
100
AcDbEntity
  8
Layer00001
 62
               7
100
AcDbText
 10
71649.499864886937
 20
92278.487085759174
 30
0.0
 40
30.0
  1
スペ－サ（2.5mm）
 41
0.7695
  7
FontTableH_0
 72
               5
 11
71904.499864886937
 21
92278.487085759174
 31
0.0
100
AcDbText
  0
TEXT
  5
589
100
AcDbEntity
  8
Layer00001
 62
               7
100
AcDbText
 10
71663.170684487355
 20
92145.144800602924
 30
0.0
 40
30.0
  1
  ためにアルミ架台にスペ－サを取り付ける。その際スペ－サ2枚分（2.5mm×2＝5mm）割付幅が広がる。
 41
0.7695
  7
FontTableH_0
 72
               5
 11
73073.170684487355
 21
92145.144800602924
 31
0.0
100
AcDbText
  0
TEXT
  5
58A
100
AcDbEntity
  8
Layer00001
 62
               7
100
AcDbText
 10
71633.170684487355
 20
92195.144800602924
 30
0.0
 40
30.0
  1
※  縦置きの場合、モジュ－ル側面にビス頭がでてくるので、アルミ架台に直接ビス頭が触れるのを防ぐ
 41
0.7695
  7
FontTableH_0
 72
               5
 11
73043.170684487355
 21
92195.144800602924
 31
0.0
100
AcDbText
  0
LINE
  5
58B
100
AcDbEntity
  8
Layer00002
  6
Continuous
 62
               4
100
AcDbLine
 10
72434.503059566385
 20
92393.5195309931
 30
0.0
 11
72775.284055955563
 21
92590.269530993115
 31
0.0
  0
LINE
  5
58C
100
AcDbEntity
  8
Layer00002
  6
Continuous
 62
               4
100
AcDbLine
 10
72434.503059566385
 20
92347.5195309931
 30
0.0
 11
72434.503059566385
 21
92393.5195309931
 31
0.0
  0
LINE
  5
58D
100
AcDbEntity
  8
Layer00002
  6
Continuous
 62
               4
100
AcDbLine
 10
72775.284055955563
 20
92583.2695309931
 30
0.0
 11
72775.284055955563
 21
92590.269530993115
 31
0.0
  0
LINE
  5
58E
100
AcDbEntity
  8
Layer00002
  6
Continuous
 62
               4
100
AcDbLine
 10
72780.913221080162
 20
92584.519530993115
 30
0.0
 11
72780.913221080162
 21
92590.019530993115
 31
0.0
  0
LINE
  5
58F
100
AcDbEntity
  8
Layer00002
  6
Continuous
 62
               4
100
AcDbLine
 10
72779.181170272583
 20
92589.0195309931
 30
0.0
 11
72780.913221080162
 21
92590.019530993115
 31
0.0
  0
LINE
  5
590
100
AcDbEntity
  8
Layer00002
  6
Continuous
 62
               4
100
AcDbLine
 10
72775.284055955563
 20
92583.2695309931
 30
0.0
 11
72779.181170272583
 21
92585.519530993115
 31
0.0
  0
LINE
  5
591
100
AcDbEntity
  8
Layer00002
  6
Continuous
 62
               4
100
AcDbLine
 10
72434.503059566385
 20
92347.5195309931
 30
0.0
 11
72775.284055955563
 21
92544.269530993115
 31
0.0
  0
LINE
  5
592
100
AcDbEntity
  8
Layer00002
  6
Continuous
 62
               4
100
AcDbLine
 10
72780.047239549313
 20
92584.019530993115
 30
0.0
 11
72780.913221080162
 21
92584.519530993115
 31
0.0
  0
LINE
  5
593
100
AcDbEntity
  8
Layer00002
  6
Continuous
 62
               4
100
AcDbLine
 10
72775.284055955563
 20
92544.269530993115
 30
0.0
 11
72775.284055955563
 21
92574.769530993115
 31
0.0
  0
LINE
  5
594
100
AcDbEntity
  8
Layer00002
  6
Continuous
 62
               4
100
AcDbLine
 10
72779.181170272583
 20
92589.0195309931
 30
0.0
 11
72779.181170272583
 21
92585.5195309931
 31
0.0
  0
LINE
  5
595
100
AcDbEntity
  8
Layer00002
  6
Continuous
 62
               4
100
AcDbLine
 10
72479.175536644922
 20
92761.227864326444
 30
0.0
 11
72775.284055955563
 21
92590.269530993115
 31
0.0
  0
LINE
  5
596
100
AcDbEntity
  8
Layer00002
  6
Continuous
 62
               4
100
AcDbLine
 10
72775.284055955563
 20
92587.769530993115
 30
0.0
 11
72779.181170272583
 21
92585.519530993115
 31
0.0
  0
LINE
  5
597
100
AcDbEntity
  8
Layer00002
  6
Continuous
 62
               4
100
AcDbLine
 10
72480.041562048718
 20
92761.727864326444
 30
0.0
 11
72779.181170272583
 21
92589.0195309931
 31
0.0
  0
LINE
  5
598
100
AcDbEntity
  8
Layer00002
  6
Continuous
 62
               4
100
AcDbLine
 10
72481.773612856283
 20
92762.727864326444
 30
0.0
 11
72780.913221080162
 21
92590.019530993115
 31
0.0
  0
LINE
  5
599
100
AcDbEntity
  8
Layer00002
  6
Continuous
 62
               4
100
AcDbLine
 10
72440.132224690984
 20
92381.2695309931
 30
0.0
 11
72440.132224690984
 21
92386.7695309931
 31
0.0
  0
LINE
  5
59A
100
AcDbEntity
  8
Layer00002
  6
Continuous
 62
               4
100
AcDbLine
 10
72438.400173883405
 20
92387.7695309931
 30
0.0
 11
72440.132224690984
 21
92386.7695309931
 31
0.0
  0
LINE
  5
59B
100
AcDbEntity
  8
Layer00002
  6
Continuous
 62
               4
100
AcDbLine
 10
72434.503059566385
 20
92386.5195309931
 30
0.0
 11
72438.400173883405
 21
92384.2695309931
 31
0.0
  0
LINE
  5
59C
100
AcDbEntity
  8
Layer00002
  6
Continuous
 62
               4
100
AcDbLine
 10
72438.400173883405
 20
92384.2695309931
 30
0.0
 11
72438.400173883405
 21
92387.7695309931
 31
0.0
  0
LINE
  5
59D
100
AcDbEntity
  8
Layer00002
  6
Continuous
 62
               4
100
AcDbLine
 10
72434.503059566385
 20
92384.5195309931
 30
0.0
 11
72440.132224690984
 21
92381.2695309931
 31
0.0
  0
LINE
  5
59E
100
AcDbEntity
  8
Layer00002
  6
Continuous
 62
               4
100
AcDbLine
 10
72438.400173883405
 20
92384.2695309931
 30
0.0
 11
72438.400173883405
 21
92387.7695309931
 31
0.0
  0
LINE
  5
59F
100
AcDbEntity
  8
Layer00002
  6
Continuous
 62
               4
100
AcDbLine
 10
72780.913221080162
 20
92578.0195309931
 30
0.0
 11
72780.913221080162
 21
92583.5195309931
 31
0.0
  0
LINE
  5
5A0
100
AcDbEntity
  8
Layer00002
  6
Continuous
 62
               4
100
AcDbLine
 10
72779.181170272583
 20
92584.5195309931
 30
0.0
 11
72780.913221080162
 21
92583.5195309931
 31
0.0
  0
LINE
  5
5A1
100
AcDbEntity
  8
Layer00002
  6
Continuous
 62
               4
100
AcDbLine
 10
72775.284055955563
 20
92583.2695309931
 30
0.0
 11
72776.150081359345
 21
92582.7695309931
 31
0.0
  0
LINE
  5
5A2
100
AcDbEntity
  8
Layer00002
  6
Continuous
 62
               4
100
AcDbLine
 10
72434.503059566385
 20
92386.5195309931
 30
0.0
 11
72775.284055955563
 21
92583.2695309931
 31
0.0
  0
LINE
  5
5A3
100
AcDbEntity
  8
Layer00002
  6
Continuous
 62
               4
100
AcDbLine
 10
72438.400173883405
 20
92387.7695309931
 30
0.0
 11
72779.181170272583
 21
92584.5195309931
 31
0.0
  0
LINE
  5
5A4
100
AcDbEntity
  8
Layer00002
  6
Continuous
 62
               4
100
AcDbLine
 10
72440.132224690984
 20
92381.2695309931
 30
0.0
 11
72780.913221080162
 21
92578.0195309931
 31
0.0
  0
LINE
  5
5A5
100
AcDbEntity
  8
Layer00002
  6
Continuous
 62
               4
100
AcDbLine
 10
72440.132224690984
 20
92386.7695309931
 30
0.0
 11
72780.913221080162
 21
92583.5195309931
 31
0.0
  0
LINE
  5
5A6
100
AcDbEntity
  8
Layer00002
  6
Continuous
 62
               7
100
AcDbLine
 10
72757.963547879874
 20
92590.2695309931
 30
0.0
 11
72425.842805528533
 21
92398.5195309931
 31
0.0
  0
LINE
  5
5A7
100
AcDbEntity
  8
Layer00002
  6
Continuous
 62
               7
100
AcDbLine
 10
72470.515282607084
 20
92756.227864326444
 30
0.0
 11
72757.963547879874
 21
92590.2695309931
 31
0.0
  0
LINE
  5
5A8
100
AcDbEntity
  8
Layer00002
  6
Continuous
 62
               7
100
AcDbLine
 10
72385.899781313681
 20
92470.29174854375
 30
0.0
 11
72675.835472087638
 21
92637.686197659772
 31
0.0
  0
LINE
  5
5A9
100
AcDbEntity
  8
Layer00002
  6
Continuous
 62
               7
100
AcDbLine
 10
72344.616839531926
 20
92541.290364326444
 30
0.0
 11
72593.707396295416
 21
92685.102864326444
 31
0.0
  0
LINE
  5
5AA
100
AcDbEntity
  8
Layer00002
  6
Continuous
 62
               7
100
AcDbLine
 10
72511.579320503195
 20
92732.5195309931
 30
0.0
 11
72345.518949327525
 21
92636.6445309931
 31
0.0
  0
LINE
  5
5AB
100
AcDbEntity
  8
Layer00002
  6
Continuous
 62
               7
100
AcDbLine
 10
72303.5528016358
 20
92564.998697659772
 30
0.0
 11
72508.872991116368
 21
92446.4570309931
 31
0.0
  0
LINE
  5
5AC
100
AcDbEntity
  8
Layer00002
  6
Continuous
 62
               7
100
AcDbLine
 10
72345.518949327525
 20
92636.6445309931
 30
0.0
 11
72591.903176704203
 21
92494.3945309931
 31
0.0
  0
LINE
  5
5AD
100
AcDbEntity
  8
Layer00002
  6
Continuous
 62
               7
100
AcDbLine
 10
72387.485097019249
 20
92708.290364326444
 30
0.0
 11
72674.933362292039
 21
92542.332030993115
 31
0.0
  0
LINE
  5
5AE
100
AcDbEntity
  8
Layer00002
  6
Continuous
 62
               6
100
AcDbLine
 10
72832.874745307228
 20
92560.019530993115
 30
0.0
 11
72902.156777609984
 21
92520.0195309931
 31
0.0
  0
LINE
  5
5AF
100
AcDbEntity
  8
Layer00002
  6
Continuous
 62
               6
100
AcDbLine
 10
72614.636343553546
 20
92686.019530993115
 30
0.0
 11
72614.636343553546
 21
92682.519530993115
 31
0.0
  0
LINE
  5
5B0
100
AcDbEntity
  8
Layer00002
  6
Continuous
 62
               6
100
AcDbLine
 10
72645.899801084859
 20
92675.969726305615
 30
0.0
 11
72645.899860630161
 21
92694.055317430742
 31
0.0
  0
LINE
  5
5B1
100
AcDbEntity
  8
Layer00002
  6
Continuous
 62
               6
100
AcDbLine
 10
72647.545308897359
 20
92705.019530993115
 30
0.0
 11
72640.617105667072
 21
92701.019530993115
 31
0.0
  0
LINE
  5
5B2
100
AcDbEntity
  8
Layer00002
  6
Continuous
 62
               6
100
AcDbLine
 10
72640.617105667072
 20
92697.519530993115
 30
0.0
 11
72640.617105667072
 21
92701.019530993115
 31
0.0
  0
LINE
  5
5B3
100
AcDbEntity
  8
Layer00002
  6
Continuous
 62
               6
100
AcDbLine
 10
72621.564546783819
 20
92690.019530993115
 30
0.0
 11
72614.636343553546
 21
92686.019530993115
 31
0.0
  0
LINE
  5
5B4
100
AcDbEntity
  8
Layer00002
  6
DASHED
 62
               7
100
AcDbLine
 10
72612.471280044076
 20
92681.269530993115
 30
0.0
 11
72614.636343553546
 21
92682.519530993115
 31
0.0
  0
LINE
  5
5B5
100
AcDbEntity
  8
Layer00002
  6
Continuous
 62
               6
100
AcDbLine
 10
72649.710372406815
 20
92702.752287050404
 30
0.0
 11
72649.695438714378
 21
92702.760909021759
 31
0.0
  0
LINE
  5
5B6
100
AcDbEntity
  8
Layer00002
  6
DASHED
 62
               7
100
AcDbLine
 10
72612.471280044076
 20
92651.269530993115
 30
0.0
 11
72612.471280044076
 21
92681.269530993115
 31
0.0
  0
LINE
  5
5B7
100
AcDbEntity
  8
Layer00002
  6
Continuous
 62
               6
100
AcDbLine
 10
72601.645962496783
 20
92641.519530993115
 30
0.0
 11
72614.636343553546
 21
92649.019530993115
 31
0.0
  0
LINE
  5
5B8
100
AcDbEntity
  8
Layer00002
  6
Continuous
 62
               6
100
AcDbLine
 10
72600.779937092986
 20
92640.019530993115
 30
0.0
 11
72600.779937092986
 21
92638.619530993106
 31
0.0
  0
LINE
  5
5B9
100
AcDbEntity
  8
Layer00002
  6
Continuous
 62
               6
100
AcDbLine
 10
72600.779937092986
 20
92640.019530993115
 30
0.0
 11
72601.645962496783
 21
92641.519530993115
 31
0.0
  0
LINE
  5
5BA
100
AcDbEntity
  8
Layer00002
  6
Continuous
 62
               6
100
AcDbLine
 10
72961.046505067323
 20
92486.019530993115
 30
0.0
 11
72961.046505067323
 21
92449.019530993115
 31
0.0
  0
LINE
  5
5BB
100
AcDbEntity
  8
Layer00002
  6
Continuous
 62
               6
100
AcDbLine
 10
72993.955470411136
 20
92505.019530993115
 30
0.0
 11
72993.955470411136
 21
92468.019530993115
 31
0.0
  0
LINE
  5
5BC
100
AcDbEntity
  8
Layer00002
  6
Continuous
 62
               6
100
AcDbLine
 10
73006.945851467899
 20
92475.5195309931
 30
0.0
 11
72993.955470411136
 21
92468.019530993115
 31
0.0
  0
LINE
  5
5BD
100
AcDbEntity
  8
Layer00002
  6
Continuous
 62
               6
100
AcDbLine
 10
73007.811876871681
 20
92475.0195309931
 30
0.0
 11
73007.811876871681
 21
92473.619530993106
 31
0.0
  0
LINE
  5
5BE
100
AcDbEntity
  8
Layer00002
  6
Continuous
 62
               6
100
AcDbLine
 10
72992.310022143938
 20
92468.569530993103
 30
0.0
 11
72992.310022143938
 21
92500.569530993103
 31
0.0
  0
LINE
  5
5BF
100
AcDbEntity
  8
Layer00002
  6
Continuous
 62
               6
100
AcDbLine
 10
72962.691953334506
 20
92451.469530993112
 30
0.0
 11
72962.691953334506
 21
92483.469530993112
 31
0.0
  0
LINE
  5
5C0
100
AcDbEntity
  8
Layer00002
  6
Continuous
 62
               6
100
AcDbLine
 10
72993.955470411136
 20
92505.019530993115
 30
0.0
 11
72987.027267180863
 21
92501.019530993115
 31
0.0
  0
LINE
  5
5C1
100
AcDbEntity
  8
Layer00002
  6
Continuous
 62
               6
100
AcDbLine
 10
72987.027267180863
 20
92497.519530993115
 30
0.0
 11
72987.027267180863
 21
92501.019530993115
 31
0.0
  0
LINE
  5
5C2
100
AcDbEntity
  8
Layer00002
  6
Continuous
 62
               6
100
AcDbLine
 10
72967.974708297595
 20
92486.519530993115
 30
0.0
 11
72967.974708297595
 21
92490.019530993115
 31
0.0
  0
LINE
  5
5C3
100
AcDbEntity
  8
Layer00002
  6
Continuous
 62
               6
100
AcDbLine
 10
72992.310022143938
 20
92500.569530993103
 30
0.0
 11
72988.759317988428
 21
92498.519530993115
 31
0.0
  0
LINE
  5
5C4
100
AcDbEntity
  8
Layer00002
  6
Continuous
 62
               6
100
AcDbLine
 10
72966.242657490031
 20
92485.519530993115
 30
0.0
 11
72962.691953334506
 21
92483.469530993112
 31
0.0
  0
LINE
  5
5C5
100
AcDbEntity
  8
Layer00002
  6
Continuous
 62
               6
100
AcDbLine
 10
72967.974708297595
 20
92490.019530993115
 30
0.0
 11
72961.046505067323
 21
92486.019530993115
 31
0.0
  0
LINE
  5
5C6
100
AcDbEntity
  8
Layer00002
  6
Continuous
 62
               6
100
AcDbLine
 10
72991.010984038265
 20
92466.319530993103
 30
0.0
 11
72985.381818913665
 21
92463.069530993103
 31
0.0
  0
LINE
  5
5C7
100
AcDbEntity
  8
Layer00002
  6
Continuous
 62
               6
100
AcDbLine
 10
72984.429190969502
 20
92463.619530993106
 30
0.0
 11
72970.572784508957
 21
92455.619530993106
 31
0.0
  0
LINE
  5
5C8
100
AcDbEntity
  8
Layer00002
  6
Continuous
 62
               6
100
AcDbLine
 10
72985.381818913665
 20
92463.069530993103
 30
0.0
 11
72984.429190969502
 21
92463.619530993106
 31
0.0
  0
LINE
  5
5C9
100
AcDbEntity
  8
Layer00002
  6
Continuous
 62
               6
100
AcDbLine
 10
72963.990991440194
 20
92450.719530993112
 30
0.0
 11
72969.620156564793
 21
92453.969530993112
 31
0.0
  0
LINE
  5
5CA
100
AcDbEntity
  8
Layer00002
  6
Continuous
 62
               6
100
AcDbLine
 10
72969.620156564793
 20
92453.969530993112
 30
0.0
 11
72970.572784508957
 21
92455.619530993106
 31
0.0
  0
LINE
  5
5CB
100
AcDbEntity
  8
Layer00002
  6
Continuous
 62
               6
100
AcDbLine
 10
73007.811876871681
 20
92475.0195309931
 30
0.0
 11
73006.945851467899
 21
92475.519530993115
 31
0.0
  0
LINE
  5
5CC
100
AcDbEntity
  8
Layer00002
  6
Continuous
 62
               2
100
AcDbLine
 10
72958.881441557867
 20
92481.269530993115
 30
0.0
 11
72961.046505067323
 21
92482.519530993115
 31
0.0
  0
LINE
  5
5CD
100
AcDbEntity
  8
Layer00002
  6
Continuous
 62
               2
100
AcDbLine
 10
72958.881441557867
 20
92451.269530993115
 30
0.0
 11
72961.046505067323
 21
92452.519530993115
 31
0.0
  0
LINE
  5
5CE
100
AcDbEntity
  8
Layer00002
  6
Continuous
 62
               2
100
AcDbLine
 10
72996.120533920592
 20
92502.7695309931
 30
0.0
 11
72993.955470411136
 21
92501.5195309931
 31
0.0
  0
LINE
  5
5CF
100
AcDbEntity
  8
Layer00002
  6
Continuous
 62
               2
100
AcDbLine
 10
72996.120533920592
 20
92472.7695309931
 30
0.0
 11
72993.955470411136
 21
92471.5195309931
 31
0.0
  0
LINE
  5
5D0
100
AcDbEntity
  8
Layer00002
  6
Continuous
 62
               6
100
AcDbLine
 10
72996.120533920592
 20
92502.752287050404
 30
0.0
 11
72996.105600228155
 21
92502.760909021759
 31
0.0
  0
LINE
  5
5D1
100
AcDbEntity
  8
Layer00002
  6
Continuous
 62
               2
100
AcDbLine
 10
72958.881441557867
 20
92451.269530993115
 30
0.0
 11
72958.881441557867
 21
92481.269530993115
 31
0.0
  0
LINE
  5
5D2
100
AcDbEntity
  8
Layer00002
  6
Continuous
 62
               2
100
AcDbLine
 10
72961.046505067323
 20
92482.519530993115
 30
0.0
 11
72961.046505067323
 21
92452.519530993115
 31
0.0
  0
LINE
  5
5D3
100
AcDbEntity
  8
Layer00002
  6
Continuous
 62
               2
100
AcDbLine
 10
72993.955470411136
 20
92501.519530993115
 30
0.0
 11
72993.955470411136
 21
92471.519530993115
 31
0.0
  0
LINE
  5
5D4
100
AcDbEntity
  8
Layer00002
  6
Continuous
 62
               2
100
AcDbLine
 10
72996.120533920592
 20
92472.7695309931
 30
0.0
 11
72996.120533920592
 21
92502.7695309931
 31
0.0
  0
LINE
  5
5D5
100
AcDbEntity
  8
Layer00002
  6
Continuous
 62
               6
100
AcDbLine
 10
72948.05612401056
 20
92441.519530993115
 30
0.0
 11
72961.046505067323
 21
92449.019530993115
 31
0.0
  0
LINE
  5
5D6
100
AcDbEntity
  8
Layer00002
  6
Continuous
 62
               6
100
AcDbLine
 10
72947.190098606778
 20
92440.019530993115
 30
0.0
 11
72947.190098606778
 21
92438.619530993106
 31
0.0
  0
LINE
  5
5D7
100
AcDbEntity
  8
Layer00002
  6
Continuous
 62
               6
100
AcDbLine
 10
72947.190098606778
 20
92440.019530993115
 30
0.0
 11
72948.05612401056
 21
92441.519530993115
 31
0.0
  0
LINE
  5
5D8
100
AcDbEntity
  8
Layer00002
  6
Continuous
 62
               6
100
AcDbLine
 10
72947.190098606778
 20
92438.619530993106
 30
0.0
 11
73007.811876871681
 21
92473.619530993106
 31
0.0
  0
LINE
  5
5D9
100
AcDbEntity
  8
Layer00002
  6
Continuous
 62
               6
100
AcDbLine
 10
72769.741493371344
 20
92541.069530993103
 30
0.0
 11
72947.190098606778
 21
92438.619530993106
 31
0.0
  0
LINE
  5
5DA
100
AcDbEntity
  8
Layer00002
  6
Continuous
 62
               6
100
AcDbLine
 10
72770.953928936637
 20
92541.769530993115
 30
0.0
 11
72947.190098606778
 21
92440.019530993115
 31
0.0
  0
LINE
  5
5DB
100
AcDbEntity
  8
Layer00002
  6
Continuous
 62
               6
100
AcDbLine
 10
72772.685979744201
 20
92542.769530993115
 30
0.0
 11
72948.05612401056
 21
92441.519530993115
 31
0.0
  0
LINE
  5
5DC
100
AcDbEntity
  8
Layer00002
  6
DASHED
 62
               7
100
AcDbLine
 10
72612.471280044076
 20
92651.269530993115
 30
0.0
 11
72638.452042157616
 21
92636.269530993115
 31
0.0
  0
LINE
  5
5DD
100
AcDbEntity
  8
Layer00002
  6
DASHED
 62
               7
100
AcDbLine
 10
72612.471280044076
 20
92681.269530993115
 30
0.0
 11
72638.452042157616
 21
92666.269530993115
 31
0.0
  0
LINE
  5
5DE
100
AcDbEntity
  8
Layer00002
  6
Continuous
 62
               6
100
AcDbLine
 10
72775.284055955563
 20
92556.269530993115
 30
0.0
 11
72961.046505067323
 21
92449.019530993115
 31
0.0
  0
LINE
  5
5DF
100
AcDbEntity
  8
Layer00002
  6
Continuous
 62
               6
100
AcDbLine
 10
72614.636343553546
 20
92686.019530993115
 30
0.0
 11
72961.046505067323
 21
92486.019530993115
 31
0.0
  0
LINE
  5
5E0
100
AcDbEntity
  8
Layer00002
  6
Continuous
 62
               6
100
AcDbLine
 10
72621.564546783819
 20
92690.019530993115
 30
0.0
 11
72967.974708297595
 21
92490.019530993115
 31
0.0
  0
LINE
  5
5E1
100
AcDbEntity
  8
Layer00002
  6
Continuous
 62
               6
100
AcDbLine
 10
72962.691953334506
 20
92457.969530993112
 30
0.0
 11
72969.620156564793
 21
92453.969530993112
 31
0.0
  0
LINE
  5
5E2
100
AcDbEntity
  8
Layer00002
  6
Continuous
 62
               6
100
AcDbLine
 10
72962.691953334506
 20
92460.169530993109
 30
0.0
 11
72970.572784508957
 21
92455.619530993106
 31
0.0
  0
LINE
  5
5E3
100
AcDbEntity
  8
Layer00002
  6
Continuous
 62
               6
100
AcDbLine
 10
72962.691953334506
 20
92476.169530993109
 30
0.0
 11
72984.429190969502
 21
92463.619530993106
 31
0.0
  0
LINE
  5
5E4
100
AcDbEntity
  8
Layer00002
  6
Continuous
 62
               6
100
AcDbLine
 10
72640.617105667072
 20
92701.019530993115
 30
0.0
 11
72987.027267180863
 21
92501.019530993115
 31
0.0
  0
LINE
  5
5E5
100
AcDbEntity
  8
Layer00002
  6
Continuous
 62
               6
100
AcDbLine
 10
72640.870758635167
 20
92696.958870821327
 30
0.0
 11
72987.280920148944
 21
92496.958870821327
 31
0.0
  0
LINE
  5
5E6
100
AcDbEntity
  8
Layer00002
  6
Continuous
 62
               6
100
AcDbLine
 10
72962.691953334506
 20
92482.669530993109
 30
0.0
 11
72991.010984038265
 21
92466.319530993103
 31
0.0
  0
LINE
  5
5E7
100
AcDbEntity
  8
Layer00002
  6
Continuous
 62
               6
100
AcDbLine
 10
72964.597209222833
 20
92484.569530993103
 30
0.0
 11
72992.310022143938
 21
92468.569530993103
 31
0.0
  0
LINE
  5
5E8
100
AcDbEntity
  8
Layer00002
  6
Continuous
 62
               6
100
AcDbLine
 10
72647.545308897359
 20
92705.019530993115
 30
0.0
 11
72993.955470411136
 21
92505.019530993115
 31
0.0
  0
LINE
  5
5E9
100
AcDbEntity
  8
Layer00002
  6
Continuous
 62
               6
100
AcDbLine
 10
72996.120533920592
 20
92481.769530993115
 30
0.0
 11
73006.945851467899
 21
92475.519530993115
 31
0.0
  0
LINE
  5
5EA
100
AcDbEntity
  8
Layer00002
  6
Continuous
 62
               2
100
AcDbLine
 10
72993.955470411136
 20
92504.002287050404
 30
0.0
 11
72996.105600228155
 21
92502.760909021759
 31
0.0
  0
LINE
  5
5EB
100
AcDbEntity
  8
Layer00002
  6
DASHED
 62
               7
100
AcDbLine
 10
72638.452042157616
 20
92666.269530993115
 30
0.0
 11
72638.452042157616
 21
92636.269530993115
 31
0.0
  0
LINE
  5
5EC
100
AcDbEntity
  8
Layer00002
  6
DASHED
 62
               7
100
AcDbLine
 10
72640.617105667072
 20
92667.519530993115
 30
0.0
 11
72638.452042157616
 21
92666.269530993115
 31
0.0
  0
LINE
  5
5ED
100
AcDbEntity
  8
Layer00002
  6
DASHED
 62
               7
100
AcDbLine
 10
72640.617105667072
 20
92667.519530993115
 30
0.0
 11
72640.617105667072
 21
92637.519530993115
 31
0.0
  0
LINE
  5
5EE
100
AcDbEntity
  8
Layer00002
  6
Continuous
 62
               2
100
AcDbLine
 10
72932.900679444327
 20
92496.269530993115
 30
0.0
 11
72958.881441557867
 21
92481.269530993115
 31
0.0
  0
LINE
  5
5EF
100
AcDbEntity
  8
Layer00002
  6
Continuous
 62
               2
100
AcDbLine
 10
72932.900679444327
 20
92466.269530993115
 30
0.0
 11
72958.881441557867
 21
92451.269530993115
 31
0.0
  0
LINE
  5
5F0
100
AcDbEntity
  8
Layer00002
  6
DASHED
 62
               7
100
AcDbLine
 10
72638.452042157616
 20
92636.269530993115
 30
0.0
 11
72640.617105667072
 21
92637.519530993115
 31
0.0
  0
LINE
  5
5F1
100
AcDbEntity
  8
Layer00002
  6
Continuous
 62
               2
100
AcDbLine
 10
72932.900679444327
 20
92496.269530993115
 30
0.0
 11
72932.900679444327
 21
92466.269530993115
 31
0.0
  0
LINE
  5
5F2
100
AcDbEntity
  8
Layer00002
  6
Continuous
 62
               2
100
AcDbLine
 10
72935.065742953797
 20
92497.519530993115
 30
0.0
 11
72932.900679444327
 21
92496.269530993115
 31
0.0
  0
LINE
  5
5F3
100
AcDbEntity
  8
Layer00002
  6
DASHED
 62
               7
100
AcDbLine
 10
72640.617105667072
 20
92667.519530993115
 30
0.0
 11
72614.636343553546
 21
92682.519530993115
 31
0.0
  0
LINE
  5
5F4
100
AcDbEntity
  8
Layer00002
  6
Continuous
 62
               2
100
AcDbLine
 10
72935.065742953797
 20
92497.519530993115
 30
0.0
 11
72961.046505067323
 21
92482.519530993115
 31
0.0
  0
LINE
  5
5F5
100
AcDbEntity
  8
Layer00002
  6
Continuous
 62
               4
100
AcDbLine
 10
72425.842805528533
 20
92398.5195309931
 30
0.0
 11
72425.842805528533
 21
92352.5195309931
 31
0.0
  0
LINE
  5
5F6
100
AcDbEntity
  8
Layer00002
  6
Continuous
 62
               4
100
AcDbLine
 10
72425.850091792017
 20
92400.062527802816
 30
0.0
 11
72425.850091792017
 21
92354.062527802816
 31
0.0
  0
LINE
  5
5F7
100
AcDbEntity
  8
Layer00002
  6
Continuous
 62
               4
100
AcDbLine
 10
72425.850091792017
 20
92398.515324266933
 30
0.0
 11
72434.503059566385
 21
92393.5195309931
 31
0.0
  0
LINE
  5
5F8
100
AcDbEntity
  8
Layer00002
  6
Continuous
 62
               4
100
AcDbLine
 10
72425.850091792017
 20
92352.515324266933
 30
0.0
 11
72434.503059566385
 21
92347.519530993115
 31
0.0
  0
LINE
  5
5F9
100
AcDbEntity
  8
Layer00002
  6
DASHED
 62
               6
100
AcDbLine
 10
72614.636343553546
 20
92649.019530993115
 30
0.0
 11
72737.178938189041
 21
92578.269530993115
 31
0.0
  0
LINE
  5
5FA
100
AcDbEntity
  8
Layer00002
  6
DASHED
 62
               6
100
AcDbLine
 10
72600.779937092986
 20
92640.019530993115
 30
0.0
 11
72722.456506324714
 21
92569.769530993115
 31
0.0
  0
LINE
  5
5FB
100
AcDbEntity
  8
Layer00002
  6
DASHED
 62
               6
100
AcDbLine
 10
72600.779937092986
 20
92638.619530993106
 30
0.0
 11
72721.244070759407
 21
92569.069530993103
 31
0.0
  0
LINE
  5
5FC
100
AcDbEntity
  8
Layer00002
  6
Continuous
 62
               7
100
AcDbLine
 10
72933.05692086248
 20
92496.179324968281
 30
0.0
 11
72932.900679444327
 21
92496.089118943448
 31
0.0
  0
LINE
  5
5FD
100
AcDbEntity
  8
Layer00002
  6
Continuous
 62
               7
100
AcDbLine
 10
72958.881441557867
 20
92479.769530993115
 30
0.0
 11
72961.046505067323
 21
92481.019530993115
 31
0.0
  0
LINE
  5
5FE
100
AcDbEntity
  8
Layer00002
  6
Continuous
 62
               7
100
AcDbLine
 10
72958.881441557867
 20
92478.269530993115
 30
0.0
 11
72961.046505067323
 21
92479.519530993115
 31
0.0
  0
LINE
  5
5FF
100
AcDbEntity
  8
Layer00002
  6
Continuous
 62
               7
100
AcDbLine
 10
72958.881441557867
 20
92476.769530993115
 30
0.0
 11
72961.046505067323
 21
92478.019530993115
 31
0.0
  0
LINE
  5
600
100
AcDbEntity
  8
Layer00002
  6
Continuous
 62
               7
100
AcDbLine
 10
72958.881441557867
 20
92475.269530993115
 30
0.0
 11
72961.046505067323
 21
92476.519530993115
 31
0.0
  0
LINE
  5
601
100
AcDbEntity
  8
Layer00002
  6
Continuous
 62
               7
100
AcDbLine
 10
72958.881441557867
 20
92473.769530993115
 30
0.0
 11
72961.046505067323
 21
92475.019530993115
 31
0.0
  0
LINE
  5
602
100
AcDbEntity
  8
Layer00002
  6
Continuous
 62
               7
100
AcDbLine
 10
72958.881441557867
 20
92472.269530993115
 30
0.0
 11
72961.046505067323
 21
92473.519530993115
 31
0.0
  0
LINE
  5
603
100
AcDbEntity
  8
Layer00002
  6
Continuous
 62
               7
100
AcDbLine
 10
72958.881441557867
 20
92470.769530993115
 30
0.0
 11
72961.046505067323
 21
92472.019530993115
 31
0.0
  0
LINE
  5
604
100
AcDbEntity
  8
Layer00002
  6
Continuous
 62
               7
100
AcDbLine
 10
72958.881441557867
 20
92469.269530993115
 30
0.0
 11
72961.046505067323
 21
92470.519530993115
 31
0.0
  0
LINE
  5
605
100
AcDbEntity
  8
Layer00002
  6
Continuous
 62
               7
100
AcDbLine
 10
72958.881441557867
 20
92467.769530993115
 30
0.0
 11
72961.046505067323
 21
92469.019530993115
 31
0.0
  0
LINE
  5
606
100
AcDbEntity
  8
Layer00002
  6
Continuous
 62
               7
100
AcDbLine
 10
72958.881441557867
 20
92466.269530993115
 30
0.0
 11
72961.046505067323
 21
92467.519530993115
 31
0.0
  0
LINE
  5
607
100
AcDbEntity
  8
Layer00002
  6
Continuous
 62
               7
100
AcDbLine
 10
72958.881441557867
 20
92464.769530993115
 30
0.0
 11
72961.046505067323
 21
92466.019530993115
 31
0.0
  0
LINE
  5
608
100
AcDbEntity
  8
Layer00002
  6
Continuous
 62
               7
100
AcDbLine
 10
72958.881441557867
 20
92463.269530993115
 30
0.0
 11
72961.046505067323
 21
92464.519530993115
 31
0.0
  0
LINE
  5
609
100
AcDbEntity
  8
Layer00002
  6
Continuous
 62
               7
100
AcDbLine
 10
72958.881441557867
 20
92461.769530993115
 30
0.0
 11
72961.046505067323
 21
92463.019530993115
 31
0.0
  0
LINE
  5
60A
100
AcDbEntity
  8
Layer00002
  6
Continuous
 62
               7
100
AcDbLine
 10
72958.881441557867
 20
92460.269530993115
 30
0.0
 11
72961.046505067323
 21
92461.519530993115
 31
0.0
  0
LINE
  5
60B
100
AcDbEntity
  8
Layer00002
  6
Continuous
 62
               7
100
AcDbLine
 10
72958.881441557867
 20
92458.769530993115
 30
0.0
 11
72961.046505067323
 21
92460.019530993115
 31
0.0
  0
LINE
  5
60C
100
AcDbEntity
  8
Layer00002
  6
Continuous
 62
               7
100
AcDbLine
 10
72958.881441557867
 20
92457.269530993115
 30
0.0
 11
72961.046505067323
 21
92458.519530993115
 31
0.0
  0
LINE
  5
60D
100
AcDbEntity
  8
Layer00002
  6
Continuous
 62
               7
100
AcDbLine
 10
72958.881441557867
 20
92455.769530993115
 30
0.0
 11
72961.046505067323
 21
92457.019530993115
 31
0.0
  0
LINE
  5
60E
100
AcDbEntity
  8
Layer00002
  6
Continuous
 62
               7
100
AcDbLine
 10
72958.881441557867
 20
92454.269530993115
 30
0.0
 11
72961.046505067323
 21
92455.519530993115
 31
0.0
  0
LINE
  5
60F
100
AcDbEntity
  8
Layer00002
  6
Continuous
 62
               7
100
AcDbLine
 10
72958.881441557867
 20
92452.769530993115
 30
0.0
 11
72961.046505067323
 21
92454.019530993115
 31
0.0
  0
LINE
  5
610
100
AcDbEntity
  8
Layer00002
  6
Continuous
 62
               7
100
AcDbLine
 10
72957.582403452179
 20
92482.019530993115
 30
0.0
 11
72959.747466961649
 21
92483.269530993115
 31
0.0
  0
LINE
  5
611
100
AcDbEntity
  8
Layer00002
  6
Continuous
 62
               7
100
AcDbLine
 10
72956.283365346506
 20
92482.769530993115
 30
0.0
 11
72958.448428855976
 21
92484.019530993115
 31
0.0
  0
LINE
  5
612
100
AcDbEntity
  8
Layer00002
  6
Continuous
 62
               7
100
AcDbLine
 10
72954.984327240832
 20
92483.519530993115
 30
0.0
 11
72957.149390750288
 21
92484.769530993115
 31
0.0
  0
LINE
  5
613
100
AcDbEntity
  8
Layer00002
  6
Continuous
 62
               7
100
AcDbLine
 10
72953.685289135159
 20
92484.269530993115
 30
0.0
 11
72955.850352644615
 21
92485.519530993115
 31
0.0
  0
LINE
  5
614
100
AcDbEntity
  8
Layer00002
  6
Continuous
 62
               7
100
AcDbLine
 10
72952.386251029471
 20
92485.019530993115
 30
0.0
 11
72954.551314538941
 21
92486.269530993115
 31
0.0
  0
LINE
  5
615
100
AcDbEntity
  8
Layer00002
  6
Continuous
 62
               7
100
AcDbLine
 10
72951.087212923798
 20
92485.769530993115
 30
0.0
 11
72953.252276433268
 21
92487.019530993115
 31
0.0
  0
LINE
  5
616
100
AcDbEntity
  8
Layer00002
  6
Continuous
 62
               7
100
AcDbLine
 10
72949.788174818124
 20
92486.519530993115
 30
0.0
 11
72951.95323832758
 21
92487.769530993115
 31
0.0
  0
LINE
  5
617
100
AcDbEntity
  8
Layer00002
  6
Continuous
 62
               7
100
AcDbLine
 10
72948.489136712451
 20
92487.269530993115
 30
0.0
 11
72950.654200221907
 21
92488.519530993115
 31
0.0
  0
LINE
  5
618
100
AcDbEntity
  8
Layer00002
  6
Continuous
 62
               7
100
AcDbLine
 10
72947.190098606778
 20
92488.019530993115
 30
0.0
 11
72949.355162116233
 21
92489.269530993115
 31
0.0
  0
LINE
  5
619
100
AcDbEntity
  8
Layer00002
  6
Continuous
 62
               7
100
AcDbLine
 10
72945.89106050109
 20
92488.769530993115
 30
0.0
 11
72948.05612401056
 21
92490.019530993115
 31
0.0
  0
LINE
  5
61A
100
AcDbEntity
  8
Layer00002
  6
Continuous
 62
               7
100
AcDbLine
 10
72944.592022395416
 20
92489.519530993115
 30
0.0
 11
72946.757085904886
 21
92490.769530993115
 31
0.0
  0
LINE
  5
61B
100
AcDbEntity
  8
Layer00002
  6
Continuous
 62
               7
100
AcDbLine
 10
72943.292984289743
 20
92490.269530993115
 30
0.0
 11
72945.458047799199
 21
92491.519530993115
 31
0.0
  0
LINE
  5
61C
100
AcDbEntity
  8
Layer00002
  6
Continuous
 62
               7
100
AcDbLine
 10
72941.99394618407
 20
92491.019530993115
 30
0.0
 11
72944.159009693525
 21
92492.269530993115
 31
0.0
  0
LINE
  5
61D
100
AcDbEntity
  8
Layer00002
  6
Continuous
 62
               7
100
AcDbLine
 10
72940.694908078382
 20
92491.769530993115
 30
0.0
 11
72942.859971587852
 21
92493.019530993115
 31
0.0
  0
LINE
  5
61E
100
AcDbEntity
  8
Layer00002
  6
Continuous
 62
               7
100
AcDbLine
 10
72939.395869972708
 20
92492.519530993115
 30
0.0
 11
72941.560933482178
 21
92493.769530993115
 31
0.0
  0
LINE
  5
61F
100
AcDbEntity
  8
Layer00002
  6
Continuous
 62
               7
100
AcDbLine
 10
72938.096831867035
 20
92493.269530993115
 30
0.0
 11
72940.26189537649
 21
92494.519530993115
 31
0.0
  0
LINE
  5
620
100
AcDbEntity
  8
Layer00002
  6
Continuous
 62
               7
100
AcDbLine
 10
72936.797793761361
 20
92494.019530993115
 30
0.0
 11
72938.962857270817
 21
92495.269530993115
 31
0.0
  0
LINE
  5
621
100
AcDbEntity
  8
Layer00002
  6
Continuous
 62
               7
100
AcDbLine
 10
72935.498755655688
 20
92494.769530993115
 30
0.0
 11
72937.663819165144
 21
92496.019530993115
 31
0.0
  0
LINE
  5
622
100
AcDbEntity
  8
Layer00002
  6
Continuous
 62
               7
100
AcDbLine
 10
72934.19971755
 20
92495.519530993115
 30
0.0
 11
72936.36478105947
 21
92496.769530993115
 31
0.0
  0
LINE
  5
623
100
AcDbEntity
  8
Layer00002
  6
Continuous
 62
               7
100
AcDbLine
 10
72935.76592781549
 20
92464.615279074729
 30
0.0
 11
72932.900679444327
 21
92469.578034829872
 31
0.0
  0
LINE
  5
624
100
AcDbEntity
  8
Layer00002
  6
Continuous
 62
               7
100
AcDbLine
 10
72940.962080238183
 20
92461.615279074729
 30
0.0
 11
72932.900679444327
 21
92475.578034829872
 31
0.0
  0
LINE
  5
625
100
AcDbEntity
  8
Layer00002
  6
Continuous
 62
               7
100
AcDbLine
 10
72946.158232660891
 20
92458.615279074729
 30
0.0
 11
72932.900679444327
 21
92481.578034829872
 31
0.0
  0
LINE
  5
626
100
AcDbEntity
  8
Layer00002
  6
Continuous
 62
               7
100
AcDbLine
 10
72951.354385083599
 20
92455.615279074729
 30
0.0
 11
72932.900679444327
 21
92487.578034829872
 31
0.0
  0
LINE
  5
627
100
AcDbEntity
  8
Layer00002
  6
Continuous
 62
               7
100
AcDbLine
 10
72956.550537506308
 20
92452.615279074729
 30
0.0
 11
72932.900679444327
 21
92493.578034829872
 31
0.0
  0
LINE
  5
628
100
AcDbEntity
  8
Layer00002
  6
Continuous
 62
               7
100
AcDbLine
 10
72958.881441557867
 20
92454.578034829872
 30
0.0
 11
72935.76592781549
 21
92494.615279074729
 31
0.0
  0
LINE
  5
629
100
AcDbEntity
  8
Layer00002
  6
Continuous
 62
               7
100
AcDbLine
 10
72958.881441557867
 20
92460.578034829872
 30
0.0
 11
72940.962080238183
 21
92491.615279074729
 31
0.0
  0
LINE
  5
62A
100
AcDbEntity
  8
Layer00002
  6
Continuous
 62
               7
100
AcDbLine
 10
72958.881441557867
 20
92466.578034829872
 30
0.0
 11
72946.158232660891
 21
92488.615279074729
 31
0.0
  0
LINE
  5
62B
100
AcDbEntity
  8
Layer00002
  6
Continuous
 62
               7
100
AcDbLine
 10
72958.881441557867
 20
92472.578034829872
 30
0.0
 11
72951.354385083599
 21
92485.615279074729
 31
0.0
  0
LINE
  5
62C
100
AcDbEntity
  8
Layer00002
  6
Continuous
 62
               7
100
AcDbLine
 10
72958.881441557867
 20
92478.578034829872
 30
0.0
 11
72956.550537506308
 21
92482.615279074729
 31
0.0
  0
LINE
  5
62D
100
AcDbEntity
  8
Layer00002
  6
Continuous
 62
               7
100
AcDbLine
 10
72996.120533920592
 20
92474.2695309931
 30
0.0
 11
72993.955470411136
 21
92473.0195309931
 31
0.0
  0
LINE
  5
62E
100
AcDbEntity
  8
Layer00002
  6
Continuous
 62
               7
100
AcDbLine
 10
72996.120533920592
 20
92475.7695309931
 30
0.0
 11
72993.955470411136
 21
92474.5195309931
 31
0.0
  0
LINE
  5
62F
100
AcDbEntity
  8
Layer00002
  6
Continuous
 62
               7
100
AcDbLine
 10
72996.120533920592
 20
92477.2695309931
 30
0.0
 11
72993.955470411136
 21
92476.0195309931
 31
0.0
  0
LINE
  5
630
100
AcDbEntity
  8
Layer00002
  6
Continuous
 62
               7
100
AcDbLine
 10
72996.120533920592
 20
92478.7695309931
 30
0.0
 11
72993.955470411136
 21
92477.5195309931
 31
0.0
  0
LINE
  5
631
100
AcDbEntity
  8
Layer00002
  6
Continuous
 62
               7
100
AcDbLine
 10
72996.120533920592
 20
92480.2695309931
 30
0.0
 11
72993.955470411136
 21
92479.0195309931
 31
0.0
  0
LINE
  5
632
100
AcDbEntity
  8
Layer00002
  6
Continuous
 62
               7
100
AcDbLine
 10
72996.120533920592
 20
92481.7695309931
 30
0.0
 11
72993.955470411136
 21
92480.5195309931
 31
0.0
  0
LINE
  5
633
100
AcDbEntity
  8
Layer00002
  6
Continuous
 62
               7
100
AcDbLine
 10
72996.120533920592
 20
92483.2695309931
 30
0.0
 11
72993.955470411136
 21
92482.0195309931
 31
0.0
  0
LINE
  5
634
100
AcDbEntity
  8
Layer00002
  6
Continuous
 62
               7
100
AcDbLine
 10
72996.120533920592
 20
92484.7695309931
 30
0.0
 11
72993.955470411136
 21
92483.5195309931
 31
0.0
  0
LINE
  5
635
100
AcDbEntity
  8
Layer00002
  6
Continuous
 62
               7
100
AcDbLine
 10
72996.120533920592
 20
92486.2695309931
 30
0.0
 11
72993.955470411136
 21
92485.0195309931
 31
0.0
  0
LINE
  5
636
100
AcDbEntity
  8
Layer00002
  6
Continuous
 62
               7
100
AcDbLine
 10
72996.120533920592
 20
92487.7695309931
 30
0.0
 11
72993.955470411136
 21
92486.5195309931
 31
0.0
  0
LINE
  5
637
100
AcDbEntity
  8
Layer00002
  6
Continuous
 62
               7
100
AcDbLine
 10
72996.120533920592
 20
92489.2695309931
 30
0.0
 11
72993.955470411136
 21
92488.0195309931
 31
0.0
  0
LINE
  5
638
100
AcDbEntity
  8
Layer00002
  6
Continuous
 62
               7
100
AcDbLine
 10
72996.120533920592
 20
92490.7695309931
 30
0.0
 11
72993.955470411136
 21
92489.5195309931
 31
0.0
  0
LINE
  5
639
100
AcDbEntity
  8
Layer00002
  6
Continuous
 62
               7
100
AcDbLine
 10
72996.120533920592
 20
92492.2695309931
 30
0.0
 11
72993.955470411136
 21
92491.0195309931
 31
0.0
  0
LINE
  5
63A
100
AcDbEntity
  8
Layer00002
  6
Continuous
 62
               7
100
AcDbLine
 10
72996.120533920592
 20
92493.7695309931
 30
0.0
 11
72993.955470411136
 21
92492.5195309931
 31
0.0
  0
LINE
  5
63B
100
AcDbEntity
  8
Layer00002
  6
Continuous
 62
               7
100
AcDbLine
 10
72996.120533920592
 20
92495.2695309931
 30
0.0
 11
72993.955470411136
 21
92494.0195309931
 31
0.0
  0
LINE
  5
63C
100
AcDbEntity
  8
Layer00002
  6
Continuous
 62
               7
100
AcDbLine
 10
72996.120533920592
 20
92496.7695309931
 30
0.0
 11
72993.955470411136
 21
92495.5195309931
 31
0.0
  0
LINE
  5
63D
100
AcDbEntity
  8
Layer00002
  6
Continuous
 62
               7
100
AcDbLine
 10
72996.120533920592
 20
92498.2695309931
 30
0.0
 11
72993.955470411136
 21
92497.0195309931
 31
0.0
  0
LINE
  5
63E
100
AcDbEntity
  8
Layer00002
  6
Continuous
 62
               7
100
AcDbLine
 10
72996.120533920592
 20
92499.7695309931
 30
0.0
 11
72993.955470411136
 21
92498.5195309931
 31
0.0
  0
LINE
  5
63F
100
AcDbEntity
  8
Layer00002
  6
Continuous
 62
               7
100
AcDbLine
 10
72996.120533920592
 20
92501.2695309931
 30
0.0
 11
72993.955470411136
 21
92500.0195309931
 31
0.0
  0
LINE
  5
640
100
AcDbEntity
  8
Layer00002
  6
Continuous
 62
               7
100
AcDbLine
 10
72994.821495814918
 20
92503.5195309931
 30
0.0
 11
72993.955470411136
 21
92503.019530993115
 31
0.0
  0
LINE
  5
641
100
AcDbEntity
  8
Layer00002
  6
Continuous
 62
               4
100
AcDbLine
 10
72945.89106050109
 20
92473.769530993115
 30
0.0
 11
72824.647503971268
 21
92263.769530993115
 31
0.0
  0
LINE
  5
642
100
AcDbEntity
  8
Layer00002
  6
Continuous
 62
               4
100
AcDbLine
 10
72945.89106050109
 20
92473.769530993115
 30
0.0
 11
72935.630456201325
 21
92445.578752369533
 31
0.0
  0
LINE
  5
643
100
AcDbEntity
  8
Layer00002
  6
Continuous
 62
               4
100
AcDbLine
 10
72945.89106050109
 20
92473.769530993115
 30
0.0
 11
72926.607432210498
 21
92450.788197699541
 31
0.0
  0
LINE
  5
644
100
AcDbEntity
  8
Layer00002
  6
Continuous
 62
               4
100
AcDbLine
 10
72824.647503971268
 20
92263.769530993115
 30
0.0
 11
72525.643405181472
 21
92263.769530993115
 31
0.0
  0
LINE
  5
645
100
AcDbEntity
  8
Layer00002
  6
Continuous
 62
               4
100
AcDbLine
 10
72876.176015496443
 20
92516.519530993115
 30
0.0
 11
72770.665253802043
 21
92333.769530993115
 31
0.0
  0
LINE
  5
646
100
AcDbEntity
  8
Layer00002
  6
Continuous
 62
               4
100
AcDbLine
 10
72510.226155809782
 20
92589.4882809931
 30
0.0
 11
72631.469712339604
 21
92799.4882809931
 31
0.0
  0
LINE
  5
647
100
AcDbEntity
  8
Layer00002
  6
Continuous
 62
               4
100
AcDbLine
 10
72770.665253802043
 20
92333.769530993115
 30
0.0
 11
72573.593835449356
 21
92333.769530993115
 31
0.0
  0
LINE
  5
648
100
AcDbEntity
  8
Layer00002
  6
Continuous
 62
               4
100
AcDbLine
 10
72631.469712339604
 20
92799.4882809931
 30
0.0
 11
72939.70023963906
 21
92799.4882809931
 31
0.0
  0
LINE
  5
649
100
AcDbEntity
  8
Layer00002
  6
Continuous
 62
               4
100
AcDbLine
 10
72876.176015496443
 20
92516.519530993115
 30
0.0
 11
72865.915411196678
 21
92488.328752369533
 31
0.0
  0
LINE
  5
64A
100
AcDbEntity
  8
Layer00002
  6
Continuous
 62
               4
100
AcDbLine
 10
72876.176015496443
 20
92516.519530993115
 30
0.0
 11
72856.892387205851
 21
92493.538197699541
 31
0.0
  0
LINE
  5
64B
100
AcDbEntity
  8
Layer00002
  6
Continuous
 62
               4
100
AcDbLine
 10
72510.226155809782
 20
92589.4882809931
 30
0.0
 11
72520.486760109547
 21
92617.679059616683
 31
0.0
  0
LINE
  5
64C
100
AcDbEntity
  8
Layer00002
  6
Continuous
 62
               4
100
AcDbLine
 10
72510.226155809782
 20
92589.4882809931
 30
0.0
 11
72529.509784100374
 21
92612.469614286674
 31
0.0
  0
ELLIPSE
  5
64D
100
AcDbEntity
  8
Layer00002
  6
Continuous
 62
               6
100
AcDbEllipse
 10
72641.483131070854
 20
92698.019530993115
 30
0.0
 11
0.6123724356957941
 21
1.0606601717798214
 31
0.0
210
0.0
220
0.0
230
1.0
 40
0.5773502691896262
 41
2.35619449019234
 42
3.1415926535898002
  0
ELLIPSE
  5
64E
100
AcDbEntity
  8
Layer00002
  6
Continuous
 62
               6
100
AcDbEllipse
 10
72967.108682893813
 20
92486.019530993115
 30
0.0
 11
0.6123724356957941
 21
1.0606601717798214
 31
0.0
210
0.0
220
0.0
230
1.0
 40
0.5773502691896262
 41
2.35619449019234
 42
5.4977871437821326
  0
ELLIPSE
  5
64F
100
AcDbEntity
  8
Layer00002
  6
Continuous
 62
               6
100
AcDbEllipse
 10
72987.893292584646
 20
92498.019530993115
 30
0.0
 11
0.6123724356957941
 21
1.0606601717798214
 31
0.0
210
0.0
220
0.0
230
1.0
 40
0.5773502691896262
 41
2.35619449019234
 42
5.4977871437821326
  0
ELLIPSE
  5
650
100
AcDbEntity
  8
Layer00002
  6
Continuous
 62
               6
100
AcDbEllipse
 10
72963.990991440194
 20
92452.219530993112
 30
0.0
 11
0.9185586535436909
 21
1.5909902576697317
 31
0.0
210
0.0
220
0.0
230
1.0
 40
0.5773502691896257
 41
2.35619449019234
 42
3.926990816987237
  0
ELLIPSE
  5
651
100
AcDbEntity
  8
Layer00002
  6
Continuous
 62
               6
100
AcDbEllipse
 10
72991.010984038265
 20
92467.819530993103
 30
0.0
 11
0.9185586535436909
 21
1.5909902576697317
 31
0.0
210
0.0
220
0.0
230
1.0
 40
0.5773502691896257
 41
3.926990816987237
 42
5.4977871437821326
  0
TEXT
  5
652
100
AcDbEntity
  8
Layer00002
 62
               7
100
AcDbText
 10
72671.469489724172
 20
92804.487126449283
 30
0.0
 40
30.0
  1
太陽電池モジュ－ル
 41
0.7695
  7
FontTableH_0
 72
               5
 11
72941.469489724172
 21
92804.487126449283
 31
0.0
100
AcDbText
  0
TEXT
  5
653
100
AcDbEntity
  8
Layer00002
 62
               7
100
AcDbText
 10
72529.647224099172
 20
92268.768376449283
 30
0.0
 40
30.0
  1
スペ－サ（2.5mm）
 41
0.7695
  7
FontTableH_0
 72
               5
 11
72784.647224099172
 21
92268.768376449283
 31
0.0
100
AcDbText
  0
TEXT
  5
654
100
AcDbEntity
  8
Layer00002
 62
               7
100
AcDbText
 10
72580.665046364797
 20
92338.768376449283
 30
0.0
 40
30.0
  1
アルミ架台
 41
0.7695
  7
FontTableH_0
 72
               5
 11
72730.665046364797
 21
92338.768376449283
 31
0.0
100
AcDbText
  0
LINE
  5
655
100
AcDbEntity
  8
Layer00003
  6
Continuous
 62
               7
100
AcDbLine
 10
73804.834235817922
 20
90146.843815902408
 30
0.0
 11
73304.834235817922
 21
90146.843815902408
 31
0.0
  0
LINE
  5
656
100
AcDbEntity
  8
Layer00003
  6
Continuous
 62
               7
100
AcDbLine
 10
73804.834235817922
 20
90196.843815902408
 30
0.0
 11
73304.834235817922
 21
90196.843815902408
 31
0.0
  0
LINE
  5
657
100
AcDbEntity
  8
Layer00003
  6
Continuous
 62
               7
100
AcDbLine
 10
73304.834235817922
 20
90196.843815902408
 30
0.0
 11
73304.834235817922
 21
90146.843815902408
 31
0.0
  0
LINE
  5
658
100
AcDbEntity
  8
Layer00003
  6
Continuous
 62
               7
100
AcDbLine
 10
73804.834235817922
 20
90196.843815902408
 30
0.0
 11
73804.834235817922
 21
90146.843815902408
 31
0.0
  0
LINE
  5
659
100
AcDbEntity
  8
Layer00003
  6
Continuous
 62
               7
100
AcDbLine
 10
71554.834235817922
 20
92916.843815902408
 30
0.0
 11
71554.834235817922
 21
92966.843815902408
 31
0.0
  0
LINE
  5
65A
100
AcDbEntity
  8
Layer00003
  6
Continuous
 62
               7
100
AcDbLine
 10
71854.834235817922
 20
92966.843815902408
 30
0.0
 11
71554.834235817922
 21
92966.843815902408
 31
0.0
  0
LINE
  5
65B
100
AcDbEntity
  8
Layer00003
  6
Continuous
 62
               7
100
AcDbLine
 10
71854.834235817922
 20
92916.843815902408
 30
0.0
 11
71554.834235817922
 21
92916.843815902408
 31
0.0
  0
LINE
  5
65C
100
AcDbEntity
  8
Layer00003
  6
Continuous
 62
               7
100
AcDbLine
 10
71854.834235817922
 20
92916.843815902408
 30
0.0
 11
71854.834235817922
 21
92966.843815902408
 31
0.0
  0
TEXT
  5
65D
100
AcDbEntity
  8
Layer00003
 62
               7
100
AcDbText
 10
73367.334235817922
 20
90156.843815902408
 30
0.0
 40
30.0
  1
軒先断面詳細図　［S=1/3］
 41
0.7695
  7
FontTableH_0
 72
               5
 11
73742.334235817922
 21
90156.843815902408
 31
0.0
100
AcDbText
  0
TEXT
  5
65E
100
AcDbEntity
  8
Layer00003
 62
               7
100
AcDbText
 10
71629.834235817922
 20
92926.843815902408
 30
0.0
 40
30.0
  1
ＳＦルーフ
 41
0.7695
  7
FontTableH_0
 72
               5
 11
71779.834235817922
 21
92926.843815902408
 31
0.0
100
AcDbText
  0
ENDSEC
  0
SECTION
  2
OBJECTS
  0
DICTIONARY
  5
19
100
AcDbDictionary
  3
ACAD_GROUP
350
1A
  3
ACAD_MLINESTYLE
350
1B
  3
DWGPROPS
350
65F
  0
DICTIONARY
  5
1A
102
{ACAD_REACTORS
330
19
102
}
100
AcDbDictionary
  0
DICTIONARY
  5
1B
102
{ACAD_REACTORS
330
19
102
}
100
AcDbDictionary
  3
STANDARD
350
1C
  0
MLINESTYLE
  5
1C
102
{ACAD_REACTORS
330
1B
102
}
100
AcDbMlineStyle
  2
Standard
 70
               0
  3

 62
               0
 51
90.0
 52
90.0
 71
               2
 49
0.5
 62
             256
  6
ByLayer
 49
-0.5
 62
             256
  6
ByLayer
  0
XRECORD
  5
65F
100
AcDbXrecord
  1
DWGPROPS COOKIE
  2

  3

  4

  6

  7

  0
ENDSEC
  0
EOF
