  0
SECTION
  2
HEADER
  9
$ACADVER
  1
AC1014
  9
$ACADMAINTVER
 70
               0
  9
$DWGCODEPAGE
  3
ANSI_932
  9
$INSBASE
 10
0.0
 20
0.0
 30
0.0
  9
$EXTMIN
 10
0.0
 20
0.0
 30
0.0
  9
$EXTMAX
 10
30746.626649001319
 20
31921.085787444001
 30
0.0
  9
$LIMMIN
 10
0.0
 20
0.0
  9
$LIMMAX
 10
30746.626649001319
 20
31921.085787444001
  9
$ORTHOMODE
 70
               0
  9
$REGENMODE
 70
               1
  9
$FILLMODE
 70
               1
  9
$QTEXTMODE
 70
               0
  9
$MIRRTEXT
 70
               1
  9
$DRAGMODE
 70
               2
  9
$LTSCALE
 40
1.0
  9
$OSMODE
 70
               0
  9
$ATTMODE
 70
               1
  9
$TEXTSIZE
 40
0.2
  9
$TRACEWID
 40
0.05
  9
$TEXTSTYLE
  7
Standard
  9
$CLAYER
  8
Layer00002
  9
$CELTYPE
  6
Continuous
  9
$CECOLOR
 62
             256
  9
$CELTSCALE
 40
1.0
  9
$DELOBJ
 70
               1
  9
$DISPSILH
 70
               0
  9
$DIMSCALE
 40
1.0
  9
$DIMASZ
 40
0.18
  9
$DIMEXO
 40
0.0625
  9
$DIMDLI
 40
0.38
  9
$DIMRND
 40
0.0
  9
$DIMDLE
 40
0.0
  9
$DIMEXE
 40
0.18
  9
$DIMTP
 40
0.0
  9
$DIMTM
 40
0.0
  9
$DIMTXT
 40
0.18
  9
$DIMCEN
 40
0.09
  9
$DIMTSZ
 40
0.0
  9
$DIMTOL
 70
               0
  9
$DIMLIM
 70
               0
  9
$DIMTIH
 70
               1
  9
$DIMTOH
 70
               1
  9
$DIMSE1
 70
               0
  9
$DIMSE2
 70
               0
  9
$DIMTAD
 70
               0
  9
$DIMZIN
 70
               0
  9
$DIMBLK
  1

  9
$DIMASO
 70
               1
  9
$DIMSHO
 70
               1
  9
$DIMPOST
  1

  9
$DIMAPOST
  1

  9
$DIMALT
 70
               0
  9
$DIMALTD
 70
               2
  9
$DIMALTF
 40
25.399999999999999
  9
$DIMLFAC
 40
1.0
  9
$DIMTOFL
 70
               0
  9
$DIMTVP
 40
0.0
  9
$DIMTIX
 70
               0
  9
$DIMSOXD
 70
               0
  9
$DIMSAH
 70
               0
  9
$DIMBLK1
  1

  9
$DIMBLK2
  1

  9
$DIMSTYLE
  2
Standard
  9
$DIMCLRD
 70
               0
  9
$DIMCLRE
 70
               0
  9
$DIMCLRT
 70
               0
  9
$DIMTFAC
 40
1.0
  9
$DIMGAP
 40
0.09
  9
$DIMJUST
 70
               0
  9
$DIMSD1
 70
               0
  9
$DIMSD2
 70
               0
  9
$DIMTOLJ
 70
               1
  9
$DIMTZIN
 70
               0
  9
$DIMALTZ
 70
               0
  9
$DIMALTTZ
 70
               0
  9
$DIMFIT
 70
               3
  9
$DIMUPT
 70
               0
  9
$DIMUNIT
 70
               2
  9
$DIMDEC
 70
               4
  9
$DIMTDEC
 70
               4
  9
$DIMALTU
 70
               2
  9
$DIMALTTD
 70
               2
  9
$DIMTXSTY
  7
Standard
  9
$DIMAUNIT
 70
               0
  9
$LUNITS
 70
               2
  9
$LUPREC
 70
               4
  9
$SKETCHINC
 40
0.1
  9
$FILLETRAD
 40
0.0
  9
$AUNITS
 70
               0
  9
$AUPREC
 70
               0
  9
$MENU
  1
acad
  9
$ELEVATION
 40
0.0
  9
$PELEVATION
 40
0.0
  9
$THICKNESS
 40
0.0
  9
$LIMCHECK
 70
               0
  9
$BLIPMODE
 70
               1
  9
$CHAMFERA
 40
0.0
  9
$CHAMFERB
 40
0.0
  9
$CHAMFERC
 40
0.0
  9
$CHAMFERD
 40
0.0
  9
$SKPOLY
 70
               0
  9
$TDCREATE
 40
0.000000000
  9
$TDUPDATE
 40
0.000000000
  9
$TDINDWG
 40
0.0000000000
  9
$TDUSRTIMER
 40
0.0000000000
  9
$USRTIMER
 70
               1
  9
$ANGBASE
 50
0.0
  9
$ANGDIR
 70
               0
  9
$PDMODE
 70
               0
  9
$PDSIZE
 40
0.0
  9
$PLINEWID
 40
0.0
  9
$COORDS
 70
               0
  9
$SPLFRAME
 70
               0
  9
$SPLINETYPE
 70
               6
  9
$SPLINESEGS
 70
               8
  9
$ATTDIA
 70
               0
  9
$ATTREQ
 70
               1
  9
$HANDLING
 70
               1
  9
$HANDSEED
  5
189
  9
$SURFTAB1
 70
               6
  9
$SURFTAB2
 70
               6
  9
$SURFTYPE
 70
               6
  9
$SURFU
 70
               6
  9
$SURFV
 70
               6
  9
$UCSNAME
  2

  9
$UCSORG
 10
0.0
 20
0.0
 30
0.0
  9
$UCSXDIR
 10
1.0
 20
0.0
 30
0.0
  9
$UCSYDIR
 10
0.0
 20
1.0
 30
0.0
  9
$PUCSNAME
  2

  9
$PUCSORG
 10
0.0
 20
0.0
 30
0.0
  9
$PUCSXDIR
 10
1.0
 20
0.0
 30
0.0
  9
$PUCSYDIR
 10
0.0
 20
1.0
 30
0.0
  9
$USERI1
 70
               0
  9
$USERI2
 70
               0
  9
$USERI3
 70
               0
  9
$USERI4
 70
               0
  9
$USERI5
 70
               0
  9
$USERR1
 40
0.0
  9
$USERR2
 40
0.0
  9
$USERR3
 40
0.0
  9
$USERR4
 40
0.0
  9
$USERR5
 40
0.0
  9
$WORLDVIEW
 70
               1
  9
$SHADEDGE
 70
               3
  9
$SHADEDIF
 70
              70
  9
$TILEMODE
 70
               1
  9
$MAXACTVP
 70
              16
  9
$PINSBASE
 10
0.0
 20
0.0
 30
0.0
  9
$PLIMCHECK
 70
               0
  9
$PEXTMIN
 10
1.0000000000000000E+20
 20
1.0000000000000000E+20
 30
1.0000000000000000E+20
  9
$PEXTMAX
 10
-1.0000000000000000E+20
 20
-1.0000000000000000E+20
 30
-1.0000000000000000E+20
  9
$PLIMMIN
 10
0.0
 20
0.0
  9
$PLIMMAX
 10
12.0
 20
9.0
  9
$UNITMODE
 70
               0
  9
$VISRETAIN
 70
               0
  9
$PLINEGEN
 70
               1
  9
$PSLTSCALE
 70
               0
  9
$TREEDEPTH
 70
            3020
  9
$PICKSTYLE
 70
               1
  9
$CMLSTYLE
  2
Standard
  9
$CMLJUST
 70
               0
  9
$CMLSCALE
 40
1.0
  9
$PROXYGRAPHICS
 70
               0
  9
$MEASUREMENT
 70
               0
  0
ENDSEC
  0
SECTION
  2
CLASSES
  0
CLASS
  1
LWPOLYLINE
  2
AcDbPolyline
  3
"AutoCAD"
 90
        0
280
               0
281
               1
  0
CLASS
  1
IMAGE
  2
AcDbRasterImage
  3
ISM
 90
      127
280
               0
281
               1
  0
CLASS
  1
OLE2FRAME
  2
AcDbOle2Frame
  3
""
 90
        0
280
               0
281
               1
  0
CLASS
  1
HATCH
  2
AcDbHatch
  3
"ACAD_SEDONA"
 90
        0
280
               0
281
               1
  0
CLASS
  1
DICTIONARYVAR
  2
AcDbDictionaryVar
  3
"AutoCAD"
 90
        0
280
               0
281
               0
  0
CLASS
  1
RASTERVARIABLES
  2
AcDbRasterVariables
  3
ISM
 90
        0
280
               0
281
               0
  0
CLASS
  1
IMAGEDEF
  2
AcDbRasterImageDef
  3
ISM
 90
        0
280
               0
281
               0
  0
CLASS
  1
IMAGEDEF_REACTOR
  2
AcDbRasterImageDefReactor
  3
ISM
 90
        1
280
               0
281
               0
  0
CLASS
  1
IDBUFFER
  2
AcDbIdBuffer
  3
"Acad"
 90
        0
280
               0
281
               0
  0
CLASS
  1
SPATIAL_FILTER
  2
AcDbSpatialFilter
  3
"Acad"
 90
        0
280
               0
281
               0
  0
CLASS
  1
XRECORD
  2
AcDbXrecord
  3
"<Built In>"
 90
        0
280
               0
281
               0
  0
CLASS
  1
SORTENTSTABLE
  2
AcDbSortentsTable
  3
"AutoCAD"
 90
        0
280
               0
281
               0
  0
CLASS
  1
LAYER_INDEX
  2
AcDbLayerIndex
  3
"Acad"
 90
        0
280
               0
281
               0
  0
CLASS
  1
SPATIAL_INDEX
  2
AcDbSpatialIndex
  3
"Acad"
 90
        0
280
               0
281
               0
  0
CLASS
  1
OBJECT_PTR
  2
CAseDLPNTableRecord
  3
"ASE-LPNTableRecord"
 90
        1
280
               0
281
               0
  0
CLASS
  1
LAYOUT
  2
AcDbLayout
  3
"AutoCAD 2000"
 90
        0
280
               0
281
               0
  0
CLASS
  1
PLOTSETTINGS
  2
AcDbPlotSettings
  3
"AutoCAD 2000"
 90
        0
280
               0
281
               0
  0
CLASS
  1
ACDBDICTIONARYWDFLT
  2
AcDbDictionaryWithDefault
  3
"AutoCAD 2000"
 90
        0
280
               0
281
               0
  0
CLASS
  1
ACDBPLACEHOLDER
  2
AcDbPlaceHolder
  3
"AutoCAD 2000"
 90
        0
280
               0
281
               0
  0
CLASS
  1
VBA_PROJECT
  2
AcDbVbaProject
  3
"acadvba"
 90
        0
280
               0
281
               0
  0
CLASS
  1
WIPEOUT
  2
AcDbWipeout
  3
WipeOut|AutoCAD Express Tool|expresstools@autodesk.com
 90
      127
280
               0
281
               1
  0
CLASS
  1
WIPEOUTVARIABLES
  2
AcDbWipeoutVariables
  3
WipeOut|AutoCAD Express Tool|expresstools@autodesk.com
 90
        0
280
               0
281
               0
  0
CLASS
  1
RTEXT
  2
RText
  3
RText|AutoCAD Express Tool|expresstools@autodesk.com
 90
        0
280
               0
281
               1
  0
CLASS
  1
ARCALIGNEDTEXT
  2
AcDbArcAlignedText
  3
ATEXT|AutoCAD Express Tool|expresstools@autodesk.com
 90
        0
280
               0
281
               1
  0
ENDSEC
  0
SECTION
  2
TABLES
  0
TABLE
  2
VPORT
  5
7
100
AcDbSymbolTable
 70
               1
  0
VPORT
  5
15
100
AcDbSymbolTableRecord
100
AcDbViewportTableRecord
  2
*ACTIVE
 70
               0
 10
0.0
 20
0.0
 11
1.0
 21
1.0
 12
15373.313324500659
 22
15960.542893722
 13
0.0
 23
0.0
 14
10.0
 24
10.0
 15
10.0
 25
10.0
 16
0.0
 26
0.0
 36
1.0
 17
0.0
 27
0.0
 37
0.0
 40
31921.085787444001
 41
0.9632074188746848
 42
50.0
 43
0.0
 44
0.0
 50
0.0
 51
0.0
 71
               0
 72
             100
 73
               1
 74
               1
 75
               0
 76
               0
 77
               0
 78
               0
  0
ENDTAB
  0
TABLE
  2
LTYPE
  5
4
100
AcDbSymbolTable
 70
              24
  0
LTYPE
  5
11
100
AcDbSymbolTableRecord
100
AcDbLinetypeTableRecord
  2
ByBlock
 70
              64
  3

 72
              65
 73
               0
 40
0.0
  0
LTYPE
  5
12
100
AcDbSymbolTableRecord
100
AcDbLinetypeTableRecord
  2
ByLayer
 70
              64
  3

 72
              65
 73
               0
 40
0.0
  0
LTYPE
  5
13
100
AcDbSymbolTableRecord
100
AcDbLinetypeTableRecord
  2
Continuous
 70
              64
  3
Solid line
 72
              65
 73
               0
 40
0.0
  0
LTYPE
  5
1D
100
AcDbSymbolTableRecord
100
AcDbLinetypeTableRecord
  2
DOT
 70
              64
  3
Dot . . . . . . . . . . . . . . . . . . . . . .
 72
              65
 73
               2
 40
6.3499999999999996
 49
0.35
 74
               0
 49
-6.0
 74
               0
  0
LTYPE
  5
1E
100
AcDbSymbolTableRecord
100
AcDbLinetypeTableRecord
  2
DASHED
 70
              64
  3
Dashed __ __ __ __ __ __ __ __ __ __ __ __ __ _
 72
              65
 73
               2
 40
12.699999999999999
 49
6.3499999999999996
 74
               0
 49
-6.3499999999999996
 74
               0
  0
LTYPE
  5
1F
100
AcDbSymbolTableRecord
100
AcDbLinetypeTableRecord
  2
DASHDOT
 70
              64
  3
Dash dot __ . __ . __ . __ . __ . __ . __ . __
 72
              65
 73
               4
 40
25.399999999999999
 49
12.699999999999999
 74
               0
 49
-6.0
 74
               0
 49
0.7
 74
               0
 49
-6.0
 74
               0
  0
LTYPE
  5
20
100
AcDbSymbolTableRecord
100
AcDbLinetypeTableRecord
  2
DIVIDE
 70
              64
  3
Divide ____ . . ____ . . ____ . . ____ . . ____
 72
              65
 73
               6
 40
31.75
 49
12.699999999999999
 74
               0
 49
-6.0
 74
               0
 49
0.875
 74
               0
 49
-6.0
 74
               0
 49
0.875
 74
               0
 49
-6.0
 74
               0
  0
LTYPE
  5
21
100
AcDbSymbolTableRecord
100
AcDbLinetypeTableRecord
  2
HIDDEN
 70
              64
  3
Hidden __ __ __ __ __ __ __ __ __ __ __ __ __ _
 72
              65
 73
               2
 40
9.5250000000000004
 49
6.3499999999999996
 74
               0
 49
-3.1749999999999998
 74
               0
  0
LTYPE
  5
22
100
AcDbSymbolTableRecord
100
AcDbLinetypeTableRecord
  2
CENTER
 70
              64
  3
Center ____ _ ____ _ ____ _ ____ _ ____ _ ____
 72
              65
 73
               4
 40
50.799999999999997
 49
31.75
 74
               0
 49
-6.3499999999999996
 74
               0
 49
6.3499999999999996
 74
               0
 49
-6.3499999999999996
 74
               0
  0
LTYPE
  5
23
100
AcDbSymbolTableRecord
100
AcDbLinetypeTableRecord
  2
PHANTOM
 70
              64
  3
Phantom ______  __  __  ______  __  __  ______
 72
              65
 73
               6
 40
63.5
 49
31.75
 74
               0
 49
-6.3499999999999996
 74
               0
 49
6.3499999999999996
 74
               0
 49
-6.3499999999999996
 74
               0
 49
6.3499999999999996
 74
               0
 49
-6.3499999999999996
 74
               0
  0
LTYPE
  5
24
100
AcDbSymbolTableRecord
100
AcDbLinetypeTableRecord
  2
ACAD_ISO02W100
 70
              64
  3
ISO dash __ __ __ __ __ __ __ __ __ __ __ __ __
 72
              65
 73
               2
 40
15.0
 49
12.0
 74
               0
 49
-3.0
 74
               0
  0
LTYPE
  5
25
100
AcDbSymbolTableRecord
100
AcDbLinetypeTableRecord
  2
ACAD_ISO03W100
 70
              64
  3
ISO dash space __ __ __ __ __ __ __ __ __ __ __ __ __ __
 72
              65
 73
               2
 40
30.0
 49
12.0
 74
               0
 49
-18.0
 74
               0
  0
LTYPE
  5
26
100
AcDbSymbolTableRecord
100
AcDbLinetypeTableRecord
  2
ACAD_ISO04W100
 70
              64
  3
ISO long-dash dot ____ . ____ . ____ . ____ . _
 72
              65
 73
               4
 40
30.0
 49
24.0
 74
               0
 49
-3.0
 74
               0
 49
0.0
 74
               0
 49
-3.0
 74
               0
  0
LTYPE
  5
27
100
AcDbSymbolTableRecord
100
AcDbLinetypeTableRecord
  2
ACAD_ISO05W100
 70
              64
  3
ISO long-dash double-dot ____ .. ____ .. ____ .
 72
              65
 73
               6
 40
33.0
 49
24.0
 74
               0
 49
-3.0
 74
               0
 49
0.0
 74
               0
 49
-3.0
 74
               0
 49
0.0
 74
               0
 49
-3.0
 74
               0
  0
LTYPE
  5
28
100
AcDbSymbolTableRecord
100
AcDbLinetypeTableRecord
  2
ACAD_ISO06W100
 70
              64
  3
ISO long-dash triple-dot ____ ... ____ ... ____
 72
              65
 73
               8
 40
36.0
 49
24.0
 74
               0
 49
-3.0
 74
               0
 49
0.0
 74
               0
 49
-3.0
 74
               0
 49
0.0
 74
               0
 49
-3.0
 74
               0
 49
0.0
 74
               0
 49
-3.0
 74
               0
  0
LTYPE
  5
29
100
AcDbSymbolTableRecord
100
AcDbLinetypeTableRecord
  2
ACAD_ISO07W100
 70
              64
  3
ISO dot . . . . . . . . . . . . . . . . . . . .
 72
              65
 73
               2
 40
3.0
 49
0.0
 74
               0
 49
-3.0
 74
               0
  0
LTYPE
  5
2A
100
AcDbSymbolTableRecord
100
AcDbLinetypeTableRecord
  2
ACAD_ISO08W100
 70
              64
  3
ISO long-dash short-dash ____ __ ____ __ ____ _
 72
              65
 73
               4
 40
36.0
 49
24.0
 74
               0
 49
-3.0
 74
               0
 49
6.0
 74
               0
 49
-3.0
 74
               0
  0
LTYPE
  5
2B
100
AcDbSymbolTableRecord
100
AcDbLinetypeTableRecord
  2
ACAD_ISO09W100
 70
              64
  3
ISO long-dash double-short-dash ____ __ __ ____
 72
              65
 73
               6
 40
45.0
 49
24.0
 74
               0
 49
-3.0
 74
               0
 49
6.0
 74
               0
 49
-3.0
 74
               0
 49
6.0
 74
               0
 49
-3.0
 74
               0
  0
LTYPE
  5
2C
100
AcDbSymbolTableRecord
100
AcDbLinetypeTableRecord
  2
ACAD_ISO10W100
 70
              64
  3
ISO dash dot __ . __ . __ . __ . __ . __ . __ .
 72
              65
 73
               4
 40
18.0
 49
12.0
 74
               0
 49
-3.0
 74
               0
 49
0.0
 74
               0
 49
-3.0
 74
               0
  0
LTYPE
  5
2D
100
AcDbSymbolTableRecord
100
AcDbLinetypeTableRecord
  2
ACAD_ISO11W100
 70
              64
  3
ISO double-dash dot __ __ . __ __ . __ __ . __ 
 72
              65
 73
               6
 40
33.0
 49
12.0
 74
               0
 49
-3.0
 74
               0
 49
12.0
 74
               0
 49
-3.0
 74
               0
 49
0.0
 74
               0
 49
-3.0
 74
               0
  0
LTYPE
  5
2E
100
AcDbSymbolTableRecord
100
AcDbLinetypeTableRecord
  2
ACAD_ISO12W100
 70
              64
  3
ISO dash double-dot __ . . __ . . __ . . __ . .
 72
              65
 73
               6
 40
21.0
 49
12.0
 74
               0
 49
-3.0
 74
               0
 49
0.0
 74
               0
 49
-3.0
 74
               0
 49
0.0
 74
               0
 49
-3.0
 74
               0
  0
LTYPE
  5
2F
100
AcDbSymbolTableRecord
100
AcDbLinetypeTableRecord
  2
ACAD_ISO13W100
 70
              64
  3
ISO double-dash double-dot __ __ . . __ __ . . 
 72
              65
 73
               8
 40
36.0
 49
12.0
 74
               0
 49
-3.0
 74
               0
 49
12.0
 74
               0
 49
-3.0
 74
               0
 49
0.0
 74
               0
 49
-3.0
 74
               0
 49
0.0
 74
               0
 49
-3.0
 74
               0
  0
LTYPE
  5
30
100
AcDbSymbolTableRecord
100
AcDbLinetypeTableRecord
  2
ACAD_ISO14W100
 70
              64
  3
ISO dash triple-dot __ . . . __ . . . __ . . . 
 72
              65
 73
               8
 40
24.0
 49
12.0
 74
               0
 49
-3.0
 74
               0
 49
0.0
 74
               0
 49
-3.0
 74
               0
 49
0.0
 74
               0
 49
-3.0
 74
               0
 49
0.0
 74
               0
 49
-3.0
 74
               0
  0
LTYPE
  5
31
100
AcDbSymbolTableRecord
100
AcDbLinetypeTableRecord
  2
ACAD_ISO15W100
 70
              64
  3
ISO double-dash double-dot __ __ . . __ __ . . 
 72
              65
 73
              10
 40
39.0
 49
12.0
 74
               0
 49
-3.0
 74
               0
 49
12.0
 74
               0
 49
-3.0
 74
               0
 49
0.0
 74
               0
 49
-3.0
 74
               0
 49
0.0
 74
               0
 49
-3.0
 74
               0
 49
0.0
 74
               0
 49
-3.0
 74
               0
  0
ENDTAB
  0
TABLE
  2
LAYER
  5
2
100
AcDbSymbolTable
 70
               3
  0
LAYER
  5
14
100
AcDbSymbolTableRecord
100
AcDbLayerTableRecord
  2
0
 70
               0
 62
               7
  6
Continuous
  0
LAYER
  5
35
100
AcDbSymbolTableRecord
100
AcDbLayerTableRecord
  2
Layer00001
 70
               0
 62
               7
  6
Continuous
  0
LAYER
  5
36
100
AcDbSymbolTableRecord
100
AcDbLayerTableRecord
  2
Layer00002
 70
               0
 62
               7
  6
Continuous
  0
ENDTAB
  0
TABLE
  2
STYLE
  5
3
100
AcDbSymbolTable
 70
               4
  0
STYLE
  5
17
100
AcDbSymbolTableRecord
100
AcDbTextStyleTableRecord
  2
Standard
 70
               0
 40
0.0
 41
1.0
 50
0.0
 71
               0
 42
0.0
  3
txt.shx
  4
bigfont.shx
  0
STYLE
  5
32
100
AcDbSymbolTableRecord
100
AcDbTextStyleTableRecord
  2
STANDARD_T
 70
               4
 40
0.0
 41
1.0
 50
0.0
 71
               0
 42
0.0
  3
txt.shx
  4
bigfont.shx
  0
STYLE
  5
33
100
AcDbSymbolTableRecord
100
AcDbTextStyleTableRecord
  2
FontTableH_0
 70
               0
 40
0.0
 41
1.0
 50
0.0
 71
               0
 42
0.0
  3
MS Gothic.ttf
  4

1001
ACAD
1000
MS Gothic
1071
    32817
  0
STYLE
  5
34
100
AcDbSymbolTableRecord
100
AcDbTextStyleTableRecord
  2
FontTableV_0
 70
               0
 40
0.0
 41
1.0
 50
0.0
 71
               0
 42
0.0
  3
@MS Gothic.ttf
  4

1001
ACAD
1000
@MS Gothic
1071
    32817
  0
ENDTAB
  0
TABLE
  2
VIEW
  5
5
100
AcDbSymbolTable
 70
               0
  0
ENDTAB
  0
TABLE
  2
UCS
  5
6
100
AcDbSymbolTable
 70
               0
  0
ENDTAB
  0
TABLE
  2
APPID
  5
8
100
AcDbSymbolTable
 70
               1
  0
APPID
  5
16
100
AcDbSymbolTableRecord
100
AcDbRegAppTableRecord
  2
ACAD
 70
               0
  0
ENDTAB
  0
TABLE
  2
DIMSTYLE
  5
9
100
AcDbSymbolTable
 70
               1
  0
DIMSTYLE
105
18
100
AcDbSymbolTableRecord
100
AcDbDimStyleTableRecord
  2
Standard
 70
               0
  3

  4

  5

  6

  7

 40
1.0
 41
0.18
 42
0.0625
 43
0.38
 44
0.18
 45
0.0
 46
0.0
 47
0.0
 48
0.0
 71
               0
 72
               0
 73
               1
 74
               1
 75
               0
 76
               0
 77
               0
 78
               0
140
0.18
141
0.09
142
0.0
143
25.399999999999999
144
1.0
145
0.0
146
1.0
147
0.09
170
               0
171
               2
172
               0
173
               0
174
               0
175
               0
176
               0
177
               0
178
               0
270
               2
271
               4
272
               4
273
               2
274
               2
275
               0
280
               0
281
               0
282
               0
283
               1
284
               0
285
               0
286
               0
287
               0
288
               0
340
17
  0
ENDTAB
  0
TABLE
  2
BLOCK_RECORD
  5
1
100
AcDbSymbolTable
 70
               0
  0
BLOCK_RECORD
  5
A
100
AcDbSymbolTableRecord
100
AcDbBlockTableRecord
  2
*MODEL_SPACE
  0
BLOCK_RECORD
  5
B
100
AcDbSymbolTableRecord
100
AcDbBlockTableRecord
  2
*PAPER_SPACE
  0
ENDTAB
  0
ENDSEC
  0
SECTION
  2
BLOCKS
  0
BLOCK
  5
D
100
AcDbEntity
  8
0
100
AcDbBlockBegin
  2
*MODEL_SPACE
 70
               0
 10
0.0
 20
0.0
 30
0.0
  3
*MODEL_SPACE
  1

  0
ENDBLK
  5
E
100
AcDbEntity
  8
0
100
AcDbBlockEnd
  0
BLOCK
  5
F
100
AcDbEntity
 67
               1
  8
0
100
AcDbBlockBegin
  2
*PAPER_SPACE
 70
               0
 10
0.0
 20
0.0
 30
0.0
  3
*PAPER_SPACE
  1

  0
ENDBLK
  5
10
100
AcDbEntity
 67
               1
  8
0
100
AcDbBlockEnd
  0
ENDSEC
  0
SECTION
  2
ENTITIES
  0
LINE
  5
37
100
AcDbEntity
  8
0
  6
DASHED
 62
               6
100
AcDbLine
 10
22155.181398710876
 20
27397.722765001959
 30
0.0
 11
21557.673430516457
 21
27208.772125128562
 31
0.0
  0
LINE
  5
38
100
AcDbEntity
  8
0
  6
Continuous
 62
               2
100
AcDbLine
 10
22154.126098698329
 20
27401.059880805093
 30
0.0
 11
21558.842874372662
 21
27212.812774273392
 31
0.0
  0
LINE
  5
39
100
AcDbEntity
  8
0
  6
Continuous
 62
               7
100
AcDbLine
 10
22156.236698723424
 20
27394.38564919883
 30
0.0
 11
21556.503986660249
 21
27204.731475983728
 31
0.0
  0
LINE
  5
3A
100
AcDbEntity
  8
0
  6
DASHDOT
 62
               4
100
AcDbLine
 10
22159.251826449916
 20
27488.340331319821
 30
0.0
 11
22159.251826449916
 21
27099.447695864852
 31
0.0
  0
LINE
  5
3B
100
AcDbEntity
  8
0
  6
Continuous
 62
               2
100
AcDbLine
 10
22145.080670019339
 20
27429.663730546228
 30
0.0
 11
22154.126098698329
 21
27401.059880805093
 31
0.0
  0
LINE
  5
3C
100
AcDbEntity
  8
0
  6
Continuous
 62
               2
100
AcDbLine
 10
22145.080670019339
 20
27429.663730546228
 30
0.0
 11
21540.707777887052
 21
27238.54218778987
 31
0.0
  0
LINE
  5
3D
100
AcDbEntity
  8
0
  6
Continuous
 62
               6
100
AcDbLine
 10
22149.603365170238
 20
27415.361866354669
 30
0.0
 11
21869.407436770798
 21
27326.755181960179
 31
0.0
  0
LINE
  5
3E
100
AcDbEntity
  8
0
  6
Continuous
 62
               6
100
AcDbLine
 10
22152.618527251831
 20
27405.827189095286
 30
0.0
 11
21548.245635119543
 21
27214.705646338924
 31
0.0
  0
LINE
  5
3F
100
AcDbEntity
  8
0
  6
Continuous
 62
               2
100
AcDbLine
 10
22159.251826449916
 20
27438.340331319821
 30
0.0
 11
22017.185987965735
 21
27393.414864748505
 31
0.0
  0
LINE
  5
40
100
AcDbEntity
  8
0
  6
Continuous
 62
               3
100
AcDbLine
 10
22155.633670144827
 20
27396.292572514903
 30
0.0
 11
21557.17224029237
 21
27207.040418352204
 31
0.0
  0
LINE
  5
41
100
AcDbEntity
  8
0
  6
Continuous
 62
               6
100
AcDbLine
 10
21807.677042137628
 20
27322.966188793762
 30
0.0
 11
21874.419358200274
 21
27344.072189044735
 31
0.0
  0
LINE
  5
42
100
AcDbEntity
  8
0
  6
Continuous
 62
               6
100
AcDbLine
 10
21847.284308673265
 20
27376.814349742628
 30
0.0
 11
21858.440337377349
 21
27341.53626839523
 31
0.0
  0
LINE
  5
43
100
AcDbEntity
  8
0
  6
Continuous
 62
               6
100
AcDbLine
 10
21811.052765667828
 20
27365.356806749245
 30
0.0
 11
21822.208794371916
 21
27330.078725401847
 31
0.0
  0
LINE
  5
44
100
AcDbEntity
  8
0
  6
Continuous
 62
               6
100
AcDbLine
 10
21807.906869501348
 20
27325.556011062352
 30
0.0
 11
21822.208794371916
 21
27330.078725401847
 31
0.0
  0
LINE
  5
45
100
AcDbEntity
  8
0
  6
Continuous
 62
               6
100
AcDbLine
 10
21807.254922132608
 20
27324.301035115015
 30
0.0
 11
21807.677042137628
 21
27322.966188793762
 31
0.0
  0
LINE
  5
46
100
AcDbEntity
  8
0
  6
Continuous
 62
               6
100
AcDbLine
 10
21873.997238195254
 20
27345.407035365984
 30
0.0
 11
21874.419358200274
 21
27344.072189044735
 31
0.0
  0
LINE
  5
47
100
AcDbEntity
  8
0
  6
Continuous
 62
               6
100
AcDbLine
 10
21823.568100088236
 20
27332.081795038572
 30
0.0
 11
21813.91964283065
 21
27362.592568095781
 31
0.0
  0
LINE
  5
48
100
AcDbEntity
  8
0
  6
Continuous
 62
               6
100
AcDbLine
 10
21856.176488793128
 20
27342.393583732617
 30
0.0
 11
21846.528031535541
 21
27372.904356789826
 31
0.0
  0
LINE
  5
49
100
AcDbEntity
  8
0
  6
Continuous
 62
               6
100
AcDbLine
 10
21811.052765667828
 20
27365.356806749245
 30
0.0
 11
21818.680458932133
 21
27367.768921063642
 31
0.0
  0
LINE
  5
4A
100
AcDbEntity
  8
0
  6
Continuous
 62
               6
100
AcDbLine
 10
21819.73575894468
 20
27364.431805260509
 30
0.0
 11
21818.680458932133
 21
27367.768921063642
 31
0.0
  0
LINE
  5
4B
100
AcDbEntity
  8
0
  6
Continuous
 62
               6
100
AcDbLine
 10
21840.711915421511
 20
27371.065119625098
 30
0.0
 11
21839.656615408963
 21
27374.402235428232
 31
0.0
  0
LINE
  5
4C
100
AcDbEntity
  8
0
  6
Continuous
 62
               6
100
AcDbLine
 10
21813.91964283065
 20
27362.592568095781
 30
0.0
 11
21817.828835628607
 21
27363.828776681908
 31
0.0
  0
LINE
  5
4D
100
AcDbEntity
  8
0
  6
Continuous
 62
               6
100
AcDbLine
 10
21842.618838737588
 20
27371.668148203698
 30
0.0
 11
21846.528031535541
 21
27372.904356789826
 31
0.0
  0
LINE
  5
4E
100
AcDbEntity
  8
0
  6
Continuous
 62
               6
100
AcDbLine
 10
21839.656615408963
 20
27374.402235428232
 30
0.0
 11
21847.284308673265
 21
27376.814349742628
 31
0.0
  0
LINE
  5
4F
100
AcDbEntity
  8
0
  6
Continuous
 62
               6
100
AcDbLine
 10
21872.742262247917
 20
27346.058982734725
 30
0.0
 11
21858.440337377349
 21
27341.53626839523
 31
0.0
  0
LINE
  5
50
100
AcDbEntity
  8
0
  6
Continuous
 62
               6
100
AcDbLine
 10
21825.450564009243
 20
27331.103873985463
 30
0.0
 11
21831.648064786488
 21
27333.063716865912
 31
0.0
  0
LINE
  5
51
100
AcDbEntity
  8
0
  6
Continuous
 62
               6
100
AcDbLine
 10
21832.3652068921
 20
27334.444190407983
 30
0.0
 11
21847.620593420706
 21
27339.268419036776
 31
0.0
  0
LINE
  5
52
100
AcDbEntity
  8
0
  6
Continuous
 62
               6
100
AcDbLine
 10
21831.648064786488
 20
27333.063716865912
 30
0.0
 11
21832.3652068921
 21
27334.444190407983
 31
0.0
  0
LINE
  5
53
100
AcDbEntity
  8
0
  6
Continuous
 62
               6
100
AcDbLine
 10
21855.198567740023
 20
27340.511119811614
 30
0.0
 11
21849.001066962777
 21
27338.551276931164
 31
0.0
  0
LINE
  5
54
100
AcDbEntity
  8
0
  6
Continuous
 62
               6
100
AcDbLine
 10
21849.001066962777
 20
27338.551276931164
 30
0.0
 11
21847.620593420706
 21
27339.268419036776
 31
0.0
  0
LINE
  5
55
100
AcDbEntity
  8
0
  6
Continuous
 62
               6
100
AcDbLine
 10
21807.254922132608
 20
27324.301035115015
 30
0.0
 11
21807.906869501348
 21
27325.556011062352
 31
0.0
  0
LINE
  5
56
100
AcDbEntity
  8
0
  6
Continuous
 62
               6
100
AcDbLine
 10
21872.742262247917
 20
27346.058982734725
 30
0.0
 11
21873.997238195254
 21
27345.407035365984
 31
0.0
  0
LINE
  5
57
100
AcDbEntity
  8
0
  6
Continuous
 62
               4
100
AcDbLine
 10
21809.39443707668
 20
27370.600845868452
 30
0.0
 11
21808.339137064133
 21
27373.937961671585
 31
0.0
  0
LINE
  5
58
100
AcDbEntity
  8
0
  6
Continuous
 62
               4
100
AcDbLine
 10
21815.820073958017
 20
27366.864378195743
 30
0.0
 11
21814.16174536687
 21
27372.10841731495
 31
0.0
  0
LINE
  5
59
100
AcDbEntity
  8
0
  6
Continuous
 62
               4
100
AcDbLine
 10
21808.339137064133
 20
27373.937961671585
 30
0.0
 11
21526.114486284951
 21
27284.689732038907
 31
0.0
  0
LINE
  5
5A
100
AcDbEntity
  8
0
  6
Continuous
 62
               4
100
AcDbLine
 10
21822.208794371916
 20
27330.078725401847
 30
0.0
 11
21539.98414359273
 21
27240.830495769169
 31
0.0
  0
LINE
  5
5B
100
AcDbEntity
  8
0
  6
Continuous
 62
               4
100
AcDbLine
 10
21528.828114888645
 20
27276.108577116567
 30
0.0
 11
21815.820073958017
 21
27366.864378195743
 31
0.0
  0
LINE
  5
5C
100
AcDbEntity
  8
0
  6
Continuous
 62
               4
100
AcDbLine
 10
21811.052765667828
 20
27365.356806749245
 30
0.0
 11
21822.208794371916
 21
27330.078725401847
 31
0.0
  0
LINE
  5
5D
100
AcDbEntity
  8
0
  6
Continuous
 62
               6
100
AcDbLine
 10
21811.301360392757
 20
27371.203874447052
 30
0.0
 11
21810.849088958807
 21
27372.634066934108
 31
0.0
  0
LINE
  5
5E
100
AcDbEntity
  8
0
  6
Continuous
 62
               6
100
AcDbLine
 10
21842.295356467694
 20
27377.334307327925
 30
0.0
 11
21840.787785021195
 21
27382.101615618114
 31
0.0
  0
LINE
  5
5F
100
AcDbEntity
  8
0
  6
Continuous
 62
               6
100
AcDbLine
 10
21810.849088958807
 20
27372.634066934108
 30
0.0
 11
21840.787785021195
 21
27382.101615618114
 31
0.0
  0
LINE
  5
60
100
AcDbEntity
  8
0
  6
Continuous
 62
               6
100
AcDbLine
 10
21812.744628207161
 20
27376.589687107728
 30
0.0
 11
21836.962554321322
 21
27384.248150055937
 31
0.0
  0
LINE
  5
61
100
AcDbEntity
  8
0
  6
Continuous
 62
               6
100
AcDbLine
 10
21842.091679758672
 20
27384.611567512791
 30
0.0
 11
21836.962554321322
 21
27384.248150055937
 31
0.0
  0
LINE
  5
62
100
AcDbEntity
  8
0
  6
Continuous
 62
               6
100
AcDbLine
 10
21808.339137064133
 20
27373.937961671585
 30
0.0
 11
21812.744628207161
 21
27376.589687107728
 31
0.0
  0
LINE
  5
63
100
AcDbEntity
  8
0
  6
Continuous
 62
               7
100
AcDbLine
 10
21817.50624446349
 20
27379.773554351737
 30
0.0
 11
21817.988667326372
 21
27378.248015698875
 31
0.0
  0
LINE
  5
64
100
AcDbEntity
  8
0
  6
Continuous
 62
               7
100
AcDbLine
 10
21833.715092650134
 20
27384.899297269829
 30
0.0
 11
21834.197515513013
 21
27383.37375861697
 31
0.0
  0
LINE
  5
65
100
AcDbEntity
  8
0
  6
Continuous
 62
               7
100
AcDbLine
 10
21817.50624446349
 20
27379.773554351737
 30
0.0
 11
21833.715092650134
 21
27384.899297269829
 31
0.0
  0
LINE
  5
66
100
AcDbEntity
  8
0
  6
Continuous
 62
               7
100
AcDbLine
 10
21818.09504295744
 20
27382.057370529437
 30
0.0
 11
21818.698071536037
 21
27380.15044721336
 31
0.0
  0
LINE
  5
67
100
AcDbEntity
  8
0
  6
Continuous
 62
               7
100
AcDbLine
 10
21831.920236998987
 20
27386.42932772428
 30
0.0
 11
21832.523265577587
 21
27384.522404408206
 31
0.0
  0
LINE
  5
68
100
AcDbEntity
  8
0
  6
Continuous
 62
               7
100
AcDbLine
 10
21817.856677542928
 20
27381.981991957113
 30
0.0
 11
21832.158602413496
 21
27386.504706296604
 31
0.0
  0
LINE
  5
69
100
AcDbEntity
  8
0
  6
Continuous
 62
               7
100
AcDbLine
 10
21832.158602413496
 20
27386.504706296604
 30
0.0
 11
21830.392046072371
 21
27392.090987935
 31
0.0
  0
LINE
  5
6A
100
AcDbEntity
  8
0
  6
Continuous
 62
               7
100
AcDbLine
 10
21828.530201631482
 20
27392.174557067578
 30
0.0
 11
21817.565392564047
 21
27388.70714274063
 31
0.0
  0
LINE
  5
6B
100
AcDbEntity
  8
0
  6
Continuous
 62
               7
100
AcDbLine
 10
21821.193793346061
 20
27383.03729196966
 30
0.0
 11
21819.427237004937
 21
27388.623573608056
 31
0.0
  0
LINE
  5
6C
100
AcDbEntity
  8
0
  6
Continuous
 62
               7
100
AcDbLine
 10
21828.821486610363
 20
27385.449406284057
 30
0.0
 11
21827.054930269238
 21
27391.035687922453
 31
0.0
  0
LINE
  5
6D
100
AcDbEntity
  8
0
  6
Continuous
 62
               7
100
AcDbLine
 10
21837.565401000051
 20
27357.79901820096
 30
0.0
 11
21835.696012406395
 21
27363.710480480793
 31
0.0
  0
LINE
  5
6E
100
AcDbEntity
  8
0
  6
Continuous
 62
               7
100
AcDbLine
 10
21829.937707735749
 20
27355.386903886563
 30
0.0
 11
21828.068319142094
 21
27361.298366166397
 31
0.0
  0
LINE
  5
6F
100
AcDbEntity
  8
0
  6
Continuous
 62
               7
100
AcDbLine
 10
21817.856677542928
 20
27381.981991957113
 30
0.0
 11
21816.090121201803
 21
27387.568273595505
 31
0.0
  0
LINE
  5
70
100
AcDbEntity
  8
0
  6
Continuous
 62
               7
100
AcDbLine
 10
21831.192683683086
 20
27354.734956517827
 30
0.0
 11
21836.913453631314
 21
27356.544042253623
 31
0.0
  0
LINE
  5
71
100
AcDbEntity
  8
0
  6
Continuous
 62
               7
100
AcDbLine
 10
21824.197552171336
 20
27376.855266984301
 30
0.0
 11
21828.117237932231
 21
27364.460265429811
 31
0.0
  0
LINE
  5
72
100
AcDbEntity
  8
0
  6
Continuous
 62
               7
100
AcDbLine
 10
21829.918322119564
 20
27378.664352720101
 30
0.0
 11
21833.838007880458
 21
27366.269351165607
 31
0.0
  0
LINE
  5
73
100
AcDbEntity
  8
0
  6
Continuous
 62
               7
100
AcDbLine
 10
21829.937707735749
 20
27355.386903886563
 30
0.0
 11
21837.565401000051
 21
27357.79901820096
 31
0.0
  0
LINE
  5
74
100
AcDbEntity
  8
0
  6
Continuous
 62
               7
100
AcDbLine
 10
21836.913453631314
 20
27356.544042253623
 30
0.0
 11
21837.565401000051
 21
27357.79901820096
 31
0.0
  0
LINE
  5
75
100
AcDbEntity
  8
0
  6
Continuous
 62
               7
100
AcDbLine
 10
21831.192683683086
 20
27354.734956517827
 30
0.0
 11
21829.937707735749
 21
27355.386903886563
 31
0.0
  0
LINE
  5
76
100
AcDbEntity
  8
0
  6
Continuous
 62
               6
100
AcDbLine
 10
21821.443006325968
 20
27362.349665404712
 30
0.0
 11
21840.512239486721
 21
27368.379951190705
 31
0.0
  0
LINE
  5
77
100
AcDbEntity
  8
0
  6
Continuous
 62
               6
100
AcDbLine
 10
21821.620489624638
 20
27359.259361537224
 30
0.0
 11
21842.143841923848
 21
27365.749485109969
 31
0.0
  0
LINE
  5
78
100
AcDbEntity
  8
0
  6
Continuous
 62
               6
100
AcDbLine
 10
21821.443006325968
 20
27362.349665404712
 30
0.0
 11
21816.303296975744
 21
27363.34635381903
 31
0.0
  0
LINE
  5
79
100
AcDbEntity
  8
0
  6
Continuous
 62
               6
100
AcDbLine
 10
21821.620489624638
 20
27359.259361537224
 30
0.0
 11
21815.73217858277
 21
27360.40121820565
 31
0.0
  0
LINE
  5
7A
100
AcDbEntity
  8
0
  6
Continuous
 62
               6
100
AcDbLine
 10
21815.73217858277
 20
27360.40121820565
 30
0.0
 11
21816.303296975744
 21
27363.34635381903
 31
0.0
  0
LINE
  5
7B
100
AcDbEntity
  8
0
  6
Continuous
 62
               6
100
AcDbLine
 10
21840.512239486721
 20
27368.379951190705
 30
0.0
 11
21844.144377390447
 21
27372.150571066577
 31
0.0
  0
LINE
  5
7C
100
AcDbEntity
  8
0
  6
Continuous
 62
               6
100
AcDbLine
 10
21842.143841923848
 20
27365.749485109969
 30
0.0
 11
21846.305002850811
 21
27370.069297989823
 31
0.0
  0
LINE
  5
7D
100
AcDbEntity
  8
0
  6
Continuous
 62
               6
100
AcDbLine
 10
21846.305002850811
 20
27370.069297989823
 30
0.0
 11
21844.144377390447
 21
27372.150571066577
 31
0.0
  0
LINE
  5
7E
100
AcDbEntity
  8
0
  6
Continuous
 62
               7
100
AcDbLine
 10
21822.638915925399
 20
27308.819021842079
 30
0.0
 11
21870.311998827288
 21
27323.894736307058
 31
0.0
  0
LINE
  5
7F
100
AcDbEntity
  8
0
  6
Continuous
 62
               7
100
AcDbLine
 10
21863.942664029579
 20
27337.402940267417
 30
0.0
 11
21868.405075511215
 21
27323.291707728458
 31
0.0
  0
LINE
  5
80
100
AcDbEntity
  8
0
  6
Continuous
 62
               7
100
AcDbLine
 10
21822.169659339805
 20
27327.549205991116
 30
0.0
 11
21859.9267409981
 21
27339.489171847381
 31
0.0
  0
LINE
  5
81
100
AcDbEntity
  8
0
  6
Continuous
 62
               7
100
AcDbLine
 10
21820.083427759841
 20
27323.533282959637
 30
0.0
 11
21824.545839241477
 21
27309.422050420679
 31
0.0
  0
LINE
  5
82
100
AcDbEntity
  8
0
  6
Continuous
 62
               7
100
AcDbLine
 10
21827.596916547194
 20
27310.386896146436
 30
0.0
 11
21823.134505065562
 21
27324.498128685394
 31
0.0
  0
LINE
  5
83
100
AcDbEntity
  8
0
  6
Continuous
 62
               7
100
AcDbLine
 10
21860.891586723857
 20
27336.43809454166
 30
0.0
 11
21823.134505065562
 21
27324.498128685394
 31
0.0
  0
LINE
  5
84
100
AcDbEntity
  8
0
  6
Continuous
 62
               7
100
AcDbLine
 10
21865.353998205494
 20
27322.326862002701
 30
0.0
 11
21860.891586723857
 21
27336.43809454166
 31
0.0
  0
LINE
  5
85
100
AcDbEntity
  8
0
  6
Continuous
 62
               7
100
AcDbLine
 10
21866.090798777095
 20
27337.243199519588
 30
0.0
 11
21870.311998827288
 21
27323.894736307058
 31
0.0
  0
LINE
  5
86
100
AcDbEntity
  8
0
  6
DASHED
 62
               7
100
AcDbLine
 10
21841.952743036851
 20
27330.658803945134
 30
0.0
 11
21843.908585143065
 21
27334.423731787145
 31
0.0
  0
LINE
  5
87
100
AcDbEntity
  8
0
  6
DASHED
 62
               7
100
AcDbLine
 10
21841.952743036851
 20
27330.658803945134
 30
0.0
 11
21838.187815194837
 21
27332.614646051348
 31
0.0
  0
LINE
  5
88
100
AcDbEntity
  8
0
  6
DASHED
 62
               7
100
AcDbLine
 10
21847.673512985079
 20
27332.467889680931
 30
0.0
 11
21843.908585143065
 21
27334.423731787145
 31
0.0
  0
LINE
  5
89
100
AcDbEntity
  8
0
  6
DASHED
 62
               7
100
AcDbLine
 10
21847.673512985079
 20
27332.467889680931
 30
0.0
 11
21849.629355091292
 21
27336.232817522945
 31
0.0
  0
LINE
  5
8A
100
AcDbEntity
  8
0
  6
DASHED
 62
               7
100
AcDbLine
 10
21853.394282933303
 20
27334.276975416731
 30
0.0
 11
21849.629355091292
 21
27336.232817522945
 31
0.0
  0
LINE
  5
8B
100
AcDbEntity
  8
0
  6
DASHED
 62
               7
100
AcDbLine
 10
21853.394282933303
 20
27334.276975416728
 30
0.0
 11
21855.35012503952
 21
27338.041903258742
 31
0.0
  0
LINE
  5
8C
100
AcDbEntity
  8
0
  6
DASHED
 62
               7
100
AcDbLine
 10
21859.115052881531
 20
27336.086061152528
 30
0.0
 11
21855.35012503952
 21
27338.041903258742
 31
0.0
  0
LINE
  5
8D
100
AcDbEntity
  8
0
  6
DASHED
 62
               7
100
AcDbLine
 10
21859.115052881531
 20
27336.086061152528
 30
0.0
 11
21861.070894987744
 21
27339.850988994538
 31
0.0
  0
LINE
  5
8E
100
AcDbEntity
  8
0
  6
Continuous
 62
               7
100
AcDbLine
 10
21866.090798777095
 20
27337.243199519588
 30
0.0
 11
21862.989941786687
 21
27338.854063504685
 31
0.0
  0
LINE
  5
8F
100
AcDbEntity
  8
0
  6
DASHED
 62
               7
100
AcDbLine
 10
21862.989941786687
 20
27338.854063504685
 30
0.0
 11
21861.070894987744
 21
27339.850988994538
 31
0.0
  0
LINE
  5
90
100
AcDbEntity
  8
0
  6
Continuous
 62
               7
100
AcDbLine
 10
21818.417715875206
 20
27322.167485054608
 30
0.0
 11
21822.638915925399
 21
27308.819021842079
 31
0.0
  0
LINE
  5
91
100
AcDbEntity
  8
0
  6
DASHED
 62
               7
100
AcDbLine
 10
21836.231973088623
 20
27328.849718209338
 30
0.0
 11
21838.187815194837
 21
27332.614646051348
 31
0.0
  0
LINE
  5
92
100
AcDbEntity
  8
0
  6
DASHED
 62
               7
100
AcDbLine
 10
21836.231973088623
 20
27328.849718209338
 30
0.0
 11
21832.467045246613
 21
27330.805560315552
 31
0.0
  0
LINE
  5
93
100
AcDbEntity
  8
0
  6
DASHED
 62
               7
100
AcDbLine
 10
21830.511203140395
 20
27327.040632473538
 30
0.0
 11
21832.467045246613
 21
27330.805560315552
 31
0.0
  0
LINE
  5
94
100
AcDbEntity
  8
0
  6
DASHED
 62
               7
100
AcDbLine
 10
21830.511203140395
 20
27327.040632473538
 30
0.0
 11
21826.746275298385
 21
27328.996474579755
 31
0.0
  0
LINE
  5
95
100
AcDbEntity
  8
0
  6
DASHED
 62
               7
100
AcDbLine
 10
21824.790433192171
 20
27325.231546737741
 30
0.0
 11
21826.746275298385
 21
27328.996474579755
 31
0.0
  0
LINE
  5
96
100
AcDbEntity
  8
0
  6
DASHED
 62
               7
100
AcDbLine
 10
21824.790433192171
 20
27325.231546737741
 30
0.0
 11
21821.025505350157
 21
27327.187388843955
 31
0.0
  0
LINE
  5
97
100
AcDbEntity
  8
0
  6
Continuous
 62
               7
100
AcDbLine
 10
21818.417715875206
 20
27322.167485054608
 30
0.0
 11
21820.028579860304
 21
27325.268342045016
 31
0.0
  0
LINE
  5
98
100
AcDbEntity
  8
0
  6
Continuous
 62
               7
100
AcDbLine
 10
21831.406053200204
 20
27335.818971916193
 30
0.0
 11
21831.888476063083
 21
27334.293433263334
 31
0.0
  0
LINE
  5
99
100
AcDbEntity
  8
0
  6
Continuous
 62
               7
100
AcDbLine
 10
21847.614901386845
 20
27340.944714834288
 30
0.0
 11
21848.097324249724
 21
27339.419176181425
 31
0.0
  0
LINE
  5
9A
100
AcDbEntity
  8
0
  6
Continuous
 62
               7
100
AcDbLine
 10
21831.406053200204
 20
27335.818971916193
 30
0.0
 11
21847.614901386845
 21
27340.944714834288
 31
0.0
  0
LINE
  5
9B
100
AcDbEntity
  8
0
  6
Continuous
 62
               7
100
AcDbLine
 10
21831.994851694151
 20
27338.102788093893
 30
0.0
 11
21832.597880272751
 21
27336.195864777819
 31
0.0
  0
LINE
  5
9C
100
AcDbEntity
  8
0
  6
Continuous
 62
               7
100
AcDbLine
 10
21845.820045735698
 20
27342.474745288739
 30
0.0
 11
21846.423074314298
 21
27340.567821972661
 31
0.0
  0
LINE
  5
9D
100
AcDbEntity
  8
0
  6
Continuous
 62
               7
100
AcDbLine
 10
21831.756486279643
 20
27338.027409521568
 30
0.0
 11
21846.058411150207
 21
27342.550123861063
 31
0.0
  0
LINE
  5
9E
100
AcDbEntity
  8
0
  6
Continuous
 62
               7
100
AcDbLine
 10
21846.058411150207
 20
27342.550123861063
 30
0.0
 11
21844.291854809082
 21
27348.136405499459
 31
0.0
  0
LINE
  5
9F
100
AcDbEntity
  8
0
  6
Continuous
 62
               7
100
AcDbLine
 10
21842.430010368193
 20
27348.219974632033
 30
0.0
 11
21831.465201300758
 21
27344.752560305089
 31
0.0
  0
LINE
  5
A0
100
AcDbEntity
  8
0
  6
Continuous
 62
               7
100
AcDbLine
 10
21835.093602082772
 20
27339.082709534119
 30
0.0
 11
21833.327045741647
 21
27344.668991172512
 31
0.0
  0
LINE
  5
A1
100
AcDbEntity
  8
0
  6
Continuous
 62
               7
100
AcDbLine
 10
21842.721295347077
 20
27341.494823848516
 30
0.0
 11
21840.954739005949
 21
27347.081105486908
 31
0.0
  0
LINE
  5
A2
100
AcDbEntity
  8
0
  6
Continuous
 62
               7
100
AcDbLine
 10
21831.756486279643
 20
27338.027409521568
 30
0.0
 11
21829.989929938514
 21
27343.613691159964
 31
0.0
  0
LINE
  5
A3
100
AcDbEntity
  8
0
  6
Continuous
 62
               7
100
AcDbLine
 10
21848.866179620236
 20
27322.063202345107
 30
0.0
 11
21845.82689252686
 21
27331.674168770725
 31
0.0
  0
LINE
  5
A4
100
AcDbEntity
  8
0
  6
Continuous
 62
               7
100
AcDbLine
 10
21841.238486355935
 20
27319.651088030711
 30
0.0
 11
21838.199199262559
 21
27329.262054456329
 31
0.0
  0
LINE
  5
A5
100
AcDbEntity
  8
0
  6
Continuous
 62
               7
100
AcDbLine
 10
21842.493462303271
 20
27318.999140661974
 30
0.0
 11
21848.214232251499
 21
27320.80822639777
 31
0.0
  0
LINE
  5
A6
100
AcDbEntity
  8
0
  6
Continuous
 62
               7
100
AcDbLine
 10
21839.152660920598
 20
27329.563568745627
 30
0.0
 11
21842.493462303271
 21
27318.999140661974
 31
0.0
  0
LINE
  5
A7
100
AcDbEntity
  8
0
  6
Continuous
 62
               7
100
AcDbLine
 10
21844.873430868822
 20
27331.372654481427
 30
0.0
 11
21848.214232251499
 21
27320.80822639777
 31
0.0
  0
LINE
  5
A8
100
AcDbEntity
  8
0
  6
Continuous
 62
               7
100
AcDbLine
 10
21841.238486355935
 20
27319.651088030711
 30
0.0
 11
21848.866179620236
 21
27322.063202345107
 31
0.0
  0
LINE
  5
A9
100
AcDbEntity
  8
0
  6
Continuous
 62
               7
100
AcDbLine
 10
21848.214232251499
 20
27320.80822639777
 30
0.0
 11
21848.866179620236
 21
27322.063202345107
 31
0.0
  0
LINE
  5
AA
100
AcDbEntity
  8
0
  6
Continuous
 62
               7
100
AcDbLine
 10
21842.493462303271
 20
27318.999140661974
 30
0.0
 11
21841.238486355935
 21
27319.651088030711
 31
0.0
  0
LINE
  5
AB
100
AcDbEntity
  8
0
  6
Continuous
 62
               6
100
AcDbLine
 10
21844.232431212698
 20
27377.841989740722
 30
0.0
 11
21842.091679758672
 21
27384.611567512791
 31
0.0
  0
LINE
  5
AC
100
AcDbEntity
  8
0
  6
Continuous
 62
               6
100
AcDbLine
 10
21849.381124166102
 20
27379.470166902938
 30
0.0
 11
21851.461572762269
 21
27372.891281462478
 31
0.0
  0
LINE
  5
AD
100
AcDbEntity
  8
0
  6
Continuous
 62
               6
100
AcDbLine
 10
21838.798499916731
 20
27374.130872567861
 30
0.0
 11
21848.1424241655
 21
27377.085712602999
 31
0.0
  0
LINE
  5
AE
100
AcDbEntity
  8
0
  6
Continuous
 62
               6
100
AcDbLine
 10
21848.1424241655
 20
27377.085712602999
 30
0.0
 11
21849.649995611999
 21
27372.318404312809
 31
0.0
  0
LINE
  5
AF
100
AcDbEntity
  8
0
  6
Continuous
 62
               6
100
AcDbLine
 10
21849.649995611999
 20
27372.318404312809
 30
0.0
 11
21851.461572762269
 21
27372.891281462478
 31
0.0
  0
LINE
  5
B0
100
AcDbEntity
  8
0
  6
Continuous
 62
               6
100
AcDbLine
 10
21844.232431212698
 20
27377.841989740722
 30
0.0
 11
21849.381124166102
 21
27379.470166902938
 31
0.0
  0
LINE
  5
B1
100
AcDbEntity
  8
0
  6
Continuous
 62
               6
100
AcDbLine
 10
21836.383894187857
 20
27375.464918734269
 30
0.0
 11
21838.494494212955
 21
27368.790687128003
 31
0.0
  0
LINE
  5
B2
100
AcDbEntity
  8
0
  6
Continuous
 62
               6
100
AcDbLine
 10
21838.798499916731
 20
27374.130872567861
 30
0.0
 11
21840.306071363226
 21
27369.363564277672
 31
0.0
  0
LINE
  5
B3
100
AcDbEntity
  8
0
  6
Continuous
 62
               6
100
AcDbLine
 10
21840.306071363226
 20
27369.363564277672
 30
0.0
 11
21838.494494212955
 21
27368.790687128003
 31
0.0
  0
LINE
  5
B4
100
AcDbEntity
  8
0
  6
Continuous
 62
               6
100
AcDbLine
 10
21842.295356467694
 20
27377.334307327925
 30
0.0
 11
21836.383894187857
 21
27375.464918734269
 31
0.0
  0
LINE
  5
B5
100
AcDbEntity
  8
0
  6
Continuous
 62
               6
100
AcDbLine
 10
21821.734353868909
 20
27311.679467495196
 30
0.0
 11
21545.230473037951
 21
27224.240323598311
 31
0.0
  0
LINE
  5
B6
100
AcDbEntity
  8
0
  6
Continuous
 62
               3
100
AcDbLine
 10
22159.25184161642
 20
27384.851032618451
 30
0.0
 11
22155.633670144827
 21
27396.292572514903
 31
0.0
  0
LINE
  5
B7
100
AcDbEntity
  8
0
  6
Continuous
 62
               3
100
AcDbLine
 10
22036.055626458245
 20
27396.759725235868
 30
0.0
 11
22045.251812281884
 21
27367.679144665715
 31
0.0
  0
LINE
  5
B8
100
AcDbEntity
  8
0
  6
Continuous
 62
               3
100
AcDbLine
 10
22036.055626458245
 20
27396.759725235868
 30
0.0
 11
22017.463124126505
 21
27390.880196594524
 31
0.0
  0
LINE
  5
B9
100
AcDbEntity
  8
0
  6
Continuous
 62
               3
100
AcDbLine
 10
22083.427189764236
 20
27412.788918139679
 30
0.0
 11
22017.161609837207
 21
27391.833658252563
 31
0.0
  0
LINE
  5
BA
100
AcDbEntity
  8
0
  6
Continuous
 62
               2
100
AcDbLine
 10
22018.090530833633
 20
27390.554479774401
 30
0.0
 11
22036.393825140316
 21
27395.652461485137
 31
0.0
  0
LINE
  5
BB
100
AcDbEntity
  8
0
  6
Continuous
 62
               3
100
AcDbLine
 10
22159.25184161642
 20
27384.851032618451
 30
0.0
 11
21554.878949484133
 21
27193.729489862093
 31
0.0
  0
LINE
  5
BC
100
AcDbEntity
  8
0
  6
Continuous
 62
               7
100
AcDbLine
 10
22158.648813037824
 20
27386.757955934525
 30
0.0
 11
21554.275920905533
 21
27195.63641317817
 31
0.0
  0
LINE
  5
BD
100
AcDbEntity
  8
0
  6
Continuous
 62
               3
100
AcDbLine
 10
22046.611611172022
 20
27377.471964979679
 30
0.0
 11
22046.205273939922
 21
27367.980658955017
 31
0.0
  0
LINE
  5
BE
100
AcDbEntity
  8
0
  6
Continuous
 62
               2
100
AcDbLine
 10
22154.778046067066
 20
27402.314856752429
 30
0.0
 11
22146.034131677377
 21
27429.965244835526
 31
0.0
  0
LINE
  5
BF
100
AcDbEntity
  8
0
  6
Continuous
 62
               4
100
AcDbLine
 10
22157.442740714119
 20
27444.061101268046
 30
0.0
 11
22144.960070573579
 21
27483.534346123488
 31
0.0
  0
LINE
  5
C0
100
AcDbEntity
  8
0
  6
Continuous
 62
               4
100
AcDbLine
 10
22001.940831287866
 20
27438.307172940145
 30
0.0
 11
22014.423521838442
 21
27398.83386354319
 31
0.0
  0
LINE
  5
C1
100
AcDbEntity
  8
0
  6
DASHDOT
 62
               7
100
AcDbLine
 10
22063.905630845908
 20
27408.18900166449
 30
0.0
 11
22066.468527196488
 21
27400.084389580901
 31
0.0
  0
LINE
  5
C2
100
AcDbEntity
  8
0
  6
Continuous
 62
               7
100
AcDbLine
 10
22069.06493260372
 20
27408.456884965271
 30
0.0
 11
22059.530316023342
 21
27405.441742072275
 31
0.0
  0
LINE
  5
C3
100
AcDbEntity
  8
0
  6
Continuous
 62
               7
100
AcDbLine
 10
22062.390700997454
 20
27406.346284940173
 30
0.0
 11
22063.355546723211
 21
27403.295207634455
 31
0.0
  0
LINE
  5
C4
100
AcDbEntity
  8
0
  6
Continuous
 62
               7
100
AcDbLine
 10
22066.204547629604
 20
27407.55234209737
 30
0.0
 11
22067.169393355365
 21
27404.501264791652
 31
0.0
  0
LINE
  5
C5
100
AcDbEntity
  8
0
  6
Continuous
 62
               7
100
AcDbLine
 10
22067.169393355365
 20
27404.501264791652
 30
0.0
 11
22063.355546723211
 21
27403.295207634455
 31
0.0
  0
LINE
  5
C6
100
AcDbEntity
  8
0
  6
Continuous
 62
               7
100
AcDbLine
 10
22067.772421933962
 20
27402.594341475578
 30
0.0
 11
22063.958575301811
 21
27401.388284318378
 31
0.0
  0
LINE
  5
C7
100
AcDbEntity
  8
0
  6
Continuous
 62
               7
100
AcDbLine
 10
22059.85628970771
 20
27406.069230045941
 30
0.0
 11
22068.43744463005
 21
27408.78285864964
 31
0.0
  0
LINE
  5
C8
100
AcDbEntity
  8
0
  6
Continuous
 62
               4
100
AcDbLine
 10
22083.978606111559
 20
27501.340331319821
 30
0.0
 11
21893.383384920478
 21
27501.340331319821
 31
0.0
  0
LINE
  5
C9
100
AcDbEntity
  8
0
  6
Continuous
 62
               4
100
AcDbLine
 10
21996.12794909126
 20
27459.340331319821
 30
0.0
 11
21843.908563059285
 21
27459.340331319821
 31
0.0
  0
LINE
  5
CA
100
AcDbEntity
  8
0
  6
Continuous
 62
               4
100
AcDbLine
 10
22199.596493768848
 20
27501.340331319821
 30
0.0
 11
22349.596493768848
 21
27501.340331319821
 31
0.0
  0
LINE
  5
CB
100
AcDbEntity
  8
0
  6
Continuous
 62
               4
100
AcDbLine
 10
21738.882687542176
 20
27459.340331319821
 30
0.0
 11
21798.882687542176
 21
27459.340331319821
 31
0.0
  0
LINE
  5
CC
100
AcDbEntity
  8
0
  6
Continuous
 62
               4
100
AcDbLine
 10
21715.39301860836
 20
27438.340331319821
 30
0.0
 11
21795.39301860836
 21
27438.340331319821
 31
0.0
  0
LINE
  5
CD
100
AcDbEntity
  8
0
  6
Continuous
 62
               4
100
AcDbLine
 10
21786.24900003296
 20
27417.340331319821
 30
0.0
 11
21681.312134398442
 21
27417.340331319821
 31
0.0
  0
LINE
  5
CE
100
AcDbEntity
  8
0
  6
Continuous
 62
               4
100
AcDbLine
 10
21888.00324617435
 20
27270.340331319821
 30
0.0
 11
21938.00324617435
 21
27270.340331319821
 31
0.0
  0
LINE
  5
CF
100
AcDbEntity
  8
0
  6
Continuous
 62
               4
100
AcDbLine
 10
21571.520636807363
 20
27354.340331319821
 30
0.0
 11
21476.520636807363
 21
27354.340331319821
 31
0.0
  0
LINE
  5
D0
100
AcDbEntity
  8
0
  6
Continuous
 62
               4
100
AcDbLine
 10
21559.076763143905
 20
27213.620904102361
 30
0.0
 11
21549.54214656353
 21
27210.605761209368
 31
0.0
  0
LINE
  5
D1
100
AcDbEntity
  8
0
  6
Continuous
 62
               4
100
AcDbLine
 10
21558.587575242516
 20
27182.001911468233
 30
0.0
 11
21549.052958662138
 21
27178.986768575236
 31
0.0
  0
LINE
  5
D2
100
AcDbEntity
  8
0
  6
Continuous
 62
               4
100
AcDbLine
 10
21549.052958662138
 20
27178.986768575236
 30
0.0
 11
21559.076763143905
 21
27213.620904102361
 31
0.0
  0
LINE
  5
D3
100
AcDbEntity
  8
0
  6
Continuous
 62
               4
100
AcDbLine
 10
21526.114486284951
 20
27284.689732038907
 30
0.0
 11
21549.54214656353
 21
27210.605761209368
 31
0.0
  0
LINE
  5
D4
100
AcDbEntity
  8
0
  6
Continuous
 62
               4
100
AcDbLine
 10
21580.753162693876
 20
27251.205786412815
 30
0.0
 11
21589.798591372863
 21
27222.601936671683
 31
0.0
  0
LINE
  5
D5
100
AcDbEntity
  8
0
  6
Continuous
 62
               4
100
AcDbLine
 10
21591.306162819361
 20
27217.834628381494
 30
0.0
 11
21594.924334290958
 21
27206.393088485038
 31
0.0
  0
LINE
  5
D6
100
AcDbEntity
  8
0
  6
Continuous
 62
               4
100
AcDbLine
 10
21390.844636765967
 20
27402.340331319821
 30
0.0
 11
21661.629246456792
 21
27402.340331319821
 31
0.0
  0
LINE
  5
D7
100
AcDbEntity
  8
0
  6
Continuous
 62
               4
100
AcDbLine
 10
21390.844636765967
 20
27420.340331319821
 30
0.0
 11
21651.23694161138
 21
27420.340331319821
 31
0.0
  0
LINE
  5
D8
100
AcDbEntity
  8
0
  6
Continuous
 62
               4
100
AcDbLine
 10
21390.844658277383
 20
27438.340369588568
 30
0.0
 11
21640.844636765967
 21
27438.340331319821
 31
0.0
  0
LINE
  5
D9
100
AcDbEntity
  8
0
  6
Continuous
 62
               3
100
AcDbLine
 10
22106.751826449916
 20
27273.856250007026
 30
0.0
 11
22106.751826449916
 21
27168.856250007026
 31
0.0
  0
LINE
  5
DA
100
AcDbEntity
  8
0
  6
Continuous
 62
               3
100
AcDbLine
 10
22211.751826449916
 20
27273.856250007026
 30
0.0
 11
22211.751826449916
 21
27168.856250007026
 31
0.0
  0
LINE
  5
DB
100
AcDbEntity
  8
0
  6
Continuous
 62
               3
100
AcDbLine
 10
22159.251969408793
 20
27290.458184505405
 30
0.0
 11
21582.015235521096
 21
27107.917940638694
 31
0.0
  0
LINE
  5
DC
100
AcDbEntity
  8
0
  6
Continuous
 62
               3
100
AcDbLine
 10
22211.751826449916
 20
27168.856250007026
 30
0.0
 11
22106.751826449916
 21
27168.856250007026
 31
0.0
  0
LINE
  5
DD
100
AcDbEntity
  8
0
  6
Continuous
 62
               6
100
AcDbLine
 10
22106.751826449916
 20
27168.856250007026
 30
0.0
 11
22211.751826449916
 21
27273.856250007026
 31
0.0
  0
LINE
  5
DE
100
AcDbEntity
  8
0
  6
Continuous
 62
               6
100
AcDbLine
 10
22106.751826449916
 20
27273.856093048264
 30
0.0
 11
22211.751826449916
 21
27168.856250007026
 31
0.0
  0
LINE
  5
DF
100
AcDbEntity
  8
0
  6
Continuous
 62
               4
100
AcDbLine
 10
21558.587575242516
 20
27182.001911468233
 30
0.0
 11
21582.015235521096
 21
27107.917940638694
 31
0.0
  0
LINE
  5
E0
100
AcDbEntity
  8
0
  6
Continuous
 62
               7
100
AcDbLine
 10
22147.851218961641
 20
27404.319617648784
 30
0.0
 11
22140.31336172915
 21
27428.15615909973
 31
0.0
  0
LINE
  5
E1
100
AcDbEntity
  8
0
  6
Continuous
 62
               7
100
AcDbLine
 10
22153.608774345503
 20
27402.695786474218
 30
0.0
 11
22152.49019010679
 21
27400.542555528111
 31
0.0
  0
LINE
  5
E2
100
AcDbEntity
  8
0
  6
Continuous
 62
               7
100
AcDbLine
 10
22152.755963912889
 20
27405.39258088142
 30
0.0
 11
22149.793390881983
 21
27399.689743572017
 31
0.0
  0
LINE
  5
E3
100
AcDbEntity
  8
0
  6
Continuous
 62
               7
100
AcDbLine
 10
22151.903153480271
 20
27408.089375288622
 30
0.0
 11
22147.09659165718
 21
27398.836931615926
 31
0.0
  0
LINE
  5
E4
100
AcDbEntity
  8
0
  6
Continuous
 62
               7
100
AcDbLine
 10
22151.050343047653
 20
27410.786169695821
 30
0.0
 11
22147.790603510814
 21
27404.511298475529
 31
0.0
  0
LINE
  5
E5
100
AcDbEntity
  8
0
  6
Continuous
 62
               7
100
AcDbLine
 10
22150.197532615039
 20
27413.482964103023
 30
0.0
 11
22146.937793078199
 21
27407.208092882731
 31
0.0
  0
LINE
  5
E6
100
AcDbEntity
  8
0
  6
Continuous
 62
               7
100
AcDbLine
 10
22149.344722182421
 20
27416.179758510225
 30
0.0
 11
22146.084982645581
 21
27409.904887289929
 31
0.0
  0
LINE
  5
E7
100
AcDbEntity
  8
0
  6
Continuous
 62
               7
100
AcDbLine
 10
22148.491911749803
 20
27418.876552917423
 30
0.0
 11
22145.232172212964
 21
27412.601681697131
 31
0.0
  0
LINE
  5
E8
100
AcDbEntity
  8
0
  6
Continuous
 62
               7
100
AcDbLine
 10
22147.639101317189
 20
27421.573347324626
 30
0.0
 11
22144.379361780349
 21
27415.298476104334
 31
0.0
  0
LINE
  5
E9
100
AcDbEntity
  8
0
  6
Continuous
 62
               7
100
AcDbLine
 10
22146.786290884571
 20
27424.270141731828
 30
0.0
 11
22143.526551347732
 21
27417.995270511532
 31
0.0
  0
LINE
  5
EA
100
AcDbEntity
  8
0
  6
Continuous
 62
               7
100
AcDbLine
 10
22145.933480451953
 20
27426.966936139026
 30
0.0
 11
22142.673740915114
 21
27420.692064918734
 31
0.0
  0
LINE
  5
EB
100
AcDbEntity
  8
0
  6
Continuous
 62
               7
100
AcDbLine
 10
22145.080670019339
 20
27429.663730546228
 30
0.0
 11
22141.8209304825
 21
27423.388859325933
 31
0.0
  0
LINE
  5
EC
100
AcDbEntity
  8
0
  6
Continuous
 62
               7
100
AcDbLine
 10
22142.383870794532
 20
27428.810918590134
 30
0.0
 11
22140.968120049882
 21
27426.085653733135
 31
0.0
  0
LINE
  5
ED
100
AcDbEntity
  8
0
  6
Continuous
 62
               4
100
AcDbLine
 10
21566.159871091771
 20
27297.353330661852
 30
0.0
 11
21580.029528399551
 21
27253.494094392114
 31
0.0
  0
LINE
  5
EE
100
AcDbEntity
  8
0
  6
Continuous
 62
               4
100
AcDbLine
 10
22145.864584087598
 20
27480.674053973496
 30
0.0
 11
22002.845344801884
 21
27435.44688079015
 31
0.0
  0
LINE
  5
EF
100
AcDbEntity
  8
0
  6
Continuous
 62
               4
100
AcDbLine
 10
21527.169786297498
 20
27281.352616235774
 30
0.0
 11
21814.16174536687
 21
27372.10841731495
 31
0.0
  0
LINE
  5
F0
100
AcDbEntity
  8
0
  6
Continuous
 62
               7
100
AcDbLine
 10
21834.791469538497
 20
27366.570865454909
 30
0.0
 11
21830.871783777602
 21
27378.9658670094
 31
0.0
  0
LINE
  5
F1
100
AcDbEntity
  8
0
  6
Continuous
 62
               7
100
AcDbLine
 10
21827.163776274196
 20
27364.158751140512
 30
0.0
 11
21823.244090513301
 21
27376.553752695003
 31
0.0
  0
LINE
  5
F2
100
AcDbEntity
  8
0
  6
Continuous
 62
               7
100
AcDbLine
 10
21829.021780800129
 20
27361.599880455698
 30
0.0
 11
21831.192683683086
 21
27354.734956517827
 31
0.0
  0
LINE
  5
F3
100
AcDbEntity
  8
0
  6
Continuous
 62
               7
100
AcDbLine
 10
21834.742550748357
 20
27363.408966191495
 30
0.0
 11
21836.913453631314
 21
27356.544042253623
 31
0.0
  0
LINE
  5
F4
100
AcDbEntity
  8
0
  6
Continuous
 62
               4
100
AcDbLine
 10
22040.653719370064
 20
27382.219434950792
 30
0.0
 11
21996.12794909126
 21
27459.340331319821
 31
0.0
  0
LINE
  5
F5
100
AcDbEntity
  8
0
  6
Continuous
 62
               4
100
AcDbLine
 10
22126.35738514733
 20
27427.93813286713
 30
0.0
 11
22083.978606111559
 21
27501.340331319821
 31
0.0
  0
LINE
  5
F6
100
AcDbEntity
  8
0
  6
Continuous
 62
               4
100
AcDbLine
 10
21823.047797097766
 20
27390.440849904102
 30
0.0
 11
21795.39301860836
 21
27438.340331319821
 31
0.0
  0
LINE
  5
F7
100
AcDbEntity
  8
0
  6
Continuous
 62
               4
100
AcDbLine
 10
21851.547662475088
 20
27333.483254506522
 30
0.0
 11
21888.00324617435
 21
27270.340331319821
 31
0.0
  0
LINE
  5
F8
100
AcDbEntity
  8
0
  6
Continuous
 62
               4
100
AcDbLine
 10
21810.541882635647
 20
27375.263824389654
 30
0.0
 11
21786.24900003296
 21
27417.340331319821
 31
0.0
  0
LINE
  5
F9
100
AcDbEntity
  8
0
  6
Continuous
 62
               4
100
AcDbLine
 10
21865.591299812633
 20
27343.797625564977
 30
0.0
 11
21798.882687542176
 21
27459.340331319821
 31
0.0
  0
LINE
  5
FA
100
AcDbEntity
  8
0
  6
Continuous
 62
               4
100
AcDbLine
 10
22150.40608887222
 20
27416.14005079398
 30
0.0
 11
22199.596493768848
 21
27501.340331319821
 31
0.0
  0
LINE
  5
FB
100
AcDbEntity
  8
0
  6
Continuous
 62
               4
100
AcDbLine
 10
21610.291854674695
 20
27287.186612102276
 30
0.0
 11
21571.520636807363
 21
27354.340331319821
 31
0.0
  0
LINE
  5
FC
100
AcDbEntity
  8
0
  6
Continuous
 62
               4
100
AcDbLine
 10
22040.653719370064
 20
27382.219434950792
 30
0.0
 11
22034.868630882884
 21
27389.113834938864
 31
0.0
  0
LINE
  5
FD
100
AcDbEntity
  8
0
  6
Continuous
 62
               4
100
AcDbLine
 10
22040.653719370064
 20
27382.219434950792
 30
0.0
 11
22037.575538080131
 21
27390.676668537864
 31
0.0
  0
LINE
  5
FE
100
AcDbEntity
  8
0
  6
Continuous
 62
               4
100
AcDbLine
 10
22126.35738514733
 20
27427.93813286713
 30
0.0
 11
22120.57229666015
 21
27434.832532855202
 31
0.0
  0
LINE
  5
FF
100
AcDbEntity
  8
0
  6
Continuous
 62
               4
100
AcDbLine
 10
22126.35738514733
 20
27427.93813286713
 30
0.0
 11
22123.279203857401
 21
27436.395366454202
 31
0.0
  0
LINE
  5
100
100
AcDbEntity
  8
0
  6
Continuous
 62
               4
100
AcDbLine
 10
22150.40608887222
 20
27416.14005079398
 30
0.0
 11
22153.484270162153
 21
27424.597284381052
 31
0.0
  0
LINE
  5
101
100
AcDbEntity
  8
0
  6
Continuous
 62
               4
100
AcDbLine
 10
22150.40608887222
 20
27416.14005079398
 30
0.0
 11
22156.1911773594
 21
27423.034450782048
 31
0.0
  0
LINE
  5
102
100
AcDbEntity
  8
0
  6
Continuous
 62
               4
100
AcDbLine
 10
21851.547662475088
 20
27333.483254506522
 30
0.0
 11
21857.332750962269
 21
27326.588854518453
 31
0.0
  0
LINE
  5
103
100
AcDbEntity
  8
0
  6
Continuous
 62
               4
100
AcDbLine
 10
21851.547662475088
 20
27333.483254506522
 30
0.0
 11
21854.625843765018
 21
27325.026020919449
 31
0.0
  0
LINE
  5
104
100
AcDbEntity
  8
0
  6
Continuous
 62
               4
100
AcDbLine
 10
21610.291854674695
 20
27287.186612102276
 30
0.0
 11
21604.506766187515
 21
27294.081012090348
 31
0.0
  0
LINE
  5
105
100
AcDbEntity
  8
0
  6
Continuous
 62
               4
100
AcDbLine
 10
21610.291854674695
 20
27287.186612102276
 30
0.0
 11
21607.213673384762
 21
27295.643845689352
 31
0.0
  0
LINE
  5
106
100
AcDbEntity
  8
0
  6
Continuous
 62
               4
100
AcDbLine
 10
21865.591299812633
 20
27343.797625564977
 30
0.0
 11
21859.806211325456
 21
27350.692025553049
 31
0.0
  0
LINE
  5
107
100
AcDbEntity
  8
0
  6
Continuous
 62
               4
100
AcDbLine
 10
21865.591299812633
 20
27343.797625564977
 30
0.0
 11
21862.513118522704
 21
27352.25485915205
 31
0.0
  0
LINE
  5
108
100
AcDbEntity
  8
0
  6
Continuous
 62
               4
100
AcDbLine
 10
21823.047797097766
 20
27390.440849904102
 30
0.0
 11
21817.262708610586
 21
27397.335249892174
 31
0.0
  0
LINE
  5
109
100
AcDbEntity
  8
0
  6
Continuous
 62
               4
100
AcDbLine
 10
21823.047797097766
 20
27390.440849904102
 30
0.0
 11
21819.969615807833
 21
27398.898083491178
 31
0.0
  0
LINE
  5
10A
100
AcDbEntity
  8
0
  6
Continuous
 62
               4
100
AcDbLine
 10
21810.541882635647
 20
27375.263824389654
 30
0.0
 11
21804.75679414847
 21
27382.158224377727
 31
0.0
  0
LINE
  5
10B
100
AcDbEntity
  8
0
  6
Continuous
 62
               4
100
AcDbLine
 10
21810.541882635647
 20
27375.263824389654
 30
0.0
 11
21807.463701345718
 21
27383.721057976731
 31
0.0
  0
LINE
  5
10C
100
AcDbEntity
  8
0
  6
DASHED
 62
               6
100
AcDbLine
 10
22163.322254188955
 20
27397.722765001959
 30
0.0
 11
22409.251826449916
 21
27319.952170271783
 31
0.0
  0
LINE
  5
10D
100
AcDbEntity
  8
0
  6
Continuous
 62
               2
100
AcDbLine
 10
22164.377554201503
 20
27401.059880805093
 30
0.0
 11
22409.251826449916
 21
27323.623004825531
 31
0.0
  0
LINE
  5
10E
100
AcDbEntity
  8
0
  6
Continuous
 62
               7
100
AcDbLine
 10
22162.266954176404
 20
27394.38564919883
 30
0.0
 11
22409.251826449916
 21
27316.281335718035
 31
0.0
  0
LINE
  5
10F
100
AcDbEntity
  8
0
  6
Continuous
 62
               2
100
AcDbLine
 10
22173.422982880493
 20
27429.663730546228
 30
0.0
 11
22164.377554201503
 21
27401.059880805093
 31
0.0
  0
LINE
  5
110
100
AcDbEntity
  8
0
  6
Continuous
 62
               2
100
AcDbLine
 10
22173.422982880493
 20
27429.663730546228
 30
0.0
 11
22409.251826449916
 21
27355.087301000527
 31
0.0
  0
LINE
  5
111
100
AcDbEntity
  8
0
  6
Continuous
 62
               6
100
AcDbLine
 10
22168.90028772959
 20
27415.361866354669
 30
0.0
 11
22409.251826449916
 21
27339.355219660069
 31
0.0
  0
LINE
  5
112
100
AcDbEntity
  8
0
  6
Continuous
 62
               6
100
AcDbLine
 10
22165.885125648001
 20
27405.827189095286
 30
0.0
 11
22409.251826449916
 21
27328.867054188031
 31
0.0
  0
LINE
  5
113
100
AcDbEntity
  8
0
  6
Continuous
 62
               3
100
AcDbLine
 10
22162.869982755004
 20
27396.292572514903
 30
0.0
 11
22409.251826449916
 21
27318.378955463035
 31
0.0
  0
LINE
  5
114
100
AcDbEntity
  8
0
  6
Continuous
 62
               3
100
AcDbLine
 10
22159.251811283408
 20
27384.851032618451
 30
0.0
 11
22162.869982755004
 21
27396.292572514903
 31
0.0
  0
LINE
  5
115
100
AcDbEntity
  8
0
  6
Continuous
 62
               3
100
AcDbLine
 10
22159.251811283408
 20
27384.851032618451
 30
0.0
 11
22409.251826449916
 21
27305.793236993035
 31
0.0
  0
LINE
  5
116
100
AcDbEntity
  8
0
  6
Continuous
 62
               7
100
AcDbLine
 10
22159.854839862008
 20
27386.757955934525
 30
0.0
 11
22409.251826449916
 21
27307.890856738035
 31
0.0
  0
LINE
  5
117
100
AcDbEntity
  8
0
  6
Continuous
 62
               2
100
AcDbLine
 10
22163.725606832762
 20
27402.314856752429
 30
0.0
 11
22172.469521222454
 21
27429.965244835526
 31
0.0
  0
LINE
  5
118
100
AcDbEntity
  8
0
  6
Continuous
 62
               4
100
AcDbLine
 10
22161.060912185712
 20
27444.061101268046
 30
0.0
 11
22173.543582326252
 21
27483.534346123488
 31
0.0
  0
LINE
  5
119
100
AcDbEntity
  8
0
  6
Continuous
 62
               3
100
AcDbLine
 10
22159.251683491038
 20
27290.458184505405
 30
0.0
 11
22359.251826449916
 21
27227.211906633918
 31
0.0
  0
LINE
  5
11A
100
AcDbEntity
  8
0
  6
Continuous
 62
               7
100
AcDbLine
 10
22170.65243393819
 20
27404.319617648784
 30
0.0
 11
22178.190291170682
 21
27428.15615909973
 31
0.0
  0
LINE
  5
11B
100
AcDbEntity
  8
0
  6
Continuous
 62
               7
100
AcDbLine
 10
22164.894878554329
 20
27402.695786474218
 30
0.0
 11
22166.013462793042
 21
27400.542555528111
 31
0.0
  0
LINE
  5
11C
100
AcDbEntity
  8
0
  6
Continuous
 62
               7
100
AcDbLine
 10
22165.747688986943
 20
27405.39258088142
 30
0.0
 11
22168.710262017845
 21
27399.689743572017
 31
0.0
  0
LINE
  5
11D
100
AcDbEntity
  8
0
  6
Continuous
 62
               7
100
AcDbLine
 10
22166.600499419561
 20
27408.089375288622
 30
0.0
 11
22171.407061242651
 21
27398.836931615926
 31
0.0
  0
LINE
  5
11E
100
AcDbEntity
  8
0
  6
Continuous
 62
               7
100
AcDbLine
 10
22167.453309852175
 20
27410.786169695821
 30
0.0
 11
22170.713049389014
 21
27404.511298475529
 31
0.0
  0
LINE
  5
11F
100
AcDbEntity
  8
0
  6
Continuous
 62
               7
100
AcDbLine
 10
22168.306120284793
 20
27413.482964103023
 30
0.0
 11
22171.565859821632
 21
27407.208092882731
 31
0.0
  0
LINE
  5
120
100
AcDbEntity
  8
0
  6
Continuous
 62
               7
100
AcDbLine
 10
22169.158930717411
 20
27416.179758510225
 30
0.0
 11
22172.41867025425
 21
27409.904887289929
 31
0.0
  0
LINE
  5
121
100
AcDbEntity
  8
0
  6
Continuous
 62
               7
100
AcDbLine
 10
22170.011741150025
 20
27418.876552917423
 30
0.0
 11
22173.271480686864
 21
27412.601681697131
 31
0.0
  0
LINE
  5
122
100
AcDbEntity
  8
0
  6
Continuous
 62
               7
100
AcDbLine
 10
22170.864551582643
 20
27421.573347324626
 30
0.0
 11
22174.124291119482
 21
27415.298476104334
 31
0.0
  0
LINE
  5
123
100
AcDbEntity
  8
0
  6
Continuous
 62
               7
100
AcDbLine
 10
22171.717362015261
 20
27424.270141731828
 30
0.0
 11
22174.9771015521
 21
27417.995270511532
 31
0.0
  0
LINE
  5
124
100
AcDbEntity
  8
0
  6
Continuous
 62
               7
100
AcDbLine
 10
22172.570172447875
 20
27426.966936139026
 30
0.0
 11
22175.829911984714
 21
27420.692064918734
 31
0.0
  0
LINE
  5
125
100
AcDbEntity
  8
0
  6
Continuous
 62
               7
100
AcDbLine
 10
22173.422982880493
 20
27429.663730546228
 30
0.0
 11
22176.682722417332
 21
27423.388859325933
 31
0.0
  0
LINE
  5
126
100
AcDbEntity
  8
0
  6
Continuous
 62
               7
100
AcDbLine
 10
22176.119782105296
 20
27428.810918590134
 30
0.0
 11
22177.53553284995
 21
27426.085653733135
 31
0.0
  0
LINE
  5
127
100
AcDbEntity
  8
0
  6
Continuous
 62
               4
100
AcDbLine
 10
21640.844636765967
 20
27438.340331319821
 30
0.0
 11
21743.922707036196
 21
27259.80387646563
 31
0.0
  0
LINE
  5
128
100
AcDbEntity
  8
0
  6
Continuous
 62
               2
100
AcDbLine
 10
22159.251826449916
 20
27438.340331319821
 30
0.0
 11
22301.317664934093
 21
27393.414864748505
 31
0.0
  0
LINE
  5
129
100
AcDbEntity
  8
0
  6
Continuous
 62
               3
100
AcDbLine
 10
22282.448026441587
 20
27396.759725235868
 30
0.0
 11
22273.251840617948
 21
27367.679144665715
 31
0.0
  0
LINE
  5
12A
100
AcDbEntity
  8
0
  6
Continuous
 62
               3
100
AcDbLine
 10
22282.448026441587
 20
27396.759725235868
 30
0.0
 11
22301.040528773323
 21
27390.880196594524
 31
0.0
  0
LINE
  5
12B
100
AcDbEntity
  8
0
  6
Continuous
 62
               3
100
AcDbLine
 10
22235.076463135596
 20
27412.788918139679
 30
0.0
 11
22301.342043062625
 21
27391.833658252563
 31
0.0
  0
LINE
  5
12C
100
AcDbEntity
  8
0
  6
Continuous
 62
               2
100
AcDbLine
 10
22300.413122066198
 20
27390.554479774401
 30
0.0
 11
22282.109827759516
 21
27395.652461485137
 31
0.0
  0
LINE
  5
12D
100
AcDbEntity
  8
0
  6
Continuous
 62
               3
100
AcDbLine
 10
22271.89204172781
 20
27377.471964979679
 30
0.0
 11
22272.298378959909
 21
27367.980658955017
 31
0.0
  0
LINE
  5
12E
100
AcDbEntity
  8
0
  6
Continuous
 62
               4
100
AcDbLine
 10
22316.562821611966
 20
27438.307172940145
 30
0.0
 11
22304.080131061386
 21
27398.83386354319
 31
0.0
  0
LINE
  5
12F
100
AcDbEntity
  8
0
  6
DASHDOT
 62
               7
100
AcDbLine
 10
22254.598022053924
 20
27408.18900166449
 30
0.0
 11
22252.035125703344
 21
27400.084389580901
 31
0.0
  0
LINE
  5
130
100
AcDbEntity
  8
0
  6
Continuous
 62
               7
100
AcDbLine
 10
22249.438720296112
 20
27408.456884965271
 30
0.0
 11
22258.97333687649
 21
27405.441742072275
 31
0.0
  0
LINE
  5
131
100
AcDbEntity
  8
0
  6
Continuous
 62
               7
100
AcDbLine
 10
22256.112951902374
 20
27406.346284940173
 30
0.0
 11
22255.148106176617
 21
27403.295207634455
 31
0.0
  0
LINE
  5
132
100
AcDbEntity
  8
0
  6
Continuous
 62
               7
100
AcDbLine
 10
22252.299105270224
 20
27407.55234209737
 30
0.0
 11
22251.334259544466
 21
27404.501264791652
 31
0.0
  0
LINE
  5
133
100
AcDbEntity
  8
0
  6
Continuous
 62
               7
100
AcDbLine
 10
22251.334259544466
 20
27404.501264791652
 30
0.0
 11
22255.148106176617
 21
27403.295207634455
 31
0.0
  0
LINE
  5
134
100
AcDbEntity
  8
0
  6
Continuous
 62
               7
100
AcDbLine
 10
22250.731230965866
 20
27402.594341475578
 30
0.0
 11
22254.545077598017
 21
27401.388284318378
 31
0.0
  0
LINE
  5
135
100
AcDbEntity
  8
0
  6
Continuous
 62
               7
100
AcDbLine
 10
22258.647363192122
 20
27406.069230045941
 30
0.0
 11
22250.066208269782
 21
27408.78285864964
 31
0.0
  0
LINE
  5
136
100
AcDbEntity
  8
0
  6
Continuous
 62
               4
100
AcDbLine
 10
22172.639068812234
 20
27480.674053973496
 30
0.0
 11
22315.658308097947
 21
27435.44688079015
 31
0.0
  0
CIRCLE
  5
137
100
AcDbEntity
  8
0
  6
Continuous
 62
               7
100
AcDbCircle
 10
21833.519417489577
 20
27372.251700216177
 30
0.0
 40
0.5
  0
CIRCLE
  5
138
100
AcDbEntity
  8
0
  6
Continuous
 62
               7
100
AcDbCircle
 10
21831.921391756288
 20
27377.305047003778
 30
0.0
 40
0.5
  0
CIRCLE
  5
139
100
AcDbEntity
  8
0
  6
Continuous
 62
               7
100
AcDbCircle
 10
21835.117443222865
 20
27367.198353428576
 30
0.0
 40
0.5
  0
CIRCLE
  5
13A
100
AcDbEntity
  8
0
  6
Continuous
 62
               7
100
AcDbCircle
 10
21832.720404622934
 20
27374.778373609977
 30
0.0
 40
0.5
  0
CIRCLE
  5
13B
100
AcDbEntity
  8
0
  6
Continuous
 62
               7
100
AcDbCircle
 10
21834.318430356223
 20
27369.725026822376
 30
0.0
 40
0.5
  0
CIRCLE
  5
13C
100
AcDbEntity
  8
0
  6
Continuous
 62
               7
100
AcDbCircle
 10
21824.938262567237
 20
27369.538071612482
 30
0.0
 40
0.5
  0
CIRCLE
  5
13D
100
AcDbEntity
  8
0
  6
Continuous
 62
               7
100
AcDbCircle
 10
21823.340236833948
 20
27374.591418400079
 30
0.0
 40
0.5
  0
CIRCLE
  5
13E
100
AcDbEntity
  8
0
  6
Continuous
 62
               7
100
AcDbCircle
 10
21826.536288300525
 20
27364.484724824881
 30
0.0
 40
0.5
  0
CIRCLE
  5
13F
100
AcDbEntity
  8
0
  6
Continuous
 62
               7
100
AcDbCircle
 10
21824.139249700595
 20
27372.064745006282
 30
0.0
 40
0.5
  0
CIRCLE
  5
140
100
AcDbEntity
  8
0
  6
Continuous
 62
               7
100
AcDbCircle
 10
21825.737275433879
 20
27367.011398218681
 30
0.0
 40
0.5
  0
CIRCLE
  5
141
100
AcDbEntity
  8
0
  6
Continuous
 62
               4
100
AcDbCircle
 10
21580.753162693876
 20
27251.205786412815
 30
0.0
 40
1.5
  0
CIRCLE
  5
142
100
AcDbEntity
  8
0
  6
Continuous
 62
               4
100
AcDbCircle
 10
21589.798591372863
 20
27222.601936671683
 30
0.0
 40
1.5
  0
CIRCLE
  5
143
100
AcDbEntity
  8
0
  6
Continuous
 62
               4
100
AcDbCircle
 10
21591.306162819361
 20
27217.834628381494
 30
0.0
 40
1.5
  0
CIRCLE
  5
144
100
AcDbEntity
  8
0
  6
Continuous
 62
               4
100
AcDbCircle
 10
21594.924334290958
 20
27206.393088485038
 30
0.0
 40
1.5
  0
CIRCLE
  5
145
100
AcDbEntity
  8
0
  6
Continuous
 62
               4
100
AcDbCircle
 10
21566.159871091771
 20
27297.353330661852
 30
0.0
 40
1.5
  0
CIRCLE
  5
146
100
AcDbEntity
  8
0
  6
Continuous
 62
               4
100
AcDbCircle
 10
21580.029528399551
 20
27253.494094392114
 30
0.0
 40
1.5
  0
CIRCLE
  5
147
100
AcDbEntity
  8
0
  6
Continuous
 62
               4
100
AcDbCircle
 10
22145.864584087598
 20
27480.674053973496
 30
0.0
 40
1.5
  0
CIRCLE
  5
148
100
AcDbEntity
  8
0
  6
Continuous
 62
               4
100
AcDbCircle
 10
22002.845344801884
 20
27435.44688079015
 30
0.0
 40
1.5
  0
CIRCLE
  5
149
100
AcDbEntity
  8
0
  6
Continuous
 62
               4
100
AcDbCircle
 10
21743.922707036196
 20
27259.80387646563
 30
0.0
 40
1.5
  0
CIRCLE
  5
14A
100
AcDbEntity
  8
0
  6
Continuous
 62
               4
100
AcDbCircle
 10
21740.082379310054
 20
27266.455519205021
 30
0.0
 40
1.5
  0
CIRCLE
  5
14B
100
AcDbEntity
  8
0
  6
Continuous
 62
               4
100
AcDbCircle
 10
21738.290226371188
 20
27269.55961915007
 30
0.0
 40
1.5
  0
CIRCLE
  5
14C
100
AcDbEntity
  8
0
  6
Continuous
 62
               4
100
AcDbCircle
 10
22172.639068812234
 20
27480.674053973496
 30
0.0
 40
1.5
  0
CIRCLE
  5
14D
100
AcDbEntity
  8
0
  6
Continuous
 62
               4
100
AcDbCircle
 10
22315.658308097947
 20
27435.44688079015
 30
0.0
 40
1.5
  0
ARC
  5
14E
100
AcDbEntity
  8
0
  6
Continuous
 62
               6
100
AcDbCircle
 10
21841.665377079549
 20
27371.3666339144
 30
0.0
 40
1.0
100
AcDbArc
 50
197.5485775690465
 51
17.548577569046497
  0
ARC
  5
14F
100
AcDbEntity
  8
0
  6
Continuous
 62
               6
100
AcDbCircle
 10
21818.782297286642
 20
27364.13029097121
 30
0.0
 40
1.0
100
AcDbArc
 50
197.5485775690465
 51
17.548577569046497
  0
ARC
  5
150
100
AcDbEntity
  8
0
  6
Continuous
 62
               6
100
AcDbCircle
 10
21854.746296306072
 20
27341.94131229867
 30
0.0
 40
1.5
100
AcDbArc
 50
287.54857756904647
 51
17.548577569046497
  0
ARC
  5
151
100
AcDbEntity
  8
0
  6
Continuous
 62
               6
100
AcDbCircle
 10
21824.998292575292
 20
27332.534066472523
 30
0.0
 40
1.5
100
AcDbArc
 50
197.5485775690465
 51
287.54857756904647
  0
ARC
  5
152
100
AcDbEntity
  8
0
  6
Continuous
 62
               7
100
AcDbCircle
 10
21826.907180058311
 20
27378.236540499362
 30
0.0
 40
12.800000190734863
100
AcDbArc
 50
89.338620985634392
 51
125.75853415245867
  0
ARC
  5
153
100
AcDbEntity
  8
0
  6
Continuous
 62
               7
100
AcDbCircle
 10
21829.347056795101
 20
27389.591461982796
 30
0.0
 40
2.709175626521696
100
AcDbArc
 50
67.311415196592534
 51
147.78573994150034
  0
ARC
  5
154
100
AcDbEntity
  8
0
  6
Continuous
 62
               7
100
AcDbCircle
 10
21818.382247727666
 20
27386.124047655852
 30
0.0
 40
2.709175626521696
100
AcDbArc
 50
67.311415196592648
 51
147.78573994150045
  0
ARC
  5
155
100
AcDbEntity
  8
0
  6
Continuous
 62
               7
100
AcDbCircle
 10
21860.891586723857
 20
27336.43809454166
 30
0.0
 40
3.2000000000000002
100
AcDbArc
 50
17.5485775690465
 51
107.54857756904653
  0
ARC
  5
156
100
AcDbEntity
  8
0
  6
Continuous
 62
               7
100
AcDbCircle
 10
21823.134505065562
 20
27324.498128685394
 30
0.0
 40
3.2000000000000002
100
AcDbArc
 50
107.54857756904653
 51
197.5485775690465
  0
ARC
  5
157
100
AcDbEntity
  8
0
  6
Continuous
 62
               7
100
AcDbCircle
 10
21840.806988795022
 20
27334.281958063821
 30
0.0
 40
12.800000190734863
100
AcDbArc
 50
89.338620985634392
 51
125.75853415245867
  0
ARC
  5
158
100
AcDbEntity
  8
0
  6
Continuous
 62
               7
100
AcDbCircle
 10
21843.246865531812
 20
27345.636879547255
 30
0.0
 40
2.709175626521696
100
AcDbArc
 50
67.311415196592534
 51
147.78573994150034
  0
ARC
  5
159
100
AcDbEntity
  8
0
  6
Continuous
 62
               7
100
AcDbCircle
 10
21832.282056464377
 20
27342.169465220311
 30
0.0
 40
2.709175626521696
100
AcDbArc
 50
67.311415196592648
 51
147.78573994150045
  0
ARC
  5
15A
100
AcDbEntity
  8
0
  6
DIVIDE
 62
               6
100
AcDbCircle
 10
22074.328391607265
 20
27370.581276931858
 30
0.0
 40
5.0
100
AcDbArc
 50
350.98352639197242
 51
17.54857756905016
  0
ARC
  5
15B
100
AcDbEntity
  8
0
  6
Continuous
 62
               3
100
AcDbCircle
 10
22017.312366981856
 20
27391.356927423545
 30
0.0
 40
0.500000000000041
100
AcDbArc
 50
107.54857756905037
 51
287.54857756905182
  0
ARC
  5
15C
100
AcDbEntity
  8
0
  6
Continuous
 62
               2
100
AcDbCircle
 10
22017.638259399686
 20
27391.984672261453
 30
0.0
 40
1.4999999999970011
100
AcDbArc
 50
107.54857756905135
 51
287.5485775690513
  0
ARC
  5
15D
100
AcDbEntity
  8
0
  6
Continuous
 62
               3
100
AcDbCircle
 10
22045.728543110901
 20
27367.829901810364
 30
0.0
 40
0.499999999999993
100
AcDbArc
 50
197.54857756905108
 51
17.548577569051076
  0
ARC
  5
15E
100
AcDbEntity
  8
0
  6
Continuous
 62
               2
100
AcDbCircle
 10
22153.824584409027
 20
27402.013342463131
 30
0.0
 40
1.0
100
AcDbArc
 50
287.54857756904767
 51
17.54857756905011
  0
ARC
  5
15F
100
AcDbEntity
  8
0
  6
Continuous
 62
               7
100
AcDbCircle
 10
22063.657064871226
 20
27402.341748446113
 30
0.0
 40
0.999999940395358
100
AcDbArc
 50
107.54857974708548
 51
287.54856885691277
  0
ARC
  5
160
100
AcDbEntity
  8
0
  6
Continuous
 62
               7
100
AcDbCircle
 10
22067.470907644663
 20
27403.547803133613
 30
0.0
 40
1.0000000000000051
100
AcDbArc
 50
287.54857756905034
 51
107.54857756905113
  0
ARC
  5
161
100
AcDbEntity
  8
0
  6
Continuous
 62
               7
100
AcDbCircle
 10
22068.588201774699
 20
27408.306127820619
 30
0.0
 40
0.5
100
AcDbArc
 50
17.548577569046728
 51
107.54857756904796
  0
ARC
  5
162
100
AcDbEntity
  8
0
  6
Continuous
 62
               7
100
AcDbCircle
 10
22060.007046852359
 20
27405.592499216924
 30
0.0
 40
0.5
100
AcDbArc
 50
107.54857756904789
 51
197.54857756904673
  0
ARC
  5
163
100
AcDbEntity
  8
0
  6
Continuous
 62
               7
100
AcDbCircle
 10
22143.083910671452
 20
27402.812046202285
 30
0.0
 40
5.0
100
AcDbArc
 50
287.54857756904767
 51
17.54857756905011
  0
ARC
  5
164
100
AcDbEntity
  8
0
  6
Continuous
 62
               2
100
AcDbCircle
 10
22164.679068490801
 20
27402.013342463131
 30
0.0
 40
1.0
100
AcDbArc
 50
162.4514224309498
 51
252.45142243095228
  0
ARC
  5
165
100
AcDbEntity
  8
0
  6
Continuous
 62
               7
100
AcDbCircle
 10
22175.41974222838
 20
27402.812046202285
 30
0.0
 40
5.0
100
AcDbArc
 50
162.4514224309498
 51
252.45142243095228
  0
ARC
  5
166
100
AcDbEntity
  8
0
  6
Continuous
 62
               3
100
AcDbCircle
 10
22301.191285917972
 20
27391.356927423545
 30
0.0
 40
0.500000000000041
100
AcDbArc
 50
252.45142243094821
 51
72.451422430949577
  0
ARC
  5
167
100
AcDbEntity
  8
0
  6
Continuous
 62
               2
100
AcDbCircle
 10
22300.865393500146
 20
27391.984672261453
 30
0.0
 40
1.4999999999970011
100
AcDbArc
 50
252.45142243094867
 51
72.451422430948668
  0
ARC
  5
168
100
AcDbEntity
  8
0
  6
Continuous
 62
               3
100
AcDbCircle
 10
22272.77510978893
 20
27367.829901810364
 30
0.0
 40
0.499999999999993
100
AcDbArc
 50
162.45142243094884
 51
342.45142243094892
  0
ARC
  5
169
100
AcDbEntity
  8
0
  6
Continuous
 62
               7
100
AcDbCircle
 10
22254.846588028606
 20
27402.341748446113
 30
0.0
 40
0.999999940395358
100
AcDbArc
 50
252.45143114308721
 51
72.451420252914488
  0
ARC
  5
16A
100
AcDbEntity
  8
0
  6
Continuous
 62
               7
100
AcDbCircle
 10
22251.032745255168
 20
27403.547803133613
 30
0.0
 40
1.0000000000000051
100
AcDbArc
 50
72.451422430948881
 51
252.45142243094958
  0
ARC
  5
16B
100
AcDbEntity
  8
0
  6
Continuous
 62
               7
100
AcDbCircle
 10
22249.915451125129
 20
27408.306127820619
 30
0.0
 40
0.5
100
AcDbArc
 50
72.451422430952036
 51
162.45142243095327
  0
ARC
  5
16C
100
AcDbEntity
  8
0
  6
Continuous
 62
               7
100
AcDbCircle
 10
22258.496606047469
 20
27405.592499216924
 30
0.0
 40
0.5
100
AcDbArc
 50
342.45142243095324
 51
72.451422430952078
  0
TEXT
  5
16D
100
AcDbEntity
  8
0
 62
               7
100
AcDbText
 10
21896.478988420669
 20
27502.840248436998
 30
0.0
 40
9.0000000000000089
  1
下リ棟カバ－：高級化粧鋼板 t0.4, L=2000
 41
0.7695
  7
FontTableH_0
 72
               5
 11
22071.978988420669
 21
27502.840248436998
 31
0.0
100
AcDbText
  0
TEXT
  5
16E
100
AcDbEntity
  8
0
 62
               7
100
AcDbText
 10
21844.628219377701
 20
27460.840431542467
 30
0.0
 40
9.0000000000000089
  1
面戸：高級化粧鋼板 t0.4, L=2000
 41
0.7695
  7
FontTableH_0
 72
               5
 11
21984.128219377701
 21
27460.840431542467
 31
0.0
100
AcDbText
  0
TEXT
  5
16F
100
AcDbEntity
  8
0
 62
               7
100
AcDbText
 10
22211.596420061294
 20
27502.840675683092
 30
0.0
 40
9.0000000000000089
  1
ＳＦル－フパネル本体立上げ処理
 41
0.7695
  7
FontTableH_0
 72
               5
 11
22346.596420061294
 21
27502.840675683092
 31
0.0
100
AcDbText
  0
TEXT
  5
170
100
AcDbEntity
  8
0
 62
               7
100
AcDbText
 10
22247.596420061294
 20
27487.840675683092
 30
0.0
 40
9.0000000000000089
  1
（周囲コ－キング充填）
 41
0.7695
  7
FontTableH_0
 72
               5
 11
22346.596420061294
 21
27487.840675683092
 31
0.0
100
AcDbText
  0
TEXT
  5
171
100
AcDbEntity
  8
0
 62
               7
100
AcDbText
 10
21684.248977434341
 20
27418.840309472154
 30
0.0
 40
9.0000000000000089
  1
モジュ－ル側面カバ－
 41
0.7695
  7
FontTableH_0
 72
               5
 11
21774.248977434341
 21
27418.840309472154
 31
0.0
100
AcDbText
  0
TEXT
  5
172
100
AcDbEntity
  8
0
 62
               7
100
AcDbText
 10
21720.392898332779
 20
27439.840309472154
 30
0.0
 40
9.0000000000000089
  1
Ｍ8 六角ボルト
 41
0.7695
  7
FontTableH_0
 72
               5
 11
21783.392898332779
 21
27439.840309472154
 31
0.0
100
AcDbText
  0
TEXT
  5
173
100
AcDbEntity
  8
0
 62
               7
100
AcDbText
 10
21741.882430803482
 20
27460.840614647936
 30
0.0
 40
9.0000000000000089
  1
アルミ架台
 41
0.7695
  7
FontTableH_0
 72
               5
 11
21786.882430803482
 21
27460.840614647936
 31
0.0
100
AcDbText
  0
TEXT
  5
174
100
AcDbEntity
  8
0
 62
               7
100
AcDbText
 10
21900.003585588638
 20
27271.840492577623
 30
0.0
 40
9.0000000000000089
  1
取付金具
 41
0.7695
  7
FontTableH_0
 72
               5
 11
21936.003585588638
 21
27271.840492577623
 31
0.0
100
AcDbText
  0
TEXT
  5
175
100
AcDbEntity
  8
0
 62
               7
100
AcDbText
 10
21478.52130104274
 20
27355.842262597154
 30
0.0
 40
9.0000000000000089
  1
太陽電池モジュ－ル
 41
0.7695
  7
FontTableH_0
 72
               5
 11
21559.52130104274
 21
27355.842262597154
 31
0.0
100
AcDbText
  0
TEXT
  5
176
100
AcDbEntity
  8
0
 62
               7
100
AcDbText
 10
21585.349441301529
 20
27241.646919579576
 30
0.0
 40
9.0000000000000089
  1
30
 50
287.54828662338218
 41
0.7695
  7
FontTableH_0
 72
               5
 11
21588.06302633043
 21
27233.065750877649
 31
0.0
100
AcDbText
  0
TEXT
  5
177
100
AcDbEntity
  8
0
 62
               7
100
AcDbText
 10
21593.188796770279
 20
27216.856941552232
 30
0.0
 40
9.0000000000000089
  1
12
 50
287.54828662338218
 41
0.7695
  7
FontTableH_0
 72
               5
 11
21595.90238179918
 21
27208.275772850306
 31
0.0
100
AcDbText
  0
TEXT
  5
178
100
AcDbEntity
  8
0
 62
               7
100
AcDbText
 10
21390.845145952408
 20
27439.841224999498
 30
0.0
 40
9.0000000000000089
  1
屋根材：ＳＦル－フパネル，高級化粧鋼板 t0.5
 41
0.7695
  7
FontTableH_0
 72
               5
 11
21584.345145952408
 21
27439.841224999498
 31
0.0
100
AcDbText
  0
TEXT
  5
179
100
AcDbEntity
  8
0
 62
               7
100
AcDbText
 10
21390.845145952408
 20
27421.841102929186
 30
0.0
 40
9.0000000000000089
  1
下葺材：ゴムアスファルトル－フィング t1.0（別途工事）
 41
0.7695
  7
FontTableH_0
 72
               5
 11
21629.345145952408
 21
27421.841102929186
 31
0.0
100
AcDbText
  0
TEXT
  5
17A
100
AcDbEntity
  8
0
 62
               7
100
AcDbText
 10
21390.845145952408
 20
27403.840797753404
 30
0.0
 40
9.0000000000000089
  1
野地板：耐水合板 t12（別途工事）
 41
0.7695
  7
FontTableH_0
 72
               5
 11
21534.845145952408
 21
27403.840797753404
 31
0.0
100
AcDbText
  0
TEXT
  5
17B
100
AcDbEntity
  8
0
 62
               7
100
AcDbText
 10
21573.168197405044
 20
27280.166694970201
 30
0.0
 40
9.0000000000000089
  1
46
 50
287.54828662338218
 41
0.7695
  7
FontTableH_0
 72
               5
 11
21575.881782433946
 21
27271.585526268274
 31
0.0
100
AcDbText
  0
TEXT
  5
17C
100
AcDbEntity
  8
0
 62
               7
100
AcDbText
 10
22067.466720354263
 20
27457.455726952623
 30
0.0
 40
9.0000000000000089
  1
150
 50
17.548589883554882
 41
0.7695
  7
FontTableH_0
 72
               5
 11
22080.338451862917
 21
27461.526172624672
 31
0.0
100
AcDbText
  0
TEXT
  5
17D
100
AcDbEntity
  8
0
 62
               7
100
AcDbText
 10
22238.165206682388
 20
27461.526161522936
 30
0.0
 40
9.0000000000000089
  1
150
 50
342.45139622869567
 41
0.7695
  7
FontTableH_0
 72
               5
 11
22251.036937204419
 21
27457.455712730945
 31
0.0
100
AcDbText
  0
LINE
  5
17E
100
AcDbEntity
  8
Layer00002
  6
Continuous
 62
               7
100
AcDbLine
 10
22025.304610979263
 20
26920.972999901842
 30
0.0
 11
21875.304610979263
 21
26920.972999901842
 31
0.0
  0
LINE
  5
17F
100
AcDbEntity
  8
Layer00002
  6
Continuous
 62
               7
100
AcDbLine
 10
22025.304610979263
 20
26935.972999901842
 30
0.0
 11
21875.304610979263
 21
26935.972999901842
 31
0.0
  0
LINE
  5
180
100
AcDbEntity
  8
Layer00002
  6
Continuous
 62
               7
100
AcDbLine
 10
21875.304610979263
 20
26935.972999901842
 30
0.0
 11
21875.304610979263
 21
26920.972999901842
 31
0.0
  0
LINE
  5
181
100
AcDbEntity
  8
Layer00002
  6
Continuous
 62
               7
100
AcDbLine
 10
22025.304610979263
 20
26935.972999901842
 30
0.0
 11
22025.304610979263
 21
26920.972999901842
 31
0.0
  0
LINE
  5
182
100
AcDbEntity
  8
Layer00002
  6
Continuous
 62
               7
100
AcDbLine
 10
21350.304610979263
 20
27736.972999901842
 30
0.0
 11
21350.304610979263
 21
27751.972999901842
 31
0.0
  0
LINE
  5
183
100
AcDbEntity
  8
Layer00002
  6
Continuous
 62
               7
100
AcDbLine
 10
21440.304610979263
 20
27751.972999901842
 30
0.0
 11
21350.304610979263
 21
27751.972999901842
 31
0.0
  0
LINE
  5
184
100
AcDbEntity
  8
Layer00002
  6
Continuous
 62
               7
100
AcDbLine
 10
21440.304610979263
 20
27736.972999901842
 30
0.0
 11
21350.304610979263
 21
27736.972999901842
 31
0.0
  0
LINE
  5
185
100
AcDbEntity
  8
Layer00002
  6
Continuous
 62
               7
100
AcDbLine
 10
21440.304610979263
 20
27736.972999901842
 30
0.0
 11
21440.304610979263
 21
27751.972999901842
 31
0.0
  0
TEXT
  5
186
100
AcDbEntity
  8
Layer00002
 62
               7
100
AcDbText
 10
21372.804610979263
 20
27739.972999901842
 30
0.0
 40
9.0000000000000089
  1
ＳＦルーフ
 41
0.7695
  7
FontTableH_0
 72
               5
 11
21417.804610979263
 21
27739.972999901842
 31
0.0
100
AcDbText
  0
TEXT
  5
187
100
AcDbEntity
  8
Layer00002
 62
               7
100
AcDbText
 10
21889.554610979263
 20
26923.972999901842
 30
0.0
 40
9.0000000000000089
  1
下リ棟断面詳細図　［S=1/3］
 41
0.7695
  7
FontTableH_0
 72
               5
 11
22011.054610979263
 21
26923.972999901842
 31
0.0
100
AcDbText
  0
ENDSEC
  0
SECTION
  2
OBJECTS
  0
DICTIONARY
  5
19
100
AcDbDictionary
  3
ACAD_GROUP
350
1A
  3
ACAD_MLINESTYLE
350
1B
  3
DWGPROPS
350
188
  0
DICTIONARY
  5
1A
102
{ACAD_REACTORS
330
19
102
}
100
AcDbDictionary
  0
DICTIONARY
  5
1B
102
{ACAD_REACTORS
330
19
102
}
100
AcDbDictionary
  3
STANDARD
350
1C
  0
MLINESTYLE
  5
1C
102
{ACAD_REACTORS
330
1B
102
}
100
AcDbMlineStyle
  2
Standard
 70
               0
  3

 62
               0
 51
90.0
 52
90.0
 71
               2
 49
0.5
 62
             256
  6
ByLayer
 49
-0.5
 62
             256
  6
ByLayer
  0
XRECORD
  5
188
100
AcDbXrecord
  1
DWGPROPS COOKIE
  2

  3

  4

  6

  7

  0
ENDSEC
  0
EOF
