  0
SECTION
  2
HEADER
  9
$ACADVER
  1
AC1014
  9
$ACADMAINTVER
 70
               0
  9
$DWGCODEPAGE
  3
ANSI_932
  9
$INSBASE
 10
0.0
 20
0.0
 30
0.0
  9
$EXTMIN
 10
0.0
 20
0.0
 30
0.0
  9
$EXTMAX
 10
30678.180788874441
 20
31921.085787444001
 30
0.0
  9
$LIMMIN
 10
0.0
 20
0.0
  9
$LIMMAX
 10
30678.180788874441
 20
31921.085787444001
  9
$ORTHOMODE
 70
               0
  9
$REGENMODE
 70
               1
  9
$FILLMODE
 70
               1
  9
$QTEXTMODE
 70
               0
  9
$MIRRTEXT
 70
               1
  9
$DRAGMODE
 70
               2
  9
$LTSCALE
 40
1.0
  9
$OSMODE
 70
               0
  9
$ATTMODE
 70
               1
  9
$TEXTSIZE
 40
0.2
  9
$TRACEWID
 40
0.05
  9
$TEXTSTYLE
  7
Standard
  9
$CLAYER
  8
Layer00001
  9
$CELTYPE
  6
Continuous
  9
$CECOLOR
 62
             256
  9
$CELTSCALE
 40
1.0
  9
$DELOBJ
 70
               1
  9
$DISPSILH
 70
               0
  9
$DIMSCALE
 40
1.0
  9
$DIMASZ
 40
0.18
  9
$DIMEXO
 40
0.0625
  9
$DIMDLI
 40
0.38
  9
$DIMRND
 40
0.0
  9
$DIMDLE
 40
0.0
  9
$DIMEXE
 40
0.18
  9
$DIMTP
 40
0.0
  9
$DIMTM
 40
0.0
  9
$DIMTXT
 40
0.18
  9
$DIMCEN
 40
0.09
  9
$DIMTSZ
 40
0.0
  9
$DIMTOL
 70
               0
  9
$DIMLIM
 70
               0
  9
$DIMTIH
 70
               1
  9
$DIMTOH
 70
               1
  9
$DIMSE1
 70
               0
  9
$DIMSE2
 70
               0
  9
$DIMTAD
 70
               0
  9
$DIMZIN
 70
               0
  9
$DIMBLK
  1

  9
$DIMASO
 70
               1
  9
$DIMSHO
 70
               1
  9
$DIMPOST
  1

  9
$DIMAPOST
  1

  9
$DIMALT
 70
               0
  9
$DIMALTD
 70
               2
  9
$DIMALTF
 40
25.399999999999999
  9
$DIMLFAC
 40
1.0
  9
$DIMTOFL
 70
               0
  9
$DIMTVP
 40
0.0
  9
$DIMTIX
 70
               0
  9
$DIMSOXD
 70
               0
  9
$DIMSAH
 70
               0
  9
$DIMBLK1
  1

  9
$DIMBLK2
  1

  9
$DIMSTYLE
  2
Standard
  9
$DIMCLRD
 70
               0
  9
$DIMCLRE
 70
               0
  9
$DIMCLRT
 70
               0
  9
$DIMTFAC
 40
1.0
  9
$DIMGAP
 40
0.09
  9
$DIMJUST
 70
               0
  9
$DIMSD1
 70
               0
  9
$DIMSD2
 70
               0
  9
$DIMTOLJ
 70
               1
  9
$DIMTZIN
 70
               0
  9
$DIMALTZ
 70
               0
  9
$DIMALTTZ
 70
               0
  9
$DIMFIT
 70
               3
  9
$DIMUPT
 70
               0
  9
$DIMUNIT
 70
               2
  9
$DIMDEC
 70
               4
  9
$DIMTDEC
 70
               4
  9
$DIMALTU
 70
               2
  9
$DIMALTTD
 70
               2
  9
$DIMTXSTY
  7
Standard
  9
$DIMAUNIT
 70
               0
  9
$LUNITS
 70
               2
  9
$LUPREC
 70
               4
  9
$SKETCHINC
 40
0.1
  9
$FILLETRAD
 40
0.0
  9
$AUNITS
 70
               0
  9
$AUPREC
 70
               0
  9
$MENU
  1
acad
  9
$ELEVATION
 40
0.0
  9
$PELEVATION
 40
0.0
  9
$THICKNESS
 40
0.0
  9
$LIMCHECK
 70
               0
  9
$BLIPMODE
 70
               1
  9
$CHAMFERA
 40
0.0
  9
$CHAMFERB
 40
0.0
  9
$CHAMFERC
 40
0.0
  9
$CHAMFERD
 40
0.0
  9
$SKPOLY
 70
               0
  9
$TDCREATE
 40
0.000000000
  9
$TDUPDATE
 40
0.000000000
  9
$TDINDWG
 40
0.0000000000
  9
$TDUSRTIMER
 40
0.0000000000
  9
$USRTIMER
 70
               1
  9
$ANGBASE
 50
0.0
  9
$ANGDIR
 70
               0
  9
$PDMODE
 70
               0
  9
$PDSIZE
 40
0.0
  9
$PLINEWID
 40
0.0
  9
$COORDS
 70
               0
  9
$SPLFRAME
 70
               0
  9
$SPLINETYPE
 70
               6
  9
$SPLINESEGS
 70
               8
  9
$ATTDIA
 70
               0
  9
$ATTREQ
 70
               1
  9
$HANDLING
 70
               1
  9
$HANDSEED
  5
26E
  9
$SURFTAB1
 70
               6
  9
$SURFTAB2
 70
               6
  9
$SURFTYPE
 70
               6
  9
$SURFU
 70
               6
  9
$SURFV
 70
               6
  9
$UCSNAME
  2

  9
$UCSORG
 10
0.0
 20
0.0
 30
0.0
  9
$UCSXDIR
 10
1.0
 20
0.0
 30
0.0
  9
$UCSYDIR
 10
0.0
 20
1.0
 30
0.0
  9
$PUCSNAME
  2

  9
$PUCSORG
 10
0.0
 20
0.0
 30
0.0
  9
$PUCSXDIR
 10
1.0
 20
0.0
 30
0.0
  9
$PUCSYDIR
 10
0.0
 20
1.0
 30
0.0
  9
$USERI1
 70
               0
  9
$USERI2
 70
               0
  9
$USERI3
 70
               0
  9
$USERI4
 70
               0
  9
$USERI5
 70
               0
  9
$USERR1
 40
0.0
  9
$USERR2
 40
0.0
  9
$USERR3
 40
0.0
  9
$USERR4
 40
0.0
  9
$USERR5
 40
0.0
  9
$WORLDVIEW
 70
               1
  9
$SHADEDGE
 70
               3
  9
$SHADEDIF
 70
              70
  9
$TILEMODE
 70
               1
  9
$MAXACTVP
 70
              16
  9
$PINSBASE
 10
0.0
 20
0.0
 30
0.0
  9
$PLIMCHECK
 70
               0
  9
$PEXTMIN
 10
1.0000000000000000E+20
 20
1.0000000000000000E+20
 30
1.0000000000000000E+20
  9
$PEXTMAX
 10
-1.0000000000000000E+20
 20
-1.0000000000000000E+20
 30
-1.0000000000000000E+20
  9
$PLIMMIN
 10
0.0
 20
0.0
  9
$PLIMMAX
 10
12.0
 20
9.0
  9
$UNITMODE
 70
               0
  9
$VISRETAIN
 70
               0
  9
$PLINEGEN
 70
               1
  9
$PSLTSCALE
 70
               0
  9
$TREEDEPTH
 70
            3020
  9
$PICKSTYLE
 70
               1
  9
$CMLSTYLE
  2
Standard
  9
$CMLJUST
 70
               0
  9
$CMLSCALE
 40
1.0
  9
$PROXYGRAPHICS
 70
               0
  9
$MEASUREMENT
 70
               0
  0
ENDSEC
  0
SECTION
  2
CLASSES
  0
CLASS
  1
LWPOLYLINE
  2
AcDbPolyline
  3
"AutoCAD"
 90
        0
280
               0
281
               1
  0
CLASS
  1
IMAGE
  2
AcDbRasterImage
  3
ISM
 90
      127
280
               0
281
               1
  0
CLASS
  1
OLE2FRAME
  2
AcDbOle2Frame
  3
""
 90
        0
280
               0
281
               1
  0
CLASS
  1
HATCH
  2
AcDbHatch
  3
"ACAD_SEDONA"
 90
        0
280
               0
281
               1
  0
CLASS
  1
DICTIONARYVAR
  2
AcDbDictionaryVar
  3
"AutoCAD"
 90
        0
280
               0
281
               0
  0
CLASS
  1
RASTERVARIABLES
  2
AcDbRasterVariables
  3
ISM
 90
        0
280
               0
281
               0
  0
CLASS
  1
IMAGEDEF
  2
AcDbRasterImageDef
  3
ISM
 90
        0
280
               0
281
               0
  0
CLASS
  1
IMAGEDEF_REACTOR
  2
AcDbRasterImageDefReactor
  3
ISM
 90
        1
280
               0
281
               0
  0
CLASS
  1
IDBUFFER
  2
AcDbIdBuffer
  3
"Acad"
 90
        0
280
               0
281
               0
  0
CLASS
  1
SPATIAL_FILTER
  2
AcDbSpatialFilter
  3
"Acad"
 90
        0
280
               0
281
               0
  0
CLASS
  1
XRECORD
  2
AcDbXrecord
  3
"<Built In>"
 90
        0
280
               0
281
               0
  0
CLASS
  1
SORTENTSTABLE
  2
AcDbSortentsTable
  3
"AutoCAD"
 90
        0
280
               0
281
               0
  0
CLASS
  1
LAYER_INDEX
  2
AcDbLayerIndex
  3
"Acad"
 90
        0
280
               0
281
               0
  0
CLASS
  1
SPATIAL_INDEX
  2
AcDbSpatialIndex
  3
"Acad"
 90
        0
280
               0
281
               0
  0
CLASS
  1
OBJECT_PTR
  2
CAseDLPNTableRecord
  3
"ASE-LPNTableRecord"
 90
        1
280
               0
281
               0
  0
CLASS
  1
LAYOUT
  2
AcDbLayout
  3
"AutoCAD 2000"
 90
        0
280
               0
281
               0
  0
CLASS
  1
PLOTSETTINGS
  2
AcDbPlotSettings
  3
"AutoCAD 2000"
 90
        0
280
               0
281
               0
  0
CLASS
  1
ACDBDICTIONARYWDFLT
  2
AcDbDictionaryWithDefault
  3
"AutoCAD 2000"
 90
        0
280
               0
281
               0
  0
CLASS
  1
ACDBPLACEHOLDER
  2
AcDbPlaceHolder
  3
"AutoCAD 2000"
 90
        0
280
               0
281
               0
  0
CLASS
  1
VBA_PROJECT
  2
AcDbVbaProject
  3
"acadvba"
 90
        0
280
               0
281
               0
  0
CLASS
  1
WIPEOUT
  2
AcDbWipeout
  3
WipeOut|AutoCAD Express Tool|expresstools@autodesk.com
 90
      127
280
               0
281
               1
  0
CLASS
  1
WIPEOUTVARIABLES
  2
AcDbWipeoutVariables
  3
WipeOut|AutoCAD Express Tool|expresstools@autodesk.com
 90
        0
280
               0
281
               0
  0
CLASS
  1
RTEXT
  2
RText
  3
RText|AutoCAD Express Tool|expresstools@autodesk.com
 90
        0
280
               0
281
               1
  0
CLASS
  1
ARCALIGNEDTEXT
  2
AcDbArcAlignedText
  3
ATEXT|AutoCAD Express Tool|expresstools@autodesk.com
 90
        0
280
               0
281
               1
  0
ENDSEC
  0
SECTION
  2
TABLES
  0
TABLE
  2
VPORT
  5
7
100
AcDbSymbolTable
 70
               1
  0
VPORT
  5
15
100
AcDbSymbolTableRecord
100
AcDbViewportTableRecord
  2
*ACTIVE
 70
               0
 10
0.0
 20
0.0
 11
1.0
 21
1.0
 12
15339.09039443722
 22
15960.542893722
 13
0.0
 23
0.0
 14
10.0
 24
10.0
 15
10.0
 25
10.0
 16
0.0
 26
0.0
 36
1.0
 17
0.0
 27
0.0
 37
0.0
 40
31921.085787444001
 41
0.9610631979486597
 42
50.0
 43
0.0
 44
0.0
 50
0.0
 51
0.0
 71
               0
 72
             100
 73
               1
 74
               1
 75
               0
 76
               0
 77
               0
 78
               0
  0
ENDTAB
  0
TABLE
  2
LTYPE
  5
4
100
AcDbSymbolTable
 70
              24
  0
LTYPE
  5
11
100
AcDbSymbolTableRecord
100
AcDbLinetypeTableRecord
  2
ByBlock
 70
              64
  3

 72
              65
 73
               0
 40
0.0
  0
LTYPE
  5
12
100
AcDbSymbolTableRecord
100
AcDbLinetypeTableRecord
  2
ByLayer
 70
              64
  3

 72
              65
 73
               0
 40
0.0
  0
LTYPE
  5
13
100
AcDbSymbolTableRecord
100
AcDbLinetypeTableRecord
  2
Continuous
 70
              64
  3
Solid line
 72
              65
 73
               0
 40
0.0
  0
LTYPE
  5
1D
100
AcDbSymbolTableRecord
100
AcDbLinetypeTableRecord
  2
DOT
 70
              64
  3
Dot . . . . . . . . . . . . . . . . . . . . . .
 72
              65
 73
               2
 40
6.3499999999999996
 49
0.35
 74
               0
 49
-6.0
 74
               0
  0
LTYPE
  5
1E
100
AcDbSymbolTableRecord
100
AcDbLinetypeTableRecord
  2
DASHED
 70
              64
  3
Dashed __ __ __ __ __ __ __ __ __ __ __ __ __ _
 72
              65
 73
               2
 40
12.699999999999999
 49
6.3499999999999996
 74
               0
 49
-6.3499999999999996
 74
               0
  0
LTYPE
  5
1F
100
AcDbSymbolTableRecord
100
AcDbLinetypeTableRecord
  2
DASHDOT
 70
              64
  3
Dash dot __ . __ . __ . __ . __ . __ . __ . __
 72
              65
 73
               4
 40
25.399999999999999
 49
12.699999999999999
 74
               0
 49
-6.0
 74
               0
 49
0.7
 74
               0
 49
-6.0
 74
               0
  0
LTYPE
  5
20
100
AcDbSymbolTableRecord
100
AcDbLinetypeTableRecord
  2
DIVIDE
 70
              64
  3
Divide ____ . . ____ . . ____ . . ____ . . ____
 72
              65
 73
               6
 40
31.75
 49
12.699999999999999
 74
               0
 49
-6.0
 74
               0
 49
0.875
 74
               0
 49
-6.0
 74
               0
 49
0.875
 74
               0
 49
-6.0
 74
               0
  0
LTYPE
  5
21
100
AcDbSymbolTableRecord
100
AcDbLinetypeTableRecord
  2
HIDDEN
 70
              64
  3
Hidden __ __ __ __ __ __ __ __ __ __ __ __ __ _
 72
              65
 73
               2
 40
9.5250000000000004
 49
6.3499999999999996
 74
               0
 49
-3.1749999999999998
 74
               0
  0
LTYPE
  5
22
100
AcDbSymbolTableRecord
100
AcDbLinetypeTableRecord
  2
CENTER
 70
              64
  3
Center ____ _ ____ _ ____ _ ____ _ ____ _ ____
 72
              65
 73
               4
 40
50.799999999999997
 49
31.75
 74
               0
 49
-6.3499999999999996
 74
               0
 49
6.3499999999999996
 74
               0
 49
-6.3499999999999996
 74
               0
  0
LTYPE
  5
23
100
AcDbSymbolTableRecord
100
AcDbLinetypeTableRecord
  2
PHANTOM
 70
              64
  3
Phantom ______  __  __  ______  __  __  ______
 72
              65
 73
               6
 40
63.5
 49
31.75
 74
               0
 49
-6.3499999999999996
 74
               0
 49
6.3499999999999996
 74
               0
 49
-6.3499999999999996
 74
               0
 49
6.3499999999999996
 74
               0
 49
-6.3499999999999996
 74
               0
  0
LTYPE
  5
24
100
AcDbSymbolTableRecord
100
AcDbLinetypeTableRecord
  2
ACAD_ISO02W100
 70
              64
  3
ISO dash __ __ __ __ __ __ __ __ __ __ __ __ __
 72
              65
 73
               2
 40
15.0
 49
12.0
 74
               0
 49
-3.0
 74
               0
  0
LTYPE
  5
25
100
AcDbSymbolTableRecord
100
AcDbLinetypeTableRecord
  2
ACAD_ISO03W100
 70
              64
  3
ISO dash space __ __ __ __ __ __ __ __ __ __ __ __ __ __
 72
              65
 73
               2
 40
30.0
 49
12.0
 74
               0
 49
-18.0
 74
               0
  0
LTYPE
  5
26
100
AcDbSymbolTableRecord
100
AcDbLinetypeTableRecord
  2
ACAD_ISO04W100
 70
              64
  3
ISO long-dash dot ____ . ____ . ____ . ____ . _
 72
              65
 73
               4
 40
30.0
 49
24.0
 74
               0
 49
-3.0
 74
               0
 49
0.0
 74
               0
 49
-3.0
 74
               0
  0
LTYPE
  5
27
100
AcDbSymbolTableRecord
100
AcDbLinetypeTableRecord
  2
ACAD_ISO05W100
 70
              64
  3
ISO long-dash double-dot ____ .. ____ .. ____ .
 72
              65
 73
               6
 40
33.0
 49
24.0
 74
               0
 49
-3.0
 74
               0
 49
0.0
 74
               0
 49
-3.0
 74
               0
 49
0.0
 74
               0
 49
-3.0
 74
               0
  0
LTYPE
  5
28
100
AcDbSymbolTableRecord
100
AcDbLinetypeTableRecord
  2
ACAD_ISO06W100
 70
              64
  3
ISO long-dash triple-dot ____ ... ____ ... ____
 72
              65
 73
               8
 40
36.0
 49
24.0
 74
               0
 49
-3.0
 74
               0
 49
0.0
 74
               0
 49
-3.0
 74
               0
 49
0.0
 74
               0
 49
-3.0
 74
               0
 49
0.0
 74
               0
 49
-3.0
 74
               0
  0
LTYPE
  5
29
100
AcDbSymbolTableRecord
100
AcDbLinetypeTableRecord
  2
ACAD_ISO07W100
 70
              64
  3
ISO dot . . . . . . . . . . . . . . . . . . . .
 72
              65
 73
               2
 40
3.0
 49
0.0
 74
               0
 49
-3.0
 74
               0
  0
LTYPE
  5
2A
100
AcDbSymbolTableRecord
100
AcDbLinetypeTableRecord
  2
ACAD_ISO08W100
 70
              64
  3
ISO long-dash short-dash ____ __ ____ __ ____ _
 72
              65
 73
               4
 40
36.0
 49
24.0
 74
               0
 49
-3.0
 74
               0
 49
6.0
 74
               0
 49
-3.0
 74
               0
  0
LTYPE
  5
2B
100
AcDbSymbolTableRecord
100
AcDbLinetypeTableRecord
  2
ACAD_ISO09W100
 70
              64
  3
ISO long-dash double-short-dash ____ __ __ ____
 72
              65
 73
               6
 40
45.0
 49
24.0
 74
               0
 49
-3.0
 74
               0
 49
6.0
 74
               0
 49
-3.0
 74
               0
 49
6.0
 74
               0
 49
-3.0
 74
               0
  0
LTYPE
  5
2C
100
AcDbSymbolTableRecord
100
AcDbLinetypeTableRecord
  2
ACAD_ISO10W100
 70
              64
  3
ISO dash dot __ . __ . __ . __ . __ . __ . __ .
 72
              65
 73
               4
 40
18.0
 49
12.0
 74
               0
 49
-3.0
 74
               0
 49
0.0
 74
               0
 49
-3.0
 74
               0
  0
LTYPE
  5
2D
100
AcDbSymbolTableRecord
100
AcDbLinetypeTableRecord
  2
ACAD_ISO11W100
 70
              64
  3
ISO double-dash dot __ __ . __ __ . __ __ . __ 
 72
              65
 73
               6
 40
33.0
 49
12.0
 74
               0
 49
-3.0
 74
               0
 49
12.0
 74
               0
 49
-3.0
 74
               0
 49
0.0
 74
               0
 49
-3.0
 74
               0
  0
LTYPE
  5
2E
100
AcDbSymbolTableRecord
100
AcDbLinetypeTableRecord
  2
ACAD_ISO12W100
 70
              64
  3
ISO dash double-dot __ . . __ . . __ . . __ . .
 72
              65
 73
               6
 40
21.0
 49
12.0
 74
               0
 49
-3.0
 74
               0
 49
0.0
 74
               0
 49
-3.0
 74
               0
 49
0.0
 74
               0
 49
-3.0
 74
               0
  0
LTYPE
  5
2F
100
AcDbSymbolTableRecord
100
AcDbLinetypeTableRecord
  2
ACAD_ISO13W100
 70
              64
  3
ISO double-dash double-dot __ __ . . __ __ . . 
 72
              65
 73
               8
 40
36.0
 49
12.0
 74
               0
 49
-3.0
 74
               0
 49
12.0
 74
               0
 49
-3.0
 74
               0
 49
0.0
 74
               0
 49
-3.0
 74
               0
 49
0.0
 74
               0
 49
-3.0
 74
               0
  0
LTYPE
  5
30
100
AcDbSymbolTableRecord
100
AcDbLinetypeTableRecord
  2
ACAD_ISO14W100
 70
              64
  3
ISO dash triple-dot __ . . . __ . . . __ . . . 
 72
              65
 73
               8
 40
24.0
 49
12.0
 74
               0
 49
-3.0
 74
               0
 49
0.0
 74
               0
 49
-3.0
 74
               0
 49
0.0
 74
               0
 49
-3.0
 74
               0
 49
0.0
 74
               0
 49
-3.0
 74
               0
  0
LTYPE
  5
31
100
AcDbSymbolTableRecord
100
AcDbLinetypeTableRecord
  2
ACAD_ISO15W100
 70
              64
  3
ISO double-dash double-dot __ __ . . __ __ . . 
 72
              65
 73
              10
 40
39.0
 49
12.0
 74
               0
 49
-3.0
 74
               0
 49
12.0
 74
               0
 49
-3.0
 74
               0
 49
0.0
 74
               0
 49
-3.0
 74
               0
 49
0.0
 74
               0
 49
-3.0
 74
               0
 49
0.0
 74
               0
 49
-3.0
 74
               0
  0
ENDTAB
  0
TABLE
  2
LAYER
  5
2
100
AcDbSymbolTable
 70
               2
  0
LAYER
  5
14
100
AcDbSymbolTableRecord
100
AcDbLayerTableRecord
  2
0
 70
               0
 62
               7
  6
Continuous
  0
LAYER
  5
35
100
AcDbSymbolTableRecord
100
AcDbLayerTableRecord
  2
Layer00001
 70
               0
 62
               7
  6
Continuous
  0
ENDTAB
  0
TABLE
  2
STYLE
  5
3
100
AcDbSymbolTable
 70
               4
  0
STYLE
  5
17
100
AcDbSymbolTableRecord
100
AcDbTextStyleTableRecord
  2
Standard
 70
               0
 40
0.0
 41
1.0
 50
0.0
 71
               0
 42
0.0
  3
txt.shx
  4
bigfont.shx
  0
STYLE
  5
32
100
AcDbSymbolTableRecord
100
AcDbTextStyleTableRecord
  2
STANDARD_T
 70
               4
 40
0.0
 41
1.0
 50
0.0
 71
               0
 42
0.0
  3
txt.shx
  4
bigfont.shx
  0
STYLE
  5
33
100
AcDbSymbolTableRecord
100
AcDbTextStyleTableRecord
  2
FontTableH_0
 70
               0
 40
0.0
 41
1.0
 50
0.0
 71
               0
 42
0.0
  3
MS Gothic.ttf
  4

1001
ACAD
1000
MS Gothic
1071
    32817
  0
STYLE
  5
34
100
AcDbSymbolTableRecord
100
AcDbTextStyleTableRecord
  2
FontTableV_0
 70
               0
 40
0.0
 41
1.0
 50
0.0
 71
               0
 42
0.0
  3
@MS Gothic.ttf
  4

1001
ACAD
1000
@MS Gothic
1071
    32817
  0
ENDTAB
  0
TABLE
  2
VIEW
  5
5
100
AcDbSymbolTable
 70
               0
  0
ENDTAB
  0
TABLE
  2
UCS
  5
6
100
AcDbSymbolTable
 70
               0
  0
ENDTAB
  0
TABLE
  2
APPID
  5
8
100
AcDbSymbolTable
 70
               1
  0
APPID
  5
16
100
AcDbSymbolTableRecord
100
AcDbRegAppTableRecord
  2
ACAD
 70
               0
  0
ENDTAB
  0
TABLE
  2
DIMSTYLE
  5
9
100
AcDbSymbolTable
 70
               1
  0
DIMSTYLE
105
18
100
AcDbSymbolTableRecord
100
AcDbDimStyleTableRecord
  2
Standard
 70
               0
  3

  4

  5

  6

  7

 40
1.0
 41
0.18
 42
0.0625
 43
0.38
 44
0.18
 45
0.0
 46
0.0
 47
0.0
 48
0.0
 71
               0
 72
               0
 73
               1
 74
               1
 75
               0
 76
               0
 77
               0
 78
               0
140
0.18
141
0.09
142
0.0
143
25.399999999999999
144
1.0
145
0.0
146
1.0
147
0.09
170
               0
171
               2
172
               0
173
               0
174
               0
175
               0
176
               0
177
               0
178
               0
270
               2
271
               4
272
               4
273
               2
274
               2
275
               0
280
               0
281
               0
282
               0
283
               1
284
               0
285
               0
286
               0
287
               0
288
               0
340
17
  0
ENDTAB
  0
TABLE
  2
BLOCK_RECORD
  5
1
100
AcDbSymbolTable
 70
               0
  0
BLOCK_RECORD
  5
A
100
AcDbSymbolTableRecord
100
AcDbBlockTableRecord
  2
*MODEL_SPACE
  0
BLOCK_RECORD
  5
B
100
AcDbSymbolTableRecord
100
AcDbBlockTableRecord
  2
*PAPER_SPACE
  0
ENDTAB
  0
ENDSEC
  0
SECTION
  2
BLOCKS
  0
BLOCK
  5
D
100
AcDbEntity
  8
0
100
AcDbBlockBegin
  2
*MODEL_SPACE
 70
               0
 10
0.0
 20
0.0
 30
0.0
  3
*MODEL_SPACE
  1

  0
ENDBLK
  5
E
100
AcDbEntity
  8
0
100
AcDbBlockEnd
  0
BLOCK
  5
F
100
AcDbEntity
 67
               1
  8
0
100
AcDbBlockBegin
  2
*PAPER_SPACE
 70
               0
 10
0.0
 20
0.0
 30
0.0
  3
*PAPER_SPACE
  1

  0
ENDBLK
  5
10
100
AcDbEntity
 67
               1
  8
0
100
AcDbBlockEnd
  0
ENDSEC
  0
SECTION
  2
ENTITIES
  0
LINE
  5
36
100
AcDbEntity
  8
0
  6
DASHED
 62
               6
100
AcDbLine
 10
22163.266534877417
 20
27353.421410955449
 30
0.0
 11
21651.084511644265
 21
27097.330399338902
 31
0.0
  0
LINE
  5
37
100
AcDbEntity
  8
0
  6
Continuous
 62
               2
100
AcDbLine
 10
22156.92783577642
 20
27354.165180365577
 30
0.0
 11
21651.606260839013
 21
27101.504392896903
 31
0.0
  0
LINE
  5
38
100
AcDbEntity
  8
0
  6
Continuous
 62
               7
100
AcDbLine
 10
22178.058330944918
 20
27356.904190028574
 30
0.0
 11
21650.562762449514
 21
27093.156405780905
 31
0.0
  0
LINE
  5
39
100
AcDbEntity
  8
0
  6
Continuous
 62
               2
100
AcDbLine
 10
22164.53046689992
 20
27395.979651544825
 30
0.0
 11
22164.53046689992
 21
27495.479651544825
 31
0.0
  0
LINE
  5
3A
100
AcDbEntity
  8
0
  6
Continuous
 62
               2
100
AcDbLine
 10
22143.51142791142
 20
27380.997996095575
 30
0.0
 11
22156.92783577642
 21
27354.165180365577
 31
0.0
  0
LINE
  5
3B
100
AcDbEntity
  8
0
  6
Continuous
 62
               2
100
AcDbLine
 10
22143.51142791142
 20
27380.997996095575
 30
0.0
 11
21629.66298041982
 21
27124.073772349802
 31
0.0
  0
LINE
  5
3C
100
AcDbEntity
  8
0
  6
Continuous
 62
               6
100
AcDbLine
 10
22150.219603382913
 20
27367.581645152586
 30
0.0
 11
21940.476400831292
 21
27262.710043876785
 31
0.0
  0
LINE
  5
3D
100
AcDbEntity
  8
0
  6
Continuous
 62
               6
100
AcDbLine
 10
22154.691767798919
 20
27358.637316320579
 30
0.0
 11
21640.843320307318
 21
27101.713092574802
 31
0.0
  0
LINE
  5
3E
100
AcDbEntity
  8
0
  6
Continuous
 62
               2
100
AcDbLine
 10
22164.53046689992
 20
27395.979651544825
 30
0.0
 11
22031.260694923214
 21
27329.345066769616
 31
0.0
  0
LINE
  5
3F
100
AcDbEntity
  8
0
  6
Continuous
 62
               3
100
AcDbLine
 10
22177.163903753921
 20
27358.693044410575
 30
0.0
 11
21650.860904846515
 21
27095.541544956905
 31
0.0
  0
LINE
  5
40
100
AcDbEntity
  8
0
  6
Continuous
 62
               6
100
AcDbLine
 10
21880.102593899799
 20
27249.293579089783
 30
0.0
 11
21942.712497269797
 21
27280.598530774776
 31
0.0
  0
LINE
  5
41
100
AcDbEntity
  8
0
  6
Continuous
 62
               6
100
AcDbLine
 10
21910.7814465511
 20
27308.683544572174
 30
0.0
 11
21927.328349584597
 21
27275.589738505176
 31
0.0
  0
LINE
  5
42
100
AcDbEntity
  8
0
  6
Continuous
 62
               6
100
AcDbLine
 10
21876.793213293102
 20
27291.689427943176
 30
0.0
 11
21893.340116326599
 21
27258.595621876178
 31
0.0
  0
LINE
  5
43
100
AcDbEntity
  8
0
  6
Continuous
 62
               6
100
AcDbLine
 10
21879.9237084616
 20
27251.887417943683
 30
0.0
 11
21893.340116326599
 21
27258.595621876178
 31
0.0
  0
LINE
  5
44
100
AcDbEntity
  8
0
  6
Continuous
 62
               6
100
AcDbLine
 10
21879.4764948661
 20
27250.545777157182
 30
0.0
 11
21880.102593899799
 21
27249.293579089783
 31
0.0
  0
LINE
  5
45
100
AcDbEntity
  8
0
  6
Continuous
 62
               6
100
AcDbLine
 10
21942.086398236097
 20
27281.850728842175
 30
0.0
 11
21942.712497269797
 21
27280.598530774776
 31
0.0
  0
LINE
  5
46
100
AcDbEntity
  8
0
  6
Continuous
 62
               6
100
AcDbLine
 10
21894.368707596252
 20
27260.786968494129
 30
0.0
 11
21880.057872540252
 21
27289.408638606128
 31
0.0
  0
LINE
  5
47
100
AcDbEntity
  8
0
  6
Continuous
 62
               6
100
AcDbLine
 10
21924.958117528447
 20
27276.081673460227
 30
0.0
 11
21910.647282472451
 21
27304.703343572222
 31
0.0
  0
LINE
  5
48
100
AcDbEntity
  8
0
  6
Continuous
 62
               6
100
AcDbLine
 10
21876.793213293102
 20
27291.689427943176
 30
0.0
 11
21883.948630821102
 21
27295.267136707178
 31
0.0
  0
LINE
  5
49
100
AcDbEntity
  8
0
  6
Continuous
 62
               6
100
AcDbLine
 10
21885.513878405352
 20
27292.136641538676
 30
0.0
 11
21883.948630821102
 21
27295.267136707178
 31
0.0
  0
LINE
  5
4A
100
AcDbEntity
  8
0
  6
Continuous
 62
               6
100
AcDbLine
 10
21905.191276607351
 20
27301.975340639674
 30
0.0
 11
21903.6260290231
 21
27305.105835808175
 31
0.0
  0
LINE
  5
4B
100
AcDbEntity
  8
0
  6
Continuous
 62
               6
100
AcDbLine
 10
21880.057872540252
 20
27289.408638606128
 30
0.0
 11
21883.725024023352
 21
27291.242214347676
 31
0.0
  0
LINE
  5
4C
100
AcDbEntity
  8
0
  6
Continuous
 62
               6
100
AcDbLine
 10
21906.980130989352
 20
27302.869767830674
 30
0.0
 11
21910.647282472451
 21
27304.703343572222
 31
0.0
  0
LINE
  5
4D
100
AcDbEntity
  8
0
  6
Continuous
 62
               6
100
AcDbLine
 10
21903.6260290231
 20
27305.105835808175
 30
0.0
 11
21910.7814465511
 21
27308.683544572174
 31
0.0
  0
LINE
  5
4E
100
AcDbEntity
  8
0
  6
Continuous
 62
               6
100
AcDbLine
 10
21940.744757449596
 20
27282.297942437675
 30
0.0
 11
21927.328349584597
 21
27275.589738505176
 31
0.0
  0
LINE
  5
4F
100
AcDbEntity
  8
0
  6
Continuous
 62
               6
100
AcDbLine
 10
21896.381168775999
 20
27260.116148100878
 30
0.0
 11
21902.194945517498
 21
27263.02303647163
 31
0.0
  0
LINE
  5
50
100
AcDbEntity
  8
0
  6
Continuous
 62
               6
100
AcDbLine
 10
21902.686880472549
 20
27264.498841336779
 30
0.0
 11
21916.997715528549
 21
27271.654258864775
 31
0.0
  0
LINE
  5
51
100
AcDbEntity
  8
0
  6
DASHDOT
 62
               4
100
AcDbLine
 10
21841.463357287535
 20
27404.834431526826
 30
0.0
 11
21992.800419965781
 21
27102.160306170284
 31
0.0
  0
LINE
  5
52
100
AcDbEntity
  8
0
  6
Continuous
 62
               6
100
AcDbLine
 10
21902.194945517498
 20
27263.02303647163
 30
0.0
 11
21902.686880472549
 21
27264.498841336779
 31
0.0
  0
LINE
  5
53
100
AcDbEntity
  8
0
  6
Continuous
 62
               6
100
AcDbLine
 10
21924.287297135197
 20
27274.069212280476
 30
0.0
 11
21918.473520393698
 21
27271.162323909728
 31
0.0
  0
LINE
  5
54
100
AcDbEntity
  8
0
  6
Continuous
 62
               6
100
AcDbLine
 10
21918.473520393698
 20
27271.162323909728
 30
0.0
 11
21916.997715528549
 21
27271.654258864775
 31
0.0
  0
LINE
  5
55
100
AcDbEntity
  8
0
  6
Continuous
 62
               6
100
AcDbLine
 10
21879.4764948661
 20
27250.545777157182
 30
0.0
 11
21879.9237084616
 21
27251.887417943683
 31
0.0
  0
LINE
  5
56
100
AcDbEntity
  8
0
  6
Continuous
 62
               6
100
AcDbLine
 10
21940.744757449596
 20
27282.297942437675
 30
0.0
 11
21942.086398236097
 21
27281.850728842175
 31
0.0
  0
LINE
  5
57
100
AcDbEntity
  8
0
  6
Continuous
 62
               4
100
AcDbLine
 10
21875.898786102105
 20
27293.478282325177
 30
0.0
 11
21872.768290933604
 21
27299.739272662177
 31
0.0
  0
LINE
  5
58
100
AcDbEntity
  8
0
  6
Continuous
 62
               4
100
AcDbLine
 10
21881.265349248104
 20
27293.925495920677
 30
0.0
 11
21878.805674472853
 21
27298.844845471176
 31
0.0
  0
LINE
  5
59
100
AcDbEntity
  8
0
  6
Continuous
 62
               4
100
AcDbLine
 10
21877.016820090852
 20
27297.950418280176
 30
0.0
 11
21878.805674472853
 21
27298.844845471176
 31
0.0
  0
LINE
  5
5A
100
AcDbEntity
  8
0
  6
Continuous
 62
               4
100
AcDbLine
 10
21875.898786102105
 20
27293.478282325177
 30
0.0
 11
21878.582067675103
 21
27294.819923111678
 31
0.0
  0
LINE
  5
5B
100
AcDbEntity
  8
0
  6
Continuous
 62
               4
100
AcDbLine
 10
21878.582067675103
 20
27294.819923111678
 30
0.0
 11
21877.016820090852
 21
27297.950418280176
 31
0.0
  0
LINE
  5
5C
100
AcDbEntity
  8
0
  6
Continuous
 62
               4
100
AcDbLine
 10
21872.768290933604
 20
27299.739272662177
 30
0.0
 11
21608.017842397621
 21
27167.364048394207
 31
0.0
  0
LINE
  5
5D
100
AcDbEntity
  8
0
  6
Continuous
 62
               4
100
AcDbLine
 10
21893.340116326599
 20
27258.595621876178
 30
0.0
 11
21628.589667790617
 21
27126.220397608209
 31
0.0
  0
LINE
  5
5E
100
AcDbEntity
  8
0
  6
Continuous
 62
               4
100
AcDbLine
 10
21876.793213293102
 20
27291.689427943176
 30
0.0
 11
21881.265349248104
 21
27293.925495920677
 31
0.0
  0
LINE
  5
5F
100
AcDbEntity
  8
0
  6
Continuous
 62
               4
100
AcDbLine
 10
21876.793213293102
 20
27291.689427943176
 30
0.0
 11
21893.340116326599
 21
27258.595621876178
 31
0.0
  0
LINE
  5
60
100
AcDbEntity
  8
0
  6
Continuous
 62
               6
100
AcDbLine
 10
21877.687640484102
 20
27294.372709516178
 30
0.0
 11
21875.451572506605
 21
27298.844845471176
 31
0.0
  0
LINE
  5
61
100
AcDbEntity
  8
0
  6
Continuous
 62
               6
100
AcDbLine
 10
21905.772654281503
 20
27308.415216414873
 30
0.0
 11
21903.536586304002
 21
27312.887352369875
 31
0.0
  0
LINE
  5
62
100
AcDbEntity
  8
0
  6
Continuous
 62
               6
100
AcDbLine
 10
21875.451572506605
 20
27298.844845471176
 30
0.0
 11
21903.536586304002
 21
27312.887352369875
 31
0.0
  0
LINE
  5
63
100
AcDbEntity
  8
0
  6
Continuous
 62
               6
100
AcDbLine
 10
21876.703770574004
 20
27303.048653268877
 30
0.0
 11
21899.422221225403
 21
27314.407878594575
 31
0.0
  0
LINE
  5
64
100
AcDbEntity
  8
0
  6
Continuous
 62
               6
100
AcDbLine
 10
21904.431013495003
 20
27315.570633942873
 30
0.0
 11
21899.422221225403
 21
27314.407878594575
 31
0.0
  0
LINE
  5
65
100
AcDbEntity
  8
0
  6
Continuous
 62
               6
100
AcDbLine
 10
21872.768290933604
 20
27299.739272662177
 30
0.0
 11
21876.703770574004
 21
27303.048653268877
 31
0.0
  0
LINE
  5
66
100
AcDbEntity
  8
0
  6
Continuous
 62
               7
100
AcDbLine
 10
21880.907578371705
 20
27306.939411549727
 30
0.0
 11
21881.623120124503
 21
27305.508328044125
 31
0.0
  0
LINE
  5
67
100
AcDbEntity
  8
0
  6
Continuous
 62
               7
100
AcDbLine
 10
21896.112840618702
 20
27314.542042673223
 30
0.0
 11
21896.828382371503
 21
27313.110959167625
 31
0.0
  0
LINE
  5
68
100
AcDbEntity
  8
0
  6
Continuous
 62
               7
100
AcDbLine
 10
21880.907578371705
 20
27306.939411549727
 30
0.0
 11
21896.112840618702
 21
27314.542042673223
 31
0.0
  0
LINE
  5
69
100
AcDbEntity
  8
0
  6
Continuous
 62
               7
100
AcDbLine
 10
21881.131185169455
 20
27309.2872829261
 30
0.0
 11
21882.025612360452
 21
27307.498428544102
 31
0.0
  0
LINE
  5
6A
100
AcDbEntity
  8
0
  6
Continuous
 62
               7
100
AcDbLine
 10
21894.100379438954
 20
27315.771880060849
 30
0.0
 11
21894.994806629955
 21
27313.983025678848
 31
0.0
  0
LINE
  5
6B
100
AcDbEntity
  8
0
  6
Continuous
 62
               7
100
AcDbLine
 10
21880.907578371705
 20
27309.175479527225
 30
0.0
 11
21894.323986236705
 21
27315.883683459724
 31
0.0
  0
LINE
  5
6C
100
AcDbEntity
  8
0
  6
Continuous
 62
               7
100
AcDbLine
 10
21894.323986236705
 20
27315.883683459724
 30
0.0
 11
21891.703785334106
 21
27321.124085264917
 31
0.0
  0
LINE
  5
6D
100
AcDbEntity
  8
0
  6
Continuous
 62
               7
100
AcDbLine
 10
21889.851850281702
 20
27320.914836409098
 30
0.0
 11
21879.565937585205
 21
27315.771880060849
 31
0.0
  0
LINE
  5
6E
100
AcDbEntity
  8
0
  6
Continuous
 62
               7
100
AcDbLine
 10
21884.038073540203
 20
27310.740727111475
 30
0.0
 11
21881.417872637609
 21
27315.981128916668
 31
0.0
  0
LINE
  5
6F
100
AcDbEntity
  8
0
  6
Continuous
 62
               7
100
AcDbLine
 10
21891.193491068203
 20
27314.318435875473
 30
0.0
 11
21888.573290165608
 21
27319.558837680666
 31
0.0
  0
LINE
  5
70
100
AcDbEntity
  8
0
  6
Continuous
 62
               7
100
AcDbLine
 10
21904.162685337702
 20
27288.380047336475
 30
0.0
 11
21894.234543517603
 21
27308.236330976673
 31
0.0
  0
LINE
  5
71
100
AcDbEntity
  8
0
  6
Continuous
 62
               7
100
AcDbLine
 10
21897.007267809702
 20
27284.802338572477
 30
0.0
 11
21887.079125989603
 21
27304.658622212675
 31
0.0
  0
LINE
  5
72
100
AcDbEntity
  8
0
  6
Continuous
 62
               7
100
AcDbLine
 10
21880.907578371705
 20
27309.175479527225
 30
0.0
 11
21878.287377469107
 21
27314.415881332417
 31
0.0
  0
LINE
  5
73
100
AcDbEntity
  8
0
  6
Continuous
 62
               7
100
AcDbLine
 10
21898.348908596199
 20
27284.355124976977
 30
0.0
 11
21903.715471742202
 21
27287.038406549975
 31
0.0
  0
LINE
  5
74
100
AcDbEntity
  8
0
  6
Continuous
 62
               7
100
AcDbLine
 10
21887.973553180604
 20
27305.105835808175
 30
0.0
 11
21898.348908596199
 21
27284.355124976977
 31
0.0
  0
LINE
  5
75
100
AcDbEntity
  8
0
  6
Continuous
 62
               7
100
AcDbLine
 10
21893.340116326603
 20
27307.789117381173
 30
0.0
 11
21903.715471742202
 21
27287.038406549975
 31
0.0
  0
LINE
  5
76
100
AcDbEntity
  8
0
  6
Continuous
 62
               7
100
AcDbLine
 10
21897.007267809702
 20
27284.802338572477
 30
0.0
 11
21904.162685337702
 21
27288.380047336475
 31
0.0
  0
LINE
  5
77
100
AcDbEntity
  8
0
  6
Continuous
 62
               7
100
AcDbLine
 10
21903.715471742202
 20
27287.038406549975
 30
0.0
 11
21904.162685337702
 21
27288.380047336475
 31
0.0
  0
LINE
  5
78
100
AcDbEntity
  8
0
  6
Continuous
 62
               7
100
AcDbLine
 10
21898.348908596199
 20
27284.355124976977
 30
0.0
 11
21897.007267809702
 21
27284.802338572477
 31
0.0
  0
LINE
  5
79
100
AcDbEntity
  8
0
  6
Continuous
 62
               6
100
AcDbLine
 10
21887.526339585103
 20
27290.347787156676
 30
0.0
 11
21905.414883405101
 21
27299.292059066676
 31
0.0
  0
LINE
  5
7A
100
AcDbEntity
  8
0
  6
Continuous
 62
               6
100
AcDbLine
 10
21888.185937373113
 20
27287.323484084431
 30
0.0
 11
21907.438567190089
 21
27296.949798992919
 31
0.0
  0
LINE
  5
7B
100
AcDbEntity
  8
0
  6
Continuous
 62
               6
100
AcDbLine
 10
21887.526339585103
 20
27290.347787156676
 30
0.0
 11
21882.293940517753
 21
27290.526672594879
 31
0.0
  0
LINE
  5
7C
100
AcDbEntity
  8
0
  6
Continuous
 62
               6
100
AcDbLine
 10
21888.185937373113
 20
27287.323484084431
 30
0.0
 11
21882.19143630227
 21
27287.528424291984
 31
0.0
  0
LINE
  5
7D
100
AcDbEntity
  8
0
  6
Continuous
 62
               6
100
AcDbLine
 10
21882.19143630227
 20
27287.528424291984
 30
0.0
 11
21882.293940517753
 21
27290.526672594879
 31
0.0
  0
LINE
  5
7E
100
AcDbEntity
  8
0
  6
Continuous
 62
               6
100
AcDbLine
 10
21905.414883405101
 20
27299.292059066676
 30
0.0
 11
21908.41121449495
 21
27303.585309583475
 31
0.0
  0
LINE
  5
7F
100
AcDbEntity
  8
0
  6
Continuous
 62
               6
100
AcDbLine
 10
21907.438567190089
 20
27296.949798992919
 30
0.0
 11
21910.871315666558
 21
27301.868363974125
 31
0.0
  0
LINE
  5
80
100
AcDbEntity
  8
0
  6
Continuous
 62
               6
100
AcDbLine
 10
21910.871315666558
 20
27301.868363974125
 30
0.0
 11
21908.41121449495
 21
27303.585309583475
 31
0.0
  0
LINE
  5
81
100
AcDbEntity
  8
0
  6
Continuous
 62
               7
100
AcDbLine
 10
21897.096710528796
 20
27237.666025606781
 30
0.0
 11
21941.818070078796
 21
27260.026705381777
 31
0.0
  0
LINE
  5
82
100
AcDbEntity
  8
0
  6
Continuous
 62
               7
100
AcDbLine
 10
21933.410454483397
 20
27272.369800617576
 30
0.0
 11
21940.029215696795
 21
27259.132278190777
 31
0.0
  0
LINE
  5
83
100
AcDbEntity
  8
0
  6
Continuous
 62
               7
100
AcDbLine
 10
21893.697887203001
 20
27256.09122574138
 30
0.0
 11
21929.117203966598
 21
27273.800884123175
 31
0.0
  0
LINE
  5
84
100
AcDbEntity
  8
0
  6
Continuous
 62
               7
100
AcDbLine
 10
21892.266803697399
 20
27251.797975224581
 30
0.0
 11
21898.885564910797
 21
27238.560452797781
 31
0.0
  0
LINE
  5
85
100
AcDbEntity
  8
0
  6
Continuous
 62
               7
100
AcDbLine
 10
21901.747731921998
 20
27239.99153630338
 30
0.0
 11
21895.1289707086
 21
27253.22905873018
 31
0.0
  0
LINE
  5
86
100
AcDbEntity
  8
0
  6
Continuous
 62
               7
100
AcDbLine
 10
21930.548287472197
 20
27270.938717111974
 30
0.0
 11
21895.1289707086
 21
27253.22905873018
 31
0.0
  0
LINE
  5
87
100
AcDbEntity
  8
0
  6
Continuous
 62
               7
100
AcDbLine
 10
21937.167048685595
 20
27257.701194685178
 30
0.0
 11
21930.548287472197
 21
27270.938717111974
 31
0.0
  0
LINE
  5
88
100
AcDbEntity
  8
0
  6
Continuous
 62
               7
100
AcDbLine
 10
21935.557079741797
 20
27272.548686055776
 30
0.0
 11
21941.818070078796
 21
27260.026705381777
 31
0.0
  0
LINE
  5
89
100
AcDbEntity
  8
0
  6
DASHED
 62
               7
100
AcDbLine
 10
21912.749186371297
 20
27262.262773359278
 30
0.0
 11
21914.090827157797
 21
27266.287695718776
 31
0.0
  0
LINE
  5
8A
100
AcDbEntity
  8
0
  6
DASHED
 62
               7
100
AcDbLine
 10
21912.749186371297
 20
27262.262773359278
 30
0.0
 11
21908.724264011798
 21
27263.604414145779
 31
0.0
  0
LINE
  5
8B
100
AcDbEntity
  8
0
  6
DASHED
 62
               7
100
AcDbLine
 10
21918.115749517299
 20
27264.946054932276
 30
0.0
 11
21914.090827157797
 21
27266.287695718776
 31
0.0
  0
LINE
  5
8C
100
AcDbEntity
  8
0
  6
DASHED
 62
               7
100
AcDbLine
 10
21918.115749517299
 20
27264.946054932276
 30
0.0
 11
21919.457390303796
 21
27268.970977291778
 31
0.0
  0
LINE
  5
8D
100
AcDbEntity
  8
0
  6
DASHED
 62
               7
100
AcDbLine
 10
21923.482312663298
 20
27267.629336505277
 30
0.0
 11
21919.457390303796
 21
27268.970977291778
 31
0.0
  0
LINE
  5
8E
100
AcDbEntity
  8
0
  6
DASHED
 62
               7
100
AcDbLine
 10
21923.482312663298
 20
27267.629336505277
 30
0.0
 11
21924.823953449799
 21
27271.654258864775
 31
0.0
  0
LINE
  5
8F
100
AcDbEntity
  8
0
  6
DASHED
 62
               7
100
AcDbLine
 10
21928.848875809297
 20
27270.312618078275
 30
0.0
 11
21924.823953449799
 21
27271.654258864775
 31
0.0
  0
LINE
  5
90
100
AcDbEntity
  8
0
  6
DASHED
 62
               7
100
AcDbLine
 10
21928.848875809297
 20
27270.312618078275
 30
0.0
 11
21930.190516595798
 21
27274.337540437777
 31
0.0
  0
LINE
  5
91
100
AcDbEntity
  8
0
  6
Continuous
 62
               7
100
AcDbLine
 10
21935.557079741797
 20
27272.548686055776
 30
0.0
 11
21932.24208695627
 21
27273.653683650951
 31
0.0
  0
LINE
  5
92
100
AcDbEntity
  8
0
  6
DASHED
 62
               7
100
AcDbLine
 10
21932.24208695627
 20
27273.653683650951
 30
0.0
 11
21930.190516595798
 21
27274.337540437777
 31
0.0
  0
LINE
  5
93
100
AcDbEntity
  8
0
  6
Continuous
 62
               7
100
AcDbLine
 10
21890.835720191801
 20
27250.18800628078
 30
0.0
 11
21897.096710528796
 21
27237.666025606781
 31
0.0
  0
LINE
  5
94
100
AcDbEntity
  8
0
  6
DASHED
 62
               7
100
AcDbLine
 10
21907.382623225298
 20
27259.579491786277
 30
0.0
 11
21908.724264011798
 21
27263.604414145779
 31
0.0
  0
LINE
  5
95
100
AcDbEntity
  8
0
  6
DASHED
 62
               7
100
AcDbLine
 10
21907.382623225298
 20
27259.579491786277
 30
0.0
 11
21903.357700865799
 21
27260.921132572777
 31
0.0
  0
LINE
  5
96
100
AcDbEntity
  8
0
  6
DASHED
 62
               7
100
AcDbLine
 10
21902.016060079299
 20
27256.896210213279
 30
0.0
 11
21903.357700865799
 21
27260.921132572777
 31
0.0
  0
LINE
  5
97
100
AcDbEntity
  8
0
  6
DASHED
 62
               7
100
AcDbLine
 10
21902.016060079299
 20
27256.896210213279
 30
0.0
 11
21897.9911377198
 21
27258.23785099978
 31
0.0
  0
LINE
  5
98
100
AcDbEntity
  8
0
  6
DASHED
 62
               7
100
AcDbLine
 10
21896.6494969333
 20
27254.212928640278
 30
0.0
 11
21897.9911377198
 21
27258.23785099978
 31
0.0
  0
LINE
  5
99
100
AcDbEntity
  8
0
  6
DASHED
 62
               7
100
AcDbLine
 10
21896.6494969333
 20
27254.212928640278
 30
0.0
 11
21892.624574573798
 21
27255.554569426778
 31
0.0
  0
LINE
  5
9A
100
AcDbEntity
  8
0
  6
Continuous
 62
               7
100
AcDbLine
 10
21890.835720191801
 20
27250.18800628078
 30
0.0
 11
21891.940717786976
 21
27253.50299906631
 31
0.0
  0
LINE
  5
9B
100
AcDbEntity
  8
0
  6
Continuous
 62
               7
100
AcDbLine
 10
21901.524125124248
 20
27265.706318044628
 30
0.0
 11
21902.239666877049
 21
27264.275234539029
 31
0.0
  0
LINE
  5
9C
100
AcDbEntity
  8
0
  6
Continuous
 62
               7
100
AcDbLine
 10
21916.729387371248
 20
27273.308949168128
 30
0.0
 11
21917.444929124049
 21
27271.877865662525
 31
0.0
  0
LINE
  5
9D
100
AcDbEntity
  8
0
  6
Continuous
 62
               7
100
AcDbLine
 10
21901.524125124248
 20
27265.706318044628
 30
0.0
 11
21916.729387371248
 21
27273.308949168128
 31
0.0
  0
LINE
  5
9E
100
AcDbEntity
  8
0
  6
Continuous
 62
               7
100
AcDbLine
 10
21901.747731921998
 20
27268.054189421004
 30
0.0
 11
21902.642159112998
 21
27266.265335039003
 31
0.0
  0
LINE
  5
9F
100
AcDbEntity
  8
0
  6
Continuous
 62
               7
100
AcDbLine
 10
21914.716926191501
 20
27274.538786555753
 30
0.0
 11
21915.611353382497
 21
27272.749932173752
 31
0.0
  0
LINE
  5
A0
100
AcDbEntity
  8
0
  6
Continuous
 62
               7
100
AcDbLine
 10
21901.524125124248
 20
27267.942386022129
 30
0.0
 11
21914.940532989251
 21
27274.650589954628
 31
0.0
  0
LINE
  5
A1
100
AcDbEntity
  8
0
  6
Continuous
 62
               7
100
AcDbLine
 10
21914.940532989251
 20
27274.650589954628
 30
0.0
 11
21912.320332086652
 21
27279.890991759821
 31
0.0
  0
LINE
  5
A2
100
AcDbEntity
  8
0
  6
Continuous
 62
               7
100
AcDbLine
 10
21910.468397034248
 20
27279.681742904002
 30
0.0
 11
21900.182484337751
 21
27274.538786555753
 31
0.0
  0
LINE
  5
A3
100
AcDbEntity
  8
0
  6
Continuous
 62
               7
100
AcDbLine
 10
21904.654620292749
 20
27269.507633606379
 30
0.0
 11
21902.034419390155
 21
27274.748035411572
 31
0.0
  0
LINE
  5
A4
100
AcDbEntity
  8
0
  6
Continuous
 62
               7
100
AcDbLine
 10
21911.810037820749
 20
27273.085342370377
 30
0.0
 11
21909.189836918151
 21
27278.32574417557
 31
0.0
  0
LINE
  5
A5
100
AcDbEntity
  8
0
  6
Continuous
 62
               7
100
AcDbLine
 10
21901.524125124248
 20
27267.942386022129
 30
0.0
 11
21898.903924221653
 21
27273.182787827322
 31
0.0
  0
LINE
  5
A6
100
AcDbEntity
  8
0
  6
Continuous
 62
               7
100
AcDbLine
 10
21920.924285096109
 20
27254.856847819654
 30
0.0
 11
21916.416337854396
 21
27263.872742303076
 31
0.0
  0
LINE
  5
A7
100
AcDbEntity
  8
0
  6
Continuous
 62
               7
100
AcDbLine
 10
21913.768867568109
 20
27251.279139055656
 30
0.0
 11
21909.2609203264
 21
27260.295033539078
 31
0.0
  0
LINE
  5
A8
100
AcDbEntity
  8
0
  6
Continuous
 62
               7
100
AcDbLine
 10
21915.11050835461
 20
27250.831925460156
 30
0.0
 11
21920.477071500609
 21
27253.515207033153
 31
0.0
  0
LINE
  5
A9
100
AcDbEntity
  8
0
  6
Continuous
 62
               7
100
AcDbLine
 10
21910.155347517397
 20
27260.742247134578
 30
0.0
 11
21915.11050835461
 21
27250.831925460156
 31
0.0
  0
LINE
  5
AA
100
AcDbEntity
  8
0
  6
Continuous
 62
               7
100
AcDbLine
 10
21915.521910663399
 20
27263.425528707579
 30
0.0
 11
21920.477071500609
 21
27253.515207033153
 31
0.0
  0
LINE
  5
AB
100
AcDbEntity
  8
0
  6
Continuous
 62
               7
100
AcDbLine
 10
21913.768867568109
 20
27251.279139055656
 30
0.0
 11
21920.924285096109
 21
27254.856847819654
 31
0.0
  0
LINE
  5
AC
100
AcDbEntity
  8
0
  6
Continuous
 62
               7
100
AcDbLine
 10
21920.477071500609
 20
27253.515207033153
 30
0.0
 11
21920.924285096109
 21
27254.856847819654
 31
0.0
  0
LINE
  5
AD
100
AcDbEntity
  8
0
  6
Continuous
 62
               7
100
AcDbLine
 10
21915.11050835461
 20
27250.831925460156
 30
0.0
 11
21913.768867568109
 21
27251.279139055656
 31
0.0
  0
LINE
  5
AE
100
AcDbEntity
  8
0
  6
Continuous
 62
               6
100
AcDbLine
 10
21907.606230023051
 20
27309.220200886775
 30
0.0
 11
21904.431013495003
 21
27315.570633942873
 31
0.0
  0
LINE
  5
AF
100
AcDbEntity
  8
0
  6
Continuous
 62
               6
100
AcDbLine
 10
21912.436136854452
 20
27311.635154302472
 30
0.0
 11
21915.521910663399
 21
27305.463606684574
 31
0.0
  0
LINE
  5
B0
100
AcDbEntity
  8
0
  6
Continuous
 62
               6
100
AcDbLine
 10
21902.821044551201
 20
27304.703343572226
 30
0.0
 11
21911.586431023003
 21
27309.086036808123
 31
0.0
  0
LINE
  5
B1
100
AcDbEntity
  8
0
  6
Continuous
 62
               6
100
AcDbLine
 10
21911.586431023003
 20
27309.086036808123
 30
0.0
 11
21913.8224990005
 21
27304.613900853125
 31
0.0
  0
LINE
  5
B2
100
AcDbEntity
  8
0
  6
Continuous
 62
               6
100
AcDbLine
 10
21913.8224990005
 20
27304.613900853125
 30
0.0
 11
21915.521910663399
 21
27305.463606684574
 31
0.0
  0
LINE
  5
B3
100
AcDbEntity
  8
0
  6
Continuous
 62
               6
100
AcDbLine
 10
21907.606230023051
 20
27309.220200886775
 30
0.0
 11
21912.436136854452
 21
27311.635154302472
 31
0.0
  0
LINE
  5
B4
100
AcDbEntity
  8
0
  6
Continuous
 62
               6
100
AcDbLine
 10
21900.227205697302
 20
27305.642492122774
 30
0.0
 11
21903.357700865803
 21
27299.381501785774
 31
0.0
  0
LINE
  5
B5
100
AcDbEntity
  8
0
  6
Continuous
 62
               6
100
AcDbLine
 10
21902.821044551201
 20
27304.703343572226
 30
0.0
 11
21905.057112528702
 21
27300.231207617224
 31
0.0
  0
LINE
  5
B6
100
AcDbEntity
  8
0
  6
Continuous
 62
               6
100
AcDbLine
 10
21905.057112528702
 20
27300.231207617224
 30
0.0
 11
21903.357700865803
 21
27299.381501785774
 31
0.0
  0
LINE
  5
B7
100
AcDbEntity
  8
0
  6
Continuous
 62
               6
100
AcDbLine
 10
21905.772654281503
 20
27308.415216414873
 30
0.0
 11
21900.227205697302
 21
27305.642492122774
 31
0.0
  0
LINE
  5
B8
100
AcDbEntity
  8
0
  6
Continuous
 62
               6
100
AcDbLine
 10
21895.755041281293
 20
27240.349364101789
 30
0.0
 11
21636.371155891313
 21
27110.657421406813
 31
0.0
  0
LINE
  5
B9
100
AcDbEntity
  8
0
  6
Continuous
 62
               3
100
AcDbLine
 10
22182.53046689992
 20
27347.959918118577
 30
0.0
 11
22177.163903753921
 21
27358.693044410575
 31
0.0
  0
LINE
  5
BA
100
AcDbEntity
  8
0
  6
Continuous
 62
               3
100
AcDbLine
 10
22053.845102013678
 20
27337.84188412983
 30
0.0
 11
22067.485116676427
 21
27310.561854804335
 31
0.0
  0
LINE
  5
BB
100
AcDbEntity
  8
0
  6
Continuous
 62
               3
100
AcDbLine
 10
22053.845102013678
 20
27337.84188412983
 30
0.0
 11
22031.931635834178
 21
27326.885151040082
 31
0.0
  0
LINE
  5
BC
100
AcDbEntity
  8
0
  6
Continuous
 62
               3
100
AcDbLine
 10
22098.119247968174
 20
27361.096991095827
 30
0.0
 11
22031.484422238682
 21
27327.779578231082
 31
0.0
  0
LINE
  5
BD
100
AcDbEntity
  8
0
  6
Continuous
 62
               2
100
AcDbLine
 10
22032.602335709711
 20
27326.661785196622
 30
0.0
 11
22049.880514373363
 21
27334.565236472296
 31
0.0
  0
LINE
  5
BE
100
AcDbEntity
  8
0
  6
DIVIDE
 62
               3
100
AcDbLine
 10
22135.014369596924
 20
27343.208447275829
 30
0.0
 11
22122.939602518421
 21
27367.357981432826
 31
0.0
  0
LINE
  5
BF
100
AcDbEntity
  8
0
  6
Continuous
 62
               3
100
AcDbLine
 10
22182.53046689992
 20
27347.959918118577
 30
0.0
 11
21649.072050464514
 21
27081.230709900905
 31
0.0
  0
LINE
  5
C0
100
AcDbEntity
  8
0
  6
Continuous
 62
               7
100
AcDbLine
 10
22181.636039708919
 20
27349.748772500574
 30
0.0
 11
21649.370192861512
 21
27083.615849076905
 31
0.0
  0
LINE
  5
C1
100
AcDbEntity
  8
0
  6
Continuous
 62
               3
100
AcDbLine
 10
22067.293397471738
 20
27320.446773947642
 30
0.0
 11
22068.379543867428
 21
27311.009068399835
 31
0.0
  0
LINE
  5
C2
100
AcDbEntity
  8
0
  6
Continuous
 62
               2
100
AcDbLine
 10
22157.37504937192
 20
27355.506821152074
 30
0.0
 11
22144.405855102421
 21
27381.445209691075
 31
0.0
  0
LINE
  5
C3
100
AcDbEntity
  8
0
  6
DASHDOT
 62
               3
100
AcDbLine
 10
22163.877991057419
 20
27359.876325983576
 30
0.0
 11
21642.184961093815
 21
27099.029811001805
 31
0.0
  0
LINE
  5
C4
100
AcDbEntity
  8
0
  6
DASHDOT
 62
               3
100
AcDbLine
 10
22161.21963184392
 20
27364.137316320575
 30
0.0
 11
21639.948893116318
 21
27103.501946956803
 31
0.0
  0
LINE
  5
C5
100
AcDbEntity
  8
0
  6
DIVIDE
 62
               3
100
AcDbLine
 10
22122.939602518421
 20
27367.357981432826
 30
0.0
 11
21809.890085668445
 21
27210.833223007856
 31
0.0
  0
LINE
  5
C6
100
AcDbEntity
  8
0
  6
DIVIDE
 62
               3
100
AcDbLine
 10
21821.964852746954
 20
27186.683688850841
 30
0.0
 11
21809.890085668445
 21
27210.833223007856
 31
0.0
  0
LINE
  5
C7
100
AcDbEntity
  8
0
  6
Continuous
 62
               4
100
AcDbLine
 10
22096.37511646816
 20
27532.290352408359
 30
0.0
 11
22161.847185326918
 21
27401.346214690824
 31
0.0
  0
LINE
  5
C8
100
AcDbEntity
  8
0
  6
Continuous
 62
               4
100
AcDbLine
 10
21971.602523323669
 20
27446.425342072376
 30
0.0
 11
22027.683106676934
 21
27334.264175365828
 31
0.0
  0
LINE
  5
C9
100
AcDbEntity
  8
0
  6
Continuous
 62
               4
100
AcDbLine
 10
21872.768292456036
 20
27420.486940402316
 30
0.0
 11
21939.403116663096
 21
27287.217291988174
 31
0.0
  0
LINE
  5
CA
100
AcDbEntity
  8
0
  6
Continuous
 62
               4
100
AcDbLine
 10
21972.944164110166
 20
27443.742060499379
 30
0.0
 11
21883.501418748034
 21
27399.020687818316
 31
0.0
  0
LINE
  5
CB
100
AcDbEntity
  8
0
  6
Continuous
 62
               4
100
AcDbLine
 10
21874.109933242536
 20
27417.803658829318
 30
0.0
 11
22097.71675725466
 21
27529.607070835362
 31
0.0
  0
LINE
  5
CC
100
AcDbEntity
  8
0
  6
DASHDOT
 62
               7
100
AcDbLine
 10
22079.559811100498
 20
27353.494505281182
 30
0.0
 11
22083.361199316674
 21
27345.89172884883
 31
0.0
  0
LINE
  5
CD
100
AcDbEntity
  8
0
  6
Continuous
 62
               7
100
AcDbLine
 10
22084.613397384077
 20
27354.56767260153
 30
0.0
 11
22075.669125474076
 21
27350.095536646528
 31
0.0
  0
LINE
  5
CE
100
AcDbEntity
  8
0
  6
Continuous
 62
               7
100
AcDbLine
 10
22078.352407047078
 20
27351.437177433028
 30
0.0
 11
22079.783490552676
 21
27348.575010421831
 31
0.0
  0
LINE
  5
CF
100
AcDbEntity
  8
0
  6
Continuous
 62
               7
100
AcDbLine
 10
22081.930115811076
 20
27353.226031815029
 30
0.0
 11
22083.361199316674
 21
27350.363864803832
 31
0.0
  0
LINE
  5
D0
100
AcDbEntity
  8
0
  6
Continuous
 62
               7
100
AcDbLine
 10
22083.361199316674
 20
27350.363864803832
 30
0.0
 11
22079.783490552676
 21
27348.575010421831
 31
0.0
  0
LINE
  5
D1
100
AcDbEntity
  8
0
  6
Continuous
 62
               7
100
AcDbLine
 10
22084.255626507675
 20
27348.575010421831
 30
0.0
 11
22080.677917743677
 21
27346.786156039831
 31
0.0
  0
LINE
  5
D2
100
AcDbEntity
  8
0
  6
Continuous
 62
               7
100
AcDbLine
 10
22075.892732271826
 20
27350.766357039778
 30
0.0
 11
22083.942576990827
 21
27354.79127939928
 31
0.0
  0
LINE
  5
D3
100
AcDbEntity
  8
0
  6
DIVIDE
 62
               4
100
AcDbLine
 10
22132.655942088808
 20
27347.92530229206
 30
0.0
 11
22130.297506154413
 21
27340.850015554573
 31
0.0
  0
LINE
  5
D4
100
AcDbEntity
  8
0
  6
DIVIDE
 62
               4
100
AcDbLine
 10
22123.169117582009
 20
27366.898951305651
 30
0.0
 11
22111.323823245941
 21
27331.363174100337
 31
0.0
  0
LINE
  5
D5
100
AcDbEntity
  8
0
  6
DIVIDE
 62
               4
100
AcDbLine
 10
22104.424950557142
 20
27358.100655452188
 30
0.0
 11
22092.350140337468
 21
27321.876332646101
 31
0.0
  0
LINE
  5
D6
100
AcDbEntity
  8
0
  6
DIVIDE
 62
               4
100
AcDbLine
 10
22085.45126764867
 20
27348.613813997956
 30
0.0
 11
22073.376457428996
 21
27312.389491191869
 31
0.0
  0
LINE
  5
D7
100
AcDbEntity
  8
0
  6
DIVIDE
 62
               4
100
AcDbLine
 10
22066.477584740198
 20
27339.12697254372
 30
0.0
 11
22054.402774520524
 21
27302.902649737633
 31
0.0
  0
LINE
  5
D8
100
AcDbEntity
  8
0
  6
DIVIDE
 62
               4
100
AcDbLine
 10
22047.503901831726
 20
27329.640131089483
 30
0.0
 11
22035.429091612052
 21
27293.415808283396
 31
0.0
  0
LINE
  5
D9
100
AcDbEntity
  8
0
  6
DIVIDE
 62
               4
100
AcDbLine
 10
22028.530218923253
 20
27320.153289635247
 30
0.0
 11
22016.455408703576
 21
27283.928966829164
 31
0.0
  0
LINE
  5
DA
100
AcDbEntity
  8
0
  6
DIVIDE
 62
               4
100
AcDbLine
 10
22009.556536014781
 20
27310.666448181015
 30
0.0
 11
21997.481725795104
 21
27274.442125374928
 31
0.0
  0
LINE
  5
DB
100
AcDbEntity
  8
0
  6
DIVIDE
 62
               4
100
AcDbLine
 10
21990.582853106309
 20
27301.179606726779
 30
0.0
 11
21978.508042886631
 21
27264.955283920692
 31
0.0
  0
LINE
  5
DC
100
AcDbEntity
  8
0
  6
DIVIDE
 62
               4
100
AcDbLine
 10
21971.609170197837
 20
27291.692765272543
 30
0.0
 11
21959.534359978159
 21
27255.468442466456
 31
0.0
  0
LINE
  5
DD
100
AcDbEntity
  8
0
  6
DIVIDE
 62
               4
100
AcDbLine
 10
21952.635487289364
 20
27282.205923818306
 30
0.0
 11
21940.560677069687
 21
27245.981601012223
 31
0.0
  0
LINE
  5
DE
100
AcDbEntity
  8
0
  6
DIVIDE
 62
               4
100
AcDbLine
 10
21933.661804380892
 20
27272.719082364074
 30
0.0
 11
21921.586994161215
 21
27236.494759557987
 31
0.0
  0
LINE
  5
DF
100
AcDbEntity
  8
0
  6
DIVIDE
 62
               4
100
AcDbLine
 10
21914.68812147242
 20
27263.232240909838
 30
0.0
 11
21902.613311252742
 21
27227.007918103751
 31
0.0
  0
LINE
  5
E0
100
AcDbEntity
  8
0
  6
DIVIDE
 62
               4
100
AcDbLine
 10
21895.714438563948
 20
27253.745399455602
 30
0.0
 11
21883.63962834427
 21
27217.521076649515
 31
0.0
  0
LINE
  5
E1
100
AcDbEntity
  8
0
  6
DIVIDE
 62
               4
100
AcDbLine
 10
21876.740755655475
 20
27244.258558001366
 30
0.0
 11
21864.665945435798
 21
27208.034235195282
 31
0.0
  0
LINE
  5
E2
100
AcDbEntity
  8
0
  6
DIVIDE
 62
               4
100
AcDbLine
 10
21857.767072747003
 20
27234.771716547133
 30
0.0
 11
21845.692262527326
 21
27198.547393741046
 31
0.0
  0
LINE
  5
E3
100
AcDbEntity
  8
0
  6
DIVIDE
 62
               4
100
AcDbLine
 10
21838.793370260133
 20
27225.284880562489
 30
0.0
 11
21826.718579618853
 21
27189.06055228681
 31
0.0
  0
LINE
  5
E4
100
AcDbEntity
  8
0
  6
DIVIDE
 62
               4
100
AcDbLine
 10
21819.819706930055
 20
27215.798033638661
 30
0.0
 11
21814.854887430036
 21
27200.903619484674
 31
0.0
  0
LINE
  5
E5
100
AcDbEntity
  8
0
  6
Continuous
 62
               4
100
AcDbLine
 10
21891.442751425242
 20
27262.3903516789
 30
0.0
 11
21889.545379744904
 21
27256.698253585331
 31
0.0
  0
LINE
  5
E6
100
AcDbEntity
  8
0
  6
Continuous
 62
               4
100
AcDbLine
 10
21889.545386523881
 20
27266.185081481617
 30
0.0
 11
21885.75064316321
 21
27254.800885294484
 31
0.0
  0
LINE
  5
E7
100
AcDbEntity
  8
0
  6
Continuous
 62
               4
100
AcDbLine
 10
21887.648021622521
 20
27269.979811284335
 30
0.0
 11
21881.955906581516
 21
27252.903517003637
 31
0.0
  0
LINE
  5
E8
100
AcDbEntity
  8
0
  6
Continuous
 62
               4
100
AcDbLine
 10
21885.750656721164
 20
27273.774541087056
 30
0.0
 11
21878.161169999821
 21
27251.006148712793
 31
0.0
  0
LINE
  5
E9
100
AcDbEntity
  8
0
  6
Continuous
 62
               4
100
AcDbLine
 10
21883.853291819803
 20
27277.569270889773
 30
0.0
 11
21879.381147875712
 21
27264.152879002959
 31
0.0
  0
LINE
  5
EA
100
AcDbEntity
  8
0
  6
Continuous
 62
               4
100
AcDbLine
 10
21878.838585351339
 20
27262.525196276049
 30
0.0
 11
21874.366433418127
 21
27249.108780421946
 31
0.0
  0
LINE
  5
EB
100
AcDbEntity
  8
0
  6
Continuous
 62
               4
100
AcDbLine
 10
21881.955926918446
 20
27281.364000692494
 30
0.0
 11
21877.483782974352
 21
27267.94760880568
 31
0.0
  0
LINE
  5
EC
100
AcDbEntity
  8
0
  6
Continuous
 62
               4
100
AcDbLine
 10
21875.043848769645
 20
27260.627827985201
 30
0.0
 11
21870.571696836432
 21
27247.211412131099
 31
0.0
  0
LINE
  5
ED
100
AcDbEntity
  8
0
  6
Continuous
 62
               4
100
AcDbLine
 10
21880.058562017086
 20
27285.158730495212
 30
0.0
 11
21875.586418072991
 21
27271.742338608397
 31
0.0
  0
LINE
  5
EE
100
AcDbEntity
  8
0
  6
Continuous
 62
               4
100
AcDbLine
 10
21871.249106245974
 20
27258.730473380008
 30
0.0
 11
21866.776960254738
 21
27245.314043840252
 31
0.0
  0
LINE
  5
EF
100
AcDbEntity
  8
0
  6
Continuous
 62
               4
100
AcDbLine
 10
21880.397269087771
 20
27295.661656241336
 30
0.0
 11
21879.529185825933
 21
27293.05741420959
 31
0.0
  0
LINE
  5
F0
100
AcDbEntity
  8
0
  6
Continuous
 62
               4
100
AcDbLine
 10
21878.161197115725
 20
27288.953460297929
 30
0.0
 11
21873.689053171634
 21
27275.537068411119
 31
0.0
  0
LINE
  5
F1
100
AcDbEntity
  8
0
  6
Continuous
 62
               4
100
AcDbLine
 10
21867.454375606256
 20
27256.83309140351
 30
0.0
 11
21862.982223673043
 21
27243.416675549404
 31
0.0
  0
LINE
  5
F2
100
AcDbEntity
  8
0
  6
Continuous
 62
               4
100
AcDbLine
 10
21878.194132807505
 20
27298.539074638502
 30
0.0
 11
21877.605475397595
 21
27296.773107666693
 31
0.0
  0
LINE
  5
F3
100
AcDbEntity
  8
0
  6
Continuous
 62
               4
100
AcDbLine
 10
21876.62887963088
 20
27293.843329089566
 30
0.0
 11
21871.791688270274
 21
27279.331798213836
 31
0.0
  0
LINE
  5
F4
100
AcDbEntity
  8
0
  6
Continuous
 62
               4
100
AcDbLine
 10
21863.659639024561
 20
27254.935723112663
 30
0.0
 11
21859.187487091349
 21
27241.519307258557
 31
0.0
  0
LINE
  5
F5
100
AcDbEntity
  8
0
  6
Continuous
 62
               4
100
AcDbLine
 10
21874.366467313008
 20
27296.542919903368
 30
0.0
 11
21869.894323368917
 21
27283.126528016553
 31
0.0
  0
LINE
  5
F6
100
AcDbEntity
  8
0
  6
Continuous
 62
               4
100
AcDbLine
 10
21859.864902442867
 20
27253.038354821816
 30
0.0
 11
21855.392750509654
 21
27239.62193896771
 31
0.0
  0
LINE
  5
F7
100
AcDbEntity
  8
0
  6
Continuous
 62
               4
100
AcDbLine
 10
21872.16991282074
 20
27299.440083605747
 30
0.0
 11
21867.697760887528
 21
27286.02366775164
 31
0.0
  0
LINE
  5
F8
100
AcDbEntity
  8
0
  6
Continuous
 62
               4
100
AcDbLine
 10
21856.070165861172
 20
27251.140986530969
 30
0.0
 11
21851.59801392796
 21
27237.724570676863
 31
0.0
  0
LINE
  5
F9
100
AcDbEntity
  8
0
  6
Continuous
 62
               4
100
AcDbLine
 10
21868.375176239046
 20
27297.542715314899
 30
0.0
 11
21863.903024305833
 21
27284.126299460793
 31
0.0
  0
LINE
  5
FA
100
AcDbEntity
  8
0
  6
Continuous
 62
               4
100
AcDbLine
 10
21852.275429279478
 20
27249.243618240122
 30
0.0
 11
21847.803277346266
 21
27235.827202386015
 31
0.0
  0
LINE
  5
FB
100
AcDbEntity
  8
0
  6
Continuous
 62
               4
100
AcDbLine
 10
21864.580439657351
 20
27295.645347024052
 30
0.0
 11
21860.108287724139
 21
27282.228931169946
 31
0.0
  0
LINE
  5
FC
100
AcDbEntity
  8
0
  6
Continuous
 62
               4
100
AcDbLine
 10
21848.480692697784
 20
27247.346249949274
 30
0.0
 11
21844.008540764571
 21
27233.929834095168
 31
0.0
  0
LINE
  5
FD
100
AcDbEntity
  8
0
  6
Continuous
 62
               4
100
AcDbLine
 10
21860.785703075657
 20
27293.747978733205
 30
0.0
 11
21856.313551142444
 21
27280.331562879099
 31
0.0
  0
LINE
  5
FE
100
AcDbEntity
  8
0
  6
Continuous
 62
               4
100
AcDbLine
 10
21844.685956116089
 20
27245.448881658427
 30
0.0
 11
21840.213804182877
 21
27232.032465804321
 31
0.0
  0
LINE
  5
FF
100
AcDbEntity
  8
0
  6
Continuous
 62
               4
100
AcDbLine
 10
21856.990966493962
 20
27291.850610442358
 30
0.0
 11
21852.51881456075
 21
27278.434194588252
 31
0.0
  0
LINE
  5
100
100
AcDbEntity
  8
0
  6
Continuous
 62
               4
100
AcDbLine
 10
21840.891219534395
 20
27243.55151336758
 30
0.0
 11
21836.419067601182
 21
27230.135097513474
 31
0.0
  0
LINE
  5
101
100
AcDbEntity
  8
0
  6
Continuous
 62
               4
100
AcDbLine
 10
21853.196229912268
 20
27289.95324215151
 30
0.0
 11
21848.724077979055
 21
27276.536826297404
 31
0.0
  0
LINE
  5
102
100
AcDbEntity
  8
0
  6
Continuous
 62
               4
100
AcDbLine
 10
21837.0964829527
 20
27241.654145076733
 30
0.0
 11
21832.624331019488
 21
27228.23772922263
 31
0.0
  0
LINE
  5
103
100
AcDbEntity
  8
0
  6
Continuous
 62
               4
100
AcDbLine
 10
21849.401493330573
 20
27288.055873860663
 30
0.0
 11
21844.929341397361
 21
27274.639458006561
 31
0.0
  0
LINE
  5
104
100
AcDbEntity
  8
0
  6
Continuous
 62
               4
100
AcDbLine
 10
21833.301746371006
 20
27239.756776785885
 30
0.0
 11
21828.829594437793
 21
27226.340360931783
 31
0.0
  0
LINE
  5
105
100
AcDbEntity
  8
0
  6
Continuous
 62
               4
100
AcDbLine
 10
21845.606756748879
 20
27286.158505569816
 30
0.0
 11
21841.134604815667
 21
27272.742089715714
 31
0.0
  0
LINE
  5
106
100
AcDbEntity
  8
0
  6
Continuous
 62
               4
100
AcDbLine
 10
21829.507009789311
 20
27237.859408495038
 30
0.0
 11
21825.034857856099
 21
27224.442992640936
 31
0.0
  0
LINE
  5
107
100
AcDbEntity
  8
0
  6
Continuous
 62
               4
100
AcDbLine
 10
21841.812020167185
 20
27284.261137278969
 30
0.0
 11
21837.339868233972
 21
27270.844721424866
 31
0.0
  0
LINE
  5
108
100
AcDbEntity
  8
0
  6
Continuous
 62
               4
100
AcDbLine
 10
21825.712273207617
 20
27235.962040204191
 30
0.0
 11
21821.240121274404
 21
27222.545624350088
 31
0.0
  0
LINE
  5
109
100
AcDbEntity
  8
0
  6
Continuous
 62
               4
100
AcDbLine
 10
21838.01728358549
 20
27282.363768988122
 30
0.0
 11
21833.545131652278
 21
27268.947353134019
 31
0.0
  0
LINE
  5
10A
100
AcDbEntity
  8
0
  6
Continuous
 62
               4
100
AcDbLine
 10
21821.917536625922
 20
27234.064671913347
 30
0.0
 11
21817.44538469271
 21
27220.648256059241
 31
0.0
  0
LINE
  5
10B
100
AcDbEntity
  8
0
  6
Continuous
 62
               4
100
AcDbLine
 10
21834.222547003796
 20
27280.466400697274
 30
0.0
 11
21829.750395070583
 21
27267.049984843172
 31
0.0
  0
LINE
  5
10C
100
AcDbEntity
  8
0
  6
Continuous
 62
               4
100
AcDbLine
 10
21818.122800044228
 20
27232.1673036225
 30
0.0
 11
21813.650648111015
 21
27218.750887768394
 31
0.0
  0
LINE
  5
10D
100
AcDbEntity
  8
0
  6
Continuous
 62
               4
100
AcDbLine
 10
21830.427810422101
 20
27278.569032406431
 30
0.0
 11
21825.955658488889
 21
27265.152616552325
 31
0.0
  0
LINE
  5
10E
100
AcDbEntity
  8
0
  6
Continuous
 62
               4
100
AcDbLine
 10
21814.328063462533
 20
27230.269935331653
 30
0.0
 11
21809.855911529321
 21
27216.853519477547
 31
0.0
  0
LINE
  5
10F
100
AcDbEntity
  8
0
  6
Continuous
 62
               4
100
AcDbLine
 10
21826.633073840407
 20
27276.671664115584
 30
0.0
 11
21822.160921907194
 21
27263.255248261477
 31
0.0
  0
LINE
  5
110
100
AcDbEntity
  8
0
  6
Continuous
 62
               4
100
AcDbLine
 10
21810.533326880839
 20
27228.372567040806
 30
0.0
 11
21806.061174947627
 21
27214.9561511867
 31
0.0
  0
LINE
  5
111
100
AcDbEntity
  8
0
  6
Continuous
 62
               4
100
AcDbLine
 10
21822.838337258712
 20
27274.774295824736
 30
0.0
 11
21818.3661853255
 21
27261.35787997063
 31
0.0
  0
LINE
  5
112
100
AcDbEntity
  8
0
  6
Continuous
 62
               4
100
AcDbLine
 10
21806.738590299145
 20
27226.475198749959
 30
0.0
 11
21802.266438365932
 21
27213.058782895852
 31
0.0
  0
LINE
  5
113
100
AcDbEntity
  8
0
  6
Continuous
 62
               4
100
AcDbLine
 10
21819.043600677018
 20
27272.876927533889
 30
0.0
 11
21814.571448743805
 21
27259.460511679783
 31
0.0
  0
LINE
  5
114
100
AcDbEntity
  8
0
  6
Continuous
 62
               4
100
AcDbLine
 10
21802.94385371745
 20
27224.577830459111
 30
0.0
 11
21798.471701784238
 21
27211.161414605005
 31
0.0
  0
LINE
  5
115
100
AcDbEntity
  8
0
  6
Continuous
 62
               4
100
AcDbLine
 10
21815.248864095323
 20
27270.979559243042
 30
0.0
 11
21810.776712162111
 21
27257.563143388936
 31
0.0
  0
LINE
  5
116
100
AcDbEntity
  8
0
  6
Continuous
 62
               4
100
AcDbLine
 10
21799.149117135756
 20
27222.680462168264
 30
0.0
 11
21794.676965202543
 21
27209.264046314158
 31
0.0
  0
LINE
  5
117
100
AcDbEntity
  8
0
  6
Continuous
 62
               4
100
AcDbLine
 10
21811.454127513629
 20
27269.082190952195
 30
0.0
 11
21806.981975580416
 21
27255.665775098088
 31
0.0
  0
LINE
  5
118
100
AcDbEntity
  8
0
  6
Continuous
 62
               4
100
AcDbLine
 10
21795.354380554061
 20
27220.783093877417
 30
0.0
 11
21790.882228620849
 21
27207.366678023311
 31
0.0
  0
LINE
  5
119
100
AcDbEntity
  8
0
  6
Continuous
 62
               4
100
AcDbLine
 10
21807.659390931934
 20
27267.184822661347
 30
0.0
 11
21803.187238998722
 21
27253.768406807241
 31
0.0
  0
LINE
  5
11A
100
AcDbEntity
  8
0
  6
Continuous
 62
               4
100
AcDbLine
 10
21791.559643972367
 20
27218.88572558657
 30
0.0
 11
21787.087492039154
 21
27205.469309732467
 31
0.0
  0
LINE
  5
11B
100
AcDbEntity
  8
0
  6
Continuous
 62
               4
100
AcDbLine
 10
21803.86465435024
 20
27265.2874543705
 30
0.0
 11
21799.392502417028
 21
27251.871038516398
 31
0.0
  0
LINE
  5
11C
100
AcDbEntity
  8
0
  6
Continuous
 62
               4
100
AcDbLine
 10
21787.764907390672
 20
27216.988357295722
 30
0.0
 11
21783.29275545746
 21
27203.57194144162
 31
0.0
  0
LINE
  5
11D
100
AcDbEntity
  8
0
  6
Continuous
 62
               4
100
AcDbLine
 10
21800.069917768546
 20
27263.390086079653
 30
0.0
 11
21795.597765835333
 21
27249.97367022555
 31
0.0
  0
LINE
  5
11E
100
AcDbEntity
  8
0
  6
Continuous
 62
               4
100
AcDbLine
 10
21783.970170808978
 20
27215.090989004875
 30
0.0
 11
21779.498018875765
 21
27201.674573150773
 31
0.0
  0
LINE
  5
11F
100
AcDbEntity
  8
0
  6
Continuous
 62
               4
100
AcDbLine
 10
21796.275181186851
 20
27261.492717788806
 30
0.0
 11
21791.803029253639
 21
27248.076301934703
 31
0.0
  0
LINE
  5
120
100
AcDbEntity
  8
0
  6
Continuous
 62
               4
100
AcDbLine
 10
21780.175434227283
 20
27213.193620714028
 30
0.0
 11
21775.703282294071
 21
27199.777204859925
 31
0.0
  0
LINE
  5
121
100
AcDbEntity
  8
0
  6
Continuous
 62
               4
100
AcDbLine
 10
21792.480444605157
 20
27259.595349497959
 30
0.0
 11
21788.008292671944
 21
27246.178933643856
 31
0.0
  0
LINE
  5
122
100
AcDbEntity
  8
0
  6
Continuous
 62
               4
100
AcDbLine
 10
21776.380697645589
 20
27211.296252423184
 30
0.0
 11
21771.908545712377
 21
27197.879836569078
 31
0.0
  0
LINE
  5
123
100
AcDbEntity
  8
0
  6
Continuous
 62
               4
100
AcDbLine
 10
21788.685708023462
 20
27257.697981207111
 30
0.0
 11
21784.21355609025
 21
27244.281565353009
 31
0.0
  0
LINE
  5
124
100
AcDbEntity
  8
0
  6
Continuous
 62
               4
100
AcDbLine
 10
21772.585961063895
 20
27209.398884132337
 30
0.0
 11
21768.113809130682
 21
27195.982468278231
 31
0.0
  0
LINE
  5
125
100
AcDbEntity
  8
0
  6
Continuous
 62
               4
100
AcDbLine
 10
21784.890971441768
 20
27255.800612916268
 30
0.0
 11
21780.418819508555
 21
27242.384197062162
 31
0.0
  0
LINE
  5
126
100
AcDbEntity
  8
0
  6
Continuous
 62
               4
100
AcDbLine
 10
21768.7912244822
 20
27207.50151584149
 30
0.0
 11
21764.319072548988
 21
27194.085099987384
 31
0.0
  0
LINE
  5
127
100
AcDbEntity
  8
0
  6
Continuous
 62
               4
100
AcDbLine
 10
21781.096234860073
 20
27253.90324462542
 30
0.0
 11
21776.624082926861
 21
27240.486828771314
 31
0.0
  0
LINE
  5
128
100
AcDbEntity
  8
0
  6
Continuous
 62
               4
100
AcDbLine
 10
21764.996487900506
 20
27205.604147550643
 30
0.0
 11
21760.524335967293
 21
27192.187731696537
 31
0.0
  0
LINE
  5
129
100
AcDbEntity
  8
0
  6
Continuous
 62
               4
100
AcDbLine
 10
21777.301498278379
 20
27252.005876334573
 30
0.0
 11
21772.829346345166
 21
27238.589460480467
 31
0.0
  0
LINE
  5
12A
100
AcDbEntity
  8
0
  6
Continuous
 62
               4
100
AcDbLine
 10
21761.201751318811
 20
27203.706779259795
 30
0.0
 11
21756.729599385599
 21
27190.290363405689
 31
0.0
  0
LINE
  5
12B
100
AcDbEntity
  8
0
  6
Continuous
 62
               4
100
AcDbLine
 10
21773.506761696684
 20
27250.108508043726
 30
0.0
 11
21769.034609763472
 21
27236.69209218962
 31
0.0
  0
LINE
  5
12C
100
AcDbEntity
  8
0
  6
Continuous
 62
               4
100
AcDbLine
 10
21757.407014737117
 20
27201.809410968948
 30
0.0
 11
21752.934862803904
 21
27188.392995114842
 31
0.0
  0
LINE
  5
12D
100
AcDbEntity
  8
0
  6
Continuous
 62
               4
100
AcDbLine
 10
21769.71202511499
 20
27248.211139752879
 30
0.0
 11
21765.239873181778
 21
27234.794723898773
 31
0.0
  0
LINE
  5
12E
100
AcDbEntity
  8
0
  6
Continuous
 62
               4
100
AcDbLine
 10
21753.612278155422
 20
27199.912042678101
 30
0.0
 11
21749.14012622221
 21
27186.495626823995
 31
0.0
  0
LINE
  5
12F
100
AcDbEntity
  8
0
  6
Continuous
 62
               4
100
AcDbLine
 10
21765.917288533296
 20
27246.313771462032
 30
0.0
 11
21761.445136600083
 21
27232.897355607925
 31
0.0
  0
LINE
  5
130
100
AcDbEntity
  8
0
  6
Continuous
 62
               4
100
AcDbLine
 10
21749.817541573728
 20
27198.014674387254
 30
0.0
 11
21745.345389640515
 21
27184.598258533151
 31
0.0
  0
LINE
  5
131
100
AcDbEntity
  8
0
  6
Continuous
 62
               4
100
AcDbLine
 10
21762.122551951601
 20
27244.416403171184
 30
0.0
 11
21757.650400018389
 21
27230.999987317078
 31
0.0
  0
LINE
  5
132
100
AcDbEntity
  8
0
  6
Continuous
 62
               4
100
AcDbLine
 10
21746.022804992033
 20
27196.117306096407
 30
0.0
 11
21741.550653058821
 21
27182.700890242304
 31
0.0
  0
LINE
  5
133
100
AcDbEntity
  8
0
  6
Continuous
 62
               4
100
AcDbLine
 10
21758.327815369907
 20
27242.519034880337
 30
0.0
 11
21753.855663436694
 21
27229.102619026235
 31
0.0
  0
LINE
  5
134
100
AcDbEntity
  8
0
  6
Continuous
 62
               4
100
AcDbLine
 10
21742.228068410339
 20
27194.219937805559
 30
0.0
 11
21737.755916477126
 21
27180.803521951457
 31
0.0
  0
LINE
  5
135
100
AcDbEntity
  8
0
  6
Continuous
 62
               4
100
AcDbLine
 10
21754.533078788212
 20
27240.62166658949
 30
0.0
 11
21750.060926855
 21
27227.205250735387
 31
0.0
  0
LINE
  5
136
100
AcDbEntity
  8
0
  6
Continuous
 62
               4
100
AcDbLine
 10
21738.433331828644
 20
27192.322569514712
 30
0.0
 11
21733.961179895432
 21
27178.90615366061
 31
0.0
  0
LINE
  5
137
100
AcDbEntity
  8
0
  6
Continuous
 62
               4
100
AcDbLine
 10
21750.738342206518
 20
27238.724298298643
 30
0.0
 11
21746.266190273305
 21
27225.30788244454
 31
0.0
  0
LINE
  5
138
100
AcDbEntity
  8
0
  6
Continuous
 62
               4
100
AcDbLine
 10
21734.63859524695
 20
27190.425201223865
 30
0.0
 11
21730.166443313738
 21
27177.008785369762
 31
0.0
  0
LINE
  5
139
100
AcDbEntity
  8
0
  6
Continuous
 62
               4
100
AcDbLine
 10
21746.943605624823
 20
27236.826930007795
 30
0.0
 11
21742.471453691611
 21
27223.410514153693
 31
0.0
  0
LINE
  5
13A
100
AcDbEntity
  8
0
  6
Continuous
 62
               4
100
AcDbLine
 10
21730.843858665256
 20
27188.527832933021
 30
0.0
 11
21726.371706732043
 21
27175.111417078915
 31
0.0
  0
LINE
  5
13B
100
AcDbEntity
  8
0
  6
Continuous
 62
               4
100
AcDbLine
 10
21743.148869043129
 20
27234.929561716948
 30
0.0
 11
21738.676717109916
 21
27221.513145862846
 31
0.0
  0
LINE
  5
13C
100
AcDbEntity
  8
0
  6
Continuous
 62
               4
100
AcDbLine
 10
21727.049122083561
 20
27186.630464642174
 30
0.0
 11
21722.576970150349
 21
27173.214048788068
 31
0.0
  0
LINE
  5
13D
100
AcDbEntity
  8
0
  6
Continuous
 62
               4
100
AcDbLine
 10
21739.354132461434
 20
27233.032193426105
 30
0.0
 11
21734.881980528222
 21
27219.615777571998
 31
0.0
  0
LINE
  5
13E
100
AcDbEntity
  8
0
  6
Continuous
 62
               4
100
AcDbLine
 10
21723.254385501867
 20
27184.733096351327
 30
0.0
 11
21718.782233568654
 21
27171.316680497221
 31
0.0
  0
LINE
  5
13F
100
AcDbEntity
  8
0
  6
Continuous
 62
               4
100
AcDbLine
 10
21735.55939587974
 20
27231.134825135257
 30
0.0
 11
21731.087243946527
 21
27217.718409281151
 31
0.0
  0
LINE
  5
140
100
AcDbEntity
  8
0
  6
Continuous
 62
               4
100
AcDbLine
 10
21719.459648920172
 20
27182.83572806048
 30
0.0
 11
21714.98749698696
 21
27169.419312206373
 31
0.0
  0
LINE
  5
141
100
AcDbEntity
  8
0
  6
Continuous
 62
               4
100
AcDbLine
 10
21731.764659298045
 20
27229.23745684441
 30
0.0
 11
21727.292507364833
 21
27215.821040990304
 31
0.0
  0
LINE
  5
142
100
AcDbEntity
  8
0
  6
Continuous
 62
               4
100
AcDbLine
 10
21715.664912338478
 20
27180.938359769632
 30
0.0
 11
21711.192760405265
 21
27167.521943915526
 31
0.0
  0
LINE
  5
143
100
AcDbEntity
  8
0
  6
Continuous
 62
               4
100
AcDbLine
 10
21727.969922716351
 20
27227.340088553563
 30
0.0
 11
21723.497770783139
 21
27213.923672699457
 31
0.0
  0
LINE
  5
144
100
AcDbEntity
  8
0
  6
Continuous
 62
               4
100
AcDbLine
 10
21711.870175756783
 20
27179.040991478785
 30
0.0
 11
21707.398023823571
 21
27165.624575624679
 31
0.0
  0
LINE
  5
145
100
AcDbEntity
  8
0
  6
Continuous
 62
               4
100
AcDbLine
 10
21724.175186134657
 20
27225.442720262716
 30
0.0
 11
21719.703034201444
 21
27212.02630440861
 31
0.0
  0
LINE
  5
146
100
AcDbEntity
  8
0
  6
Continuous
 62
               4
100
AcDbLine
 10
21708.075439175089
 20
27177.143623187938
 30
0.0
 11
21703.603287241876
 21
27163.727207333832
 31
0.0
  0
LINE
  5
147
100
AcDbEntity
  8
0
  6
Continuous
 62
               4
100
AcDbLine
 10
21720.380449552962
 20
27223.545351971869
 30
0.0
 11
21715.90829761975
 21
27210.128936117762
 31
0.0
  0
LINE
  5
148
100
AcDbEntity
  8
0
  6
Continuous
 62
               4
100
AcDbLine
 10
21704.280702593394
 20
27175.246254897091
 30
0.0
 11
21699.808550660182
 21
27161.829839042985
 31
0.0
  0
LINE
  5
149
100
AcDbEntity
  8
0
  6
Continuous
 62
               4
100
AcDbLine
 10
21716.585712971268
 20
27221.647983681021
 30
0.0
 11
21712.113561038055
 21
27208.231567826915
 31
0.0
  0
LINE
  5
14A
100
AcDbEntity
  8
0
  6
Continuous
 62
               4
100
AcDbLine
 10
21700.4859660117
 20
27173.348886606243
 30
0.0
 11
21696.013814078487
 21
27159.932470752141
 31
0.0
  0
LINE
  5
14B
100
AcDbEntity
  8
0
  6
Continuous
 62
               4
100
AcDbLine
 10
21712.790976389573
 20
27219.750615390174
 30
0.0
 11
21708.318824456361
 21
27206.334199536068
 31
0.0
  0
LINE
  5
14C
100
AcDbEntity
  8
0
  6
Continuous
 62
               4
100
AcDbLine
 10
21696.691229430005
 20
27171.451518315396
 30
0.0
 11
21692.219077496793
 21
27158.035102461294
 31
0.0
  0
LINE
  5
14D
100
AcDbEntity
  8
0
  6
Continuous
 62
               4
100
AcDbLine
 10
21708.996239807879
 20
27217.853247099327
 30
0.0
 11
21704.524087874666
 21
27204.436831245224
 31
0.0
  0
LINE
  5
14E
100
AcDbEntity
  8
0
  6
Continuous
 62
               4
100
AcDbLine
 10
21692.896492848311
 20
27169.554150024549
 30
0.0
 11
21688.424340915099
 21
27156.137734170446
 31
0.0
  0
LINE
  5
14F
100
AcDbEntity
  8
0
  6
Continuous
 62
               4
100
AcDbLine
 10
21705.201503226184
 20
27215.95587880848
 30
0.0
 11
21700.729351292972
 21
27202.539462954377
 31
0.0
  0
LINE
  5
150
100
AcDbEntity
  8
0
  6
Continuous
 62
               4
100
AcDbLine
 10
21689.101756266617
 20
27167.656781733702
 30
0.0
 11
21684.629604333404
 21
27154.240365879599
 31
0.0
  0
LINE
  5
151
100
AcDbEntity
  8
0
  6
Continuous
 62
               4
100
AcDbLine
 10
21701.40676664449
 20
27214.058510517632
 30
0.0
 11
21696.934614711277
 21
27200.64209466353
 31
0.0
  0
LINE
  5
152
100
AcDbEntity
  8
0
  6
Continuous
 62
               4
100
AcDbLine
 10
21685.307019684922
 20
27165.759413442858
 30
0.0
 11
21680.83486775171
 21
27152.342997588752
 31
0.0
  0
LINE
  5
153
100
AcDbEntity
  8
0
  6
Continuous
 62
               4
100
AcDbLine
 10
21697.612030062795
 20
27212.161142226785
 30
0.0
 11
21693.139878129583
 21
27198.744726372683
 31
0.0
  0
LINE
  5
154
100
AcDbEntity
  8
0
  6
Continuous
 62
               4
100
AcDbLine
 10
21681.512283103228
 20
27163.862045152011
 30
0.0
 11
21677.040131170015
 21
27150.445629297905
 31
0.0
  0
LINE
  5
155
100
AcDbEntity
  8
0
  6
Continuous
 62
               4
100
AcDbLine
 10
21693.817293481101
 20
27210.263773935942
 30
0.0
 11
21689.345141547888
 21
27196.847358081835
 31
0.0
  0
LINE
  5
156
100
AcDbEntity
  8
0
  6
Continuous
 62
               4
100
AcDbLine
 10
21677.717546521533
 20
27161.964676861164
 30
0.0
 11
21673.245394588321
 21
27148.548261007058
 31
0.0
  0
LINE
  5
157
100
AcDbEntity
  8
0
  6
Continuous
 62
               4
100
AcDbLine
 10
21690.022556899406
 20
27208.366405645094
 30
0.0
 11
21685.550404966194
 21
27194.949989790988
 31
0.0
  0
LINE
  5
158
100
AcDbEntity
  8
0
  6
Continuous
 62
               4
100
AcDbLine
 10
21673.922809939839
 20
27160.067308570317
 30
0.0
 11
21669.450658006626
 21
27146.65089271621
 31
0.0
  0
LINE
  5
159
100
AcDbEntity
  8
0
  6
Continuous
 62
               4
100
AcDbLine
 10
21686.227820317712
 20
27206.469037354247
 30
0.0
 11
21681.7556683845
 21
27193.052621500141
 31
0.0
  0
LINE
  5
15A
100
AcDbEntity
  8
0
  6
Continuous
 62
               4
100
AcDbLine
 10
21670.128073358144
 20
27158.169940279469
 30
0.0
 11
21665.655921424932
 21
27144.753524425363
 31
0.0
  0
LINE
  5
15B
100
AcDbEntity
  8
0
  6
Continuous
 62
               4
100
AcDbLine
 10
21682.433083736018
 20
27204.5716690634
 30
0.0
 11
21677.960931802805
 21
27191.155253209294
 31
0.0
  0
LINE
  5
15C
100
AcDbEntity
  8
0
  6
Continuous
 62
               4
100
AcDbLine
 10
21666.33333677645
 20
27156.272571988622
 30
0.0
 11
21661.861184843237
 21
27142.856156134516
 31
0.0
  0
LINE
  5
15D
100
AcDbEntity
  8
0
  6
Continuous
 62
               4
100
AcDbLine
 10
21678.638347154323
 20
27202.674300772553
 30
0.0
 11
21674.166195221111
 21
27189.257884918447
 31
0.0
  0
LINE
  5
15E
100
AcDbEntity
  8
0
  6
Continuous
 62
               4
100
AcDbLine
 10
21662.538600194755
 20
27154.375203697775
 30
0.0
 11
21658.066448261543
 21
27140.958787843669
 31
0.0
  0
LINE
  5
15F
100
AcDbEntity
  8
0
  6
Continuous
 62
               4
100
AcDbLine
 10
21674.843610572629
 20
27200.776932481705
 30
0.0
 11
21670.371458639416
 21
27187.360516627599
 31
0.0
  0
LINE
  5
160
100
AcDbEntity
  8
0
  6
Continuous
 62
               4
100
AcDbLine
 10
21658.743863613061
 20
27152.477835406928
 30
0.0
 11
21654.271711679849
 21
27139.061419552825
 31
0.0
  0
LINE
  5
161
100
AcDbEntity
  8
0
  6
Continuous
 62
               4
100
AcDbLine
 10
21671.048873990934
 20
27198.879564190858
 30
0.0
 11
21666.576722057722
 21
27185.463148336752
 31
0.0
  0
LINE
  5
162
100
AcDbEntity
  8
0
  6
Continuous
 62
               4
100
AcDbLine
 10
21654.949127031367
 20
27150.58046711608
 30
0.0
 11
21650.476975098154
 21
27137.164051261978
 31
0.0
  0
LINE
  5
163
100
AcDbEntity
  8
0
  6
Continuous
 62
               4
100
AcDbLine
 10
21667.25413740924
 20
27196.982195900011
 30
0.0
 11
21662.781985476027
 21
27183.565780045905
 31
0.0
  0
LINE
  5
164
100
AcDbEntity
  8
0
  6
Continuous
 62
               4
100
AcDbLine
 10
21651.154390449672
 20
27148.683098825233
 30
0.0
 11
21646.68223851646
 21
27135.266682971131
 31
0.0
  0
LINE
  5
165
100
AcDbEntity
  8
0
  6
Continuous
 62
               4
100
AcDbLine
 10
21663.459400827545
 20
27195.084827609164
 30
0.0
 11
21658.987248894333
 21
27181.668411755061
 31
0.0
  0
LINE
  5
166
100
AcDbEntity
  8
0
  6
Continuous
 62
               4
100
AcDbLine
 10
21647.359653867978
 20
27146.785730534386
 30
0.0
 11
21642.887501934765
 21
27133.369314680283
 31
0.0
  0
LINE
  5
167
100
AcDbEntity
  8
0
  6
Continuous
 62
               4
100
AcDbLine
 10
21659.664664245851
 20
27193.187459318317
 30
0.0
 11
21655.192512312638
 21
27179.771043464214
 31
0.0
  0
LINE
  5
168
100
AcDbEntity
  8
0
  6
Continuous
 62
               4
100
AcDbLine
 10
21643.564917286283
 20
27144.888362243539
 30
0.0
 11
21639.092765353071
 21
27131.471946389436
 31
0.0
  0
LINE
  5
169
100
AcDbEntity
  8
0
  6
Continuous
 62
               4
100
AcDbLine
 10
21655.869927664156
 20
27191.290091027469
 30
0.0
 11
21651.397775730944
 21
27177.873675173367
 31
0.0
  0
LINE
  5
16A
100
AcDbEntity
  8
0
  6
Continuous
 62
               4
100
AcDbLine
 10
21639.770180704589
 20
27142.990993952695
 30
0.0
 11
21635.298028771376
 21
27129.574578098589
 31
0.0
  0
LINE
  5
16B
100
AcDbEntity
  8
0
  6
Continuous
 62
               4
100
AcDbLine
 10
21652.075191082462
 20
27189.392722736622
 30
0.0
 11
21647.60303914925
 21
27175.97630688252
 31
0.0
  0
LINE
  5
16C
100
AcDbEntity
  8
0
  6
Continuous
 62
               4
100
AcDbLine
 10
21635.975444122894
 20
27141.093625661848
 30
0.0
 11
21631.503292189682
 21
27127.677209807742
 31
0.0
  0
LINE
  5
16D
100
AcDbEntity
  8
0
  6
Continuous
 62
               4
100
AcDbLine
 10
21648.280454500768
 20
27187.495354445779
 30
0.0
 11
21643.808302567555
 21
27174.078938591672
 31
0.0
  0
LINE
  5
16E
100
AcDbEntity
  8
0
  6
Continuous
 62
               4
100
AcDbLine
 10
21632.1807075412
 20
27139.196257371001
 30
0.0
 11
21628.149112486317
 21
27127.101508216805
 31
0.0
  0
LINE
  5
16F
100
AcDbEntity
  8
0
  6
Continuous
 62
               4
100
AcDbLine
 10
21644.485717919073
 20
27185.597986154931
 30
0.0
 11
21640.013565985861
 21
27172.181570300825
 31
0.0
  0
LINE
  5
170
100
AcDbEntity
  8
0
  6
Continuous
 62
               4
100
AcDbLine
 10
21628.385970959505
 20
27137.298889080153
 30
0.0
 11
21626.25174758496
 21
27130.896238019526
 31
0.0
  0
LINE
  5
171
100
AcDbEntity
  8
0
  6
Continuous
 62
               4
100
AcDbLine
 10
21640.690981337379
 20
27183.700617864084
 30
0.0
 11
21636.218829404166
 21
27170.284202009978
 31
0.0
  0
LINE
  5
172
100
AcDbEntity
  8
0
  6
Continuous
 62
               4
100
AcDbLine
 10
21624.591234377811
 20
27135.401520789306
 30
0.0
 11
21624.354382683599
 21
27134.690967822244
 31
0.0
  0
LINE
  5
173
100
AcDbEntity
  8
0
  6
Continuous
 62
               4
100
AcDbLine
 10
21636.896244755684
 20
27181.803249573237
 30
0.0
 11
21632.424092822472
 21
27168.386833719131
 31
0.0
  0
LINE
  5
174
100
AcDbEntity
  8
0
  6
Continuous
 62
               4
100
AcDbLine
 10
21633.10150817399
 20
27179.90588128239
 30
0.0
 11
21628.629356240777
 21
27166.489465428283
 31
0.0
  0
LINE
  5
175
100
AcDbEntity
  8
0
  6
Continuous
 62
               4
100
AcDbLine
 10
21629.306771592295
 20
27178.008512991542
 30
0.0
 11
21624.834619659083
 21
27164.592097137436
 31
0.0
  0
LINE
  5
176
100
AcDbEntity
  8
0
  6
Continuous
 62
               4
100
AcDbLine
 10
21625.512035010601
 20
27176.111144700695
 30
0.0
 11
21621.039883077388
 21
27162.694728846589
 31
0.0
  0
LINE
  5
177
100
AcDbEntity
  8
0
  6
Continuous
 62
               4
100
AcDbLine
 10
21621.717298428906
 20
27174.213776409848
 30
0.0
 11
21617.245146495694
 21
27160.797360555742
 31
0.0
  0
LINE
  5
178
100
AcDbEntity
  8
0
  6
Continuous
 62
               4
100
AcDbLine
 10
21617.922561847212
 20
27172.316408119001
 30
0.0
 11
21613.450409913999
 21
27158.899992264898
 31
0.0
  0
LINE
  5
179
100
AcDbEntity
  8
0
  6
Continuous
 62
               4
100
AcDbLine
 10
21614.127825265517
 20
27170.419039828153
 30
0.0
 11
21611.072828374086
 21
27161.254076441277
 31
0.0
  0
LINE
  5
17A
100
AcDbEntity
  8
0
  6
Continuous
 62
               4
100
AcDbLine
 10
21610.333088683823
 20
27168.521671537306
 30
0.0
 11
21609.175463472726
 21
27165.048806243994
 31
0.0
  0
LINE
  5
17B
100
AcDbEntity
  8
0
  6
Continuous
 62
               4
100
AcDbLine
 10
22109.309066918686
 20
27416.97973240745
 30
0.0
 11
22128.753316642269
 21
27378.09123296028
 31
0.0
  0
LINE
  5
17C
100
AcDbEntity
  8
0
  6
Continuous
 62
               4
100
AcDbLine
 10
22045.124436901428
 20
27333.481551573706
 30
0.0
 11
22020.379908877872
 21
27376.340331319821
 31
0.0
  0
LINE
  5
17D
100
AcDbEntity
  8
0
  6
Continuous
 62
               4
100
AcDbLine
 10
21874.109949759033
 20
27417.803625796325
 30
0.0
 11
21842.804998074036
 21
27402.151149953828
 31
0.0
  0
LINE
  5
17E
100
AcDbEntity
  8
0
  6
Continuous
 62
               4
100
AcDbLine
 10
22109.309066918686
 20
27416.97973240745
 30
0.0
 11
21982.173786721996
 21
27416.97973240745
 31
0.0
  0
LINE
  5
17F
100
AcDbEntity
  8
0
  6
Continuous
 62
               4
100
AcDbLine
 10
22020.379908877872
 20
27376.340331319821
 30
0.0
 11
21902.22719612029
 21
27376.340331319821
 31
0.0
  0
LINE
  5
180
100
AcDbEntity
  8
0
  6
Continuous
 62
               4
100
AcDbLine
 10
22150.89045223717
 20
27368.476015421576
 30
0.0
 11
22190.805958063927
 21
27299.340331319821
 31
0.0
  0
LINE
  5
181
100
AcDbEntity
  8
0
  6
Continuous
 62
               4
100
AcDbLine
 10
22190.805958063927
 20
27299.340331319821
 30
0.0
 11
22340.805966323038
 21
27299.34033845444
 31
0.0
  0
LINE
  5
182
100
AcDbEntity
  8
0
  6
Continuous
 62
               4
100
AcDbLine
 10
21886.631912394099
 20
27255.241519909931
 30
0.0
 11
21840.96419233402
 21
27334.340331319821
 31
0.0
  0
LINE
  5
183
100
AcDbEntity
  8
0
  6
Continuous
 62
               4
100
AcDbLine
 10
21882.137415759331
 20
27317.057619147912
 30
0.0
 11
21860.034881581571
 21
27355.340331319821
 31
0.0
  0
LINE
  5
184
100
AcDbEntity
  8
0
  6
Continuous
 62
               4
100
AcDbLine
 10
21901.926617360201
 20
27314.989256268724
 30
0.0
 11
21866.505557664379
 21
27376.340331319821
 31
0.0
  0
LINE
  5
185
100
AcDbEntity
  8
0
  6
Continuous
 62
               4
100
AcDbLine
 10
21780.96419233402
 20
27334.340331319821
 30
0.0
 11
21840.96419233402
 21
27334.340331319821
 31
0.0
  0
LINE
  5
186
100
AcDbEntity
  8
0
  6
Continuous
 62
               4
100
AcDbLine
 10
21780.034881581571
 20
27355.340331319821
 30
0.0
 11
21860.034881581571
 21
27355.340331319821
 31
0.0
  0
LINE
  5
187
100
AcDbEntity
  8
0
  6
Continuous
 62
               4
100
AcDbLine
 10
21751.505557664379
 20
27376.340331319821
 30
0.0
 11
21866.505557664379
 21
27376.340331319821
 31
0.0
  0
LINE
  5
188
100
AcDbEntity
  8
0
  6
Continuous
 62
               4
100
AcDbLine
 10
21923.482312663298
 20
27267.405729707527
 30
0.0
 11
21964.079356178729
 21
27197.089587701717
 31
0.0
  0
LINE
  5
189
100
AcDbEntity
  8
0
  6
Continuous
 62
               4
100
AcDbLine
 10
21964.079356178729
 20
27197.089587701717
 30
0.0
 11
22014.079356178729
 21
27197.089587701717
 31
0.0
  0
LINE
  5
18A
100
AcDbEntity
  8
0
  6
Continuous
 62
               4
100
AcDbLine
 10
21705.689704779099
 20
27193.839299809941
 30
0.0
 11
21673.068819027376
 21
27250.340331319821
 31
0.0
  0
LINE
  5
18B
100
AcDbEntity
  8
0
  6
Continuous
 62
               4
100
AcDbLine
 10
21673.068819027376
 20
27250.340331319821
 30
0.0
 11
21578.068819027376
 21
27250.340331319821
 31
0.0
  0
LINE
  5
18C
100
AcDbEntity
  8
0
  6
Continuous
 62
               4
100
AcDbLine
 10
21857.115944634312
 20
27228.855982547037
 30
0.0
 11
21808.338883128035
 21
27313.340331319821
 31
0.0
  0
LINE
  5
18D
100
AcDbEntity
  8
0
  6
Continuous
 62
               4
100
AcDbLine
 10
21808.338883128035
 20
27313.340331319821
 30
0.0
 11
21768.338883128035
 21
27313.340331319821
 31
0.0
  0
LINE
  5
18E
100
AcDbEntity
  8
0
  6
Continuous
 62
               4
100
AcDbLine
 10
21999.955863755931
 20
27277.915262332841
 30
0.0
 11
22028.000613252163
 21
27229.340331319821
 31
0.0
  0
LINE
  5
18F
100
AcDbEntity
  8
0
  6
Continuous
 62
               4
100
AcDbLine
 10
22028.000613252163
 20
27229.340331319821
 30
0.0
 11
22098.000613252163
 21
27229.340331319821
 31
0.0
  0
LINE
  5
190
100
AcDbEntity
  8
0
  6
Continuous
 62
               4
100
AcDbLine
 10
21705.689704779099
 20
27193.839299809941
 30
0.0
 11
21699.904616291919
 21
27200.733699798009
 31
0.0
  0
LINE
  5
191
100
AcDbEntity
  8
0
  6
Continuous
 62
               4
100
AcDbLine
 10
21705.689704779099
 20
27193.839299809941
 30
0.0
 11
21702.611523489166
 21
27202.296533397013
 31
0.0
  0
LINE
  5
192
100
AcDbEntity
  8
0
  6
Continuous
 62
               4
100
AcDbLine
 10
21857.115944634312
 20
27228.855982547037
 30
0.0
 11
21851.330856147135
 21
27235.750382535109
 31
0.0
  0
LINE
  5
193
100
AcDbEntity
  8
0
  6
Continuous
 62
               4
100
AcDbLine
 10
21857.115944634312
 20
27228.855982547037
 30
0.0
 11
21854.037763344382
 21
27237.313216134109
 31
0.0
  0
LINE
  5
194
100
AcDbEntity
  8
0
  6
Continuous
 62
               4
100
AcDbLine
 10
21886.631912394099
 20
27255.241519909931
 30
0.0
 11
21880.846823906923
 21
27262.135919898003
 31
0.0
  0
LINE
  5
195
100
AcDbEntity
  8
0
  6
Continuous
 62
               4
100
AcDbLine
 10
21886.631912394099
 20
27255.241519909931
 30
0.0
 11
21883.55373110417
 21
27263.698753497003
 31
0.0
  0
LINE
  5
196
100
AcDbEntity
  8
0
  6
Continuous
 62
               4
100
AcDbLine
 10
21901.926617360201
 20
27314.989256268724
 30
0.0
 11
21896.141528873024
 21
27321.883656256796
 31
0.0
  0
LINE
  5
197
100
AcDbEntity
  8
0
  6
Continuous
 62
               4
100
AcDbLine
 10
21901.926617360201
 20
27314.989256268724
 30
0.0
 11
21898.848436070271
 21
27323.446489855796
 31
0.0
  0
LINE
  5
198
100
AcDbEntity
  8
0
  6
Continuous
 62
               4
100
AcDbLine
 10
21923.482312663298
 20
27267.405729707527
 30
0.0
 11
21929.267401150475
 21
27260.511329719455
 31
0.0
  0
LINE
  5
199
100
AcDbEntity
  8
0
  6
Continuous
 62
               4
100
AcDbLine
 10
21923.482312663298
 20
27267.405729707527
 30
0.0
 11
21926.560493953228
 21
27258.948496120454
 31
0.0
  0
LINE
  5
19A
100
AcDbEntity
  8
0
  6
Continuous
 62
               4
100
AcDbLine
 10
21999.955863755931
 20
27277.915262332841
 30
0.0
 11
22005.740952243108
 21
27271.020862344769
 31
0.0
  0
LINE
  5
19B
100
AcDbEntity
  8
0
  6
Continuous
 62
               4
100
AcDbLine
 10
21999.955863755931
 20
27277.915262332841
 30
0.0
 11
22003.034045045861
 21
27269.458028745765
 31
0.0
  0
LINE
  5
19C
100
AcDbEntity
  8
0
  6
Continuous
 62
               4
100
AcDbLine
 10
22045.124436901428
 20
27333.481551573706
 30
0.0
 11
22039.339348414251
 21
27340.375951561778
 31
0.0
  0
LINE
  5
19D
100
AcDbEntity
  8
0
  6
Continuous
 62
               4
100
AcDbLine
 10
22045.124436901428
 20
27333.481551573706
 30
0.0
 11
22042.046255611498
 21
27341.938785160779
 31
0.0
  0
LINE
  5
19E
100
AcDbEntity
  8
0
  6
Continuous
 62
               4
100
AcDbLine
 10
22128.753316642269
 20
27378.09123296028
 30
0.0
 11
22123.391701031403
 21
27385.319862017117
 31
0.0
  0
LINE
  5
19F
100
AcDbEntity
  8
0
  6
Continuous
 62
               4
100
AcDbLine
 10
22128.753316642269
 20
27378.09123296028
 30
0.0
 11
22126.187382763317
 21
27386.717702883074
 31
0.0
  0
LINE
  5
1A0
100
AcDbEntity
  8
0
  6
Continuous
 62
               4
100
AcDbLine
 10
22150.89045223717
 20
27368.476015421576
 30
0.0
 11
22153.9686335271
 21
27360.018781834504
 31
0.0
  0
LINE
  5
1A1
100
AcDbEntity
  8
0
  6
Continuous
 62
               4
100
AcDbLine
 10
22150.89045223717
 20
27368.476015421576
 30
0.0
 11
22156.675540724347
 21
27361.581615433504
 31
0.0
  0
LINE
  5
1A2
100
AcDbEntity
  8
0
  6
Continuous
 62
               4
100
AcDbLine
 10
21651.710610677965
 20
27102.339191608506
 30
0.0
 11
21642.766338767964
 21
27097.867055653507
 31
0.0
  0
LINE
  5
1A3
100
AcDbEntity
  8
0
  6
Continuous
 62
               4
100
AcDbLine
 10
21656.182746632963
 20
27071.034239923509
 30
0.0
 11
21647.238474722963
 21
27066.56210396851
 31
0.0
  0
LINE
  5
1A4
100
AcDbEntity
  8
0
  6
Continuous
 62
               4
100
AcDbLine
 10
21647.238474722963
 20
27066.56210396851
 30
0.0
 11
21651.710610677965
 21
27102.339191608506
 31
0.0
  0
LINE
  5
1A5
100
AcDbEntity
  8
0
  6
Continuous
 62
               4
100
AcDbLine
 10
21608.017842397621
 20
27167.364048394207
 30
0.0
 11
21642.766338767964
 21
27097.867055653507
 31
0.0
  0
LINE
  5
1A6
100
AcDbEntity
  8
0
  6
Continuous
 62
               4
100
AcDbLine
 10
21780.195065928572
 20
27243.390354260919
 30
0.0
 11
21871.426650147103
 21
27289.006146370179
 31
0.0
  0
LINE
  5
1A7
100
AcDbEntity
  8
0
  6
Continuous
 62
               4
100
AcDbLine
 10
21778.853425142072
 20
27252.781839766416
 30
0.0
 11
21782.878347501573
 21
27244.731995047416
 31
0.0
  0
LINE
  5
1A8
100
AcDbEntity
  8
0
  6
Continuous
 62
               4
100
AcDbLine
 10
21782.878347501573
 20
27244.731995047416
 30
0.0
 11
21800.49856316427
 21
27209.491563722018
 31
0.0
  0
LINE
  5
1A9
100
AcDbEntity
  8
0
  6
Continuous
 62
               4
100
AcDbLine
 10
21781.715592153272
 20
27200.100078216517
 30
0.0
 11
21795.132000018268
 21
27173.267262486519
 31
0.0
  0
LINE
  5
1AA
100
AcDbEntity
  8
0
  6
Continuous
 62
               4
100
AcDbLine
 10
21797.368067995769
 20
27168.795126531521
 30
0.0
 11
21802.734631141768
 21
27158.062000239523
 31
0.0
  0
LINE
  5
1AB
100
AcDbEntity
  8
0
  6
Continuous
 62
               4
100
AcDbLine
 10
21781.715578219271
 20
27200.100071249519
 30
0.0
 11
21760.070440197072
 21
27243.39034729392
 31
0.0
  0
LINE
  5
1AC
100
AcDbEntity
  8
0
  6
Continuous
 62
               4
100
AcDbLine
 10
21778.853425142072
 20
27252.781839766416
 30
0.0
 11
21775.834730568193
 21
27258.819228914177
 31
0.0
  0
LINE
  5
1AD
100
AcDbEntity
  8
0
  6
Continuous
 62
               4
100
AcDbLine
 10
21785.173516221381
 20
27155.989646711827
 30
0.0
 11
21685.666802067939
 21
27328.340331319821
 31
0.0
  0
LINE
  5
1AE
100
AcDbEntity
  8
0
  6
Continuous
 62
               4
100
AcDbLine
 10
21435.666802067939
 20
27292.340331319821
 30
0.0
 11
21706.451411758764
 21
27292.340331319821
 31
0.0
  0
LINE
  5
1AF
100
AcDbEntity
  8
0
  6
Continuous
 62
               4
100
AcDbLine
 10
21435.666802067939
 20
27310.340331319821
 30
0.0
 11
21696.059106913352
 21
27310.340331319821
 31
0.0
  0
LINE
  5
1B0
100
AcDbEntity
  8
0
  6
Continuous
 62
               4
100
AcDbLine
 10
21435.666823579355
 20
27328.340369588568
 30
0.0
 11
21685.666802067939
 21
27328.340331319821
 31
0.0
  0
LINE
  5
1B1
100
AcDbEntity
  8
0
  6
Continuous
 62
               4
100
AcDbLine
 10
21882.137415759331
 20
27317.057619147912
 30
0.0
 11
21876.35232727215
 21
27323.952019135984
 31
0.0
  0
LINE
  5
1B2
100
AcDbEntity
  8
0
  6
Continuous
 62
               4
100
AcDbLine
 10
21882.137415759331
 20
27317.057619147912
 30
0.0
 11
21879.059234469398
 21
27325.514852734985
 31
0.0
  0
LINE
  5
1B3
100
AcDbEntity
  8
0
  6
Continuous
 62
               3
100
AcDbLine
 10
22182.53046689992
 20
27247.336859131086
 30
0.0
 11
21690.931243003306
 21
27001.537247182812
 31
0.0
  0
LINE
  5
1B4
100
AcDbEntity
  8
0
  6
Continuous
 62
               4
100
AcDbLine
 10
21656.182746632963
 20
27071.034239923509
 30
0.0
 11
21690.931243003306
 21
27001.537247182809
 31
0.0
  0
LINE
  5
1B5
100
AcDbEntity
  8
0
  6
Continuous
 62
               7
100
AcDbLine
 10
22150.21963184392
 20
27356.401248343074
 30
0.0
 11
22139.039291956422
 21
27378.761928118074
 31
0.0
  0
LINE
  5
1B6
100
AcDbEntity
  8
0
  6
Continuous
 62
               7
100
AcDbLine
 10
22156.160527253815
 20
27355.699797410784
 30
0.0
 11
22155.393215989741
 21
27353.397870472236
 31
0.0
  0
LINE
  5
1B7
100
AcDbEntity
  8
0
  6
Continuous
 62
               7
100
AcDbLine
 10
22154.895617319577
 20
27358.229617279263
 30
0.0
 11
22152.863391601946
 21
27352.13295827834
 31
0.0
  0
LINE
  5
1B8
100
AcDbEntity
  8
0
  6
Continuous
 62
               7
100
AcDbLine
 10
22153.630707385335
 20
27360.759437147743
 30
0.0
 11
22150.333567214151
 21
27350.868046084441
 31
0.0
  0
LINE
  5
1B9
100
AcDbEntity
  8
0
  6
Continuous
 62
               7
100
AcDbLine
 10
22152.365797451097
 20
27363.289257016222
 30
0.0
 11
22150.129725479052
 21
27356.581061072815
 31
0.0
  0
LINE
  5
1BA
100
AcDbEntity
  8
0
  6
Continuous
 62
               7
100
AcDbLine
 10
22151.100887516859
 20
27365.819076884702
 30
0.0
 11
22148.86481554481
 21
27359.110880941294
 31
0.0
  0
LINE
  5
1BB
100
AcDbEntity
  8
0
  6
Continuous
 62
               7
100
AcDbLine
 10
22149.835977582617
 20
27368.348896753181
 30
0.0
 11
22147.599905610572
 21
27361.640700809774
 31
0.0
  0
LINE
  5
1BC
100
AcDbEntity
  8
0
  6
Continuous
 62
               7
100
AcDbLine
 10
22148.57106764838
 20
27370.878716621657
 30
0.0
 11
22146.334995676334
 21
27364.170520678254
 31
0.0
  0
LINE
  5
1BD
100
AcDbEntity
  8
0
  6
Continuous
 62
               7
100
AcDbLine
 10
22147.306157714138
 20
27373.408536490137
 30
0.0
 11
22145.070085742092
 21
27366.700340546733
 31
0.0
  0
LINE
  5
1BE
100
AcDbEntity
  8
0
  6
Continuous
 62
               7
100
AcDbLine
 10
22146.0412477799
 20
27375.938356358616
 30
0.0
 11
22143.805175807855
 21
27369.230160415209
 31
0.0
  0
LINE
  5
1BF
100
AcDbEntity
  8
0
  6
Continuous
 62
               7
100
AcDbLine
 10
22144.776337845658
 20
27378.468176227096
 30
0.0
 11
22142.540265873613
 21
27371.759980283688
 31
0.0
  0
LINE
  5
1C0
100
AcDbEntity
  8
0
  6
Continuous
 62
               7
100
AcDbLine
 10
22143.51142791142
 20
27380.997996095575
 30
0.0
 11
22141.275355939375
 21
27374.289800152168
 31
0.0
  0
LINE
  5
1C1
100
AcDbEntity
  8
0
  6
Continuous
 62
               7
100
AcDbLine
 10
22140.981603523625
 20
27379.733083901676
 30
0.0
 11
22140.010446005133
 21
27376.819620020648
 31
0.0
  0
LINE
  5
1C2
100
AcDbEntity
  8
0
  6
Continuous
 62
               4
100
AcDbLine
 10
21991.45877917928
 20
27104.843587743286
 30
0.0
 11
21812.573340979296
 21
27015.400868643304
 31
0.0
  0
LINE
  5
1C3
100
AcDbEntity
  8
0
  6
Continuous
 62
               4
100
AcDbLine
 10
21991.45877917928
 20
27104.843587743286
 30
0.0
 11
21979.779383010966
 21
27101.36956434992
 31
0.0
  0
LINE
  5
1C4
100
AcDbEntity
  8
0
  6
Continuous
 62
               4
100
AcDbLine
 10
21980.725652887282
 20
27090.532752687286
 30
0.0
 11
21979.779383010966
 21
27101.36956434992
 31
0.0
  0
LINE
  5
1C5
100
AcDbEntity
  8
0
  6
Continuous
 62
               4
100
AcDbLine
 10
21645.583779887955
 20
27186.14701713937
 30
0.0
 11
21666.15560528095
 21
27145.003366353372
 31
0.0
  0
LINE
  5
1C6
100
AcDbEntity
  8
0
  6
DASHED
 62
               6
100
AcDbLine
 10
22166.03046689992
 20
27357.893546910451
 30
0.0
 11
22166.03046689992
 21
27654.803376966698
 31
0.0
  0
LINE
  5
1C7
100
AcDbEntity
  8
0
  6
Continuous
 62
               3
100
AcDbLine
 10
22167.53046689992
 20
27378.693044410575
 30
0.0
 11
22167.53046689992
 21
27448.693044410575
 31
0.0
  0
LINE
  5
1C8
100
AcDbEntity
  8
0
  6
Continuous
 62
               3
100
AcDbLine
 10
22182.53046689992
 20
27704.803376966698
 30
0.0
 11
22182.53046689992
 21
27001.537247182812
 31
0.0
  0
LINE
  5
1C9
100
AcDbEntity
  8
0
  6
Continuous
 62
               3
100
AcDbLine
 10
22162.53046689992
 20
27415.979651544825
 30
0.0
 11
22162.53046689992
 21
27704.803376966698
 31
0.0
  0
LINE
  5
1CA
100
AcDbEntity
  8
0
  6
Continuous
 62
               3
100
AcDbLine
 10
22147.53046689992
 20
27415.979651544825
 30
0.0
 11
22147.53046689992
 21
27704.803376966698
 31
0.0
  0
LINE
  5
1CB
100
AcDbEntity
  8
0
  6
Continuous
 62
               3
100
AcDbLine
 10
22279.53046689992
 20
27704.803376966698
 30
0.0
 11
22279.53046689992
 21
27001.537247182812
 31
0.0
  0
LINE
  5
1CC
100
AcDbEntity
  8
0
  6
Continuous
 62
               3
100
AcDbLine
 10
22137.53046689992
 20
27134.83685913109
 30
0.0
 11
22137.53046689992
 21
27224.83685913109
 31
0.0
  0
LINE
  5
1CD
100
AcDbEntity
  8
0
  6
Continuous
 62
               3
100
AcDbLine
 10
22137.53046689992
 20
27224.83685913109
 30
0.0
 11
22182.53046689992
 21
27224.83685913109
 31
0.0
  0
LINE
  5
1CE
100
AcDbEntity
  8
0
  6
Continuous
 62
               3
100
AcDbLine
 10
22137.53046689992
 20
27134.83685913109
 30
0.0
 11
22182.53046689992
 21
27134.83685913109
 31
0.0
  0
LINE
  5
1CF
100
AcDbEntity
  8
0
  6
Continuous
 62
               6
100
AcDbLine
 10
22137.53046689992
 20
27134.83685913109
 30
0.0
 11
22182.53046689992
 21
27224.83685913109
 31
0.0
  0
LINE
  5
1D0
100
AcDbEntity
  8
0
  6
Continuous
 62
               4
100
AcDbLine
 10
22170.53046689992
 20
27395.979651544825
 30
0.0
 11
22203.53046689992
 21
27395.979651544825
 31
0.0
  0
LINE
  5
1D1
100
AcDbEntity
  8
0
  6
Continuous
 62
               4
100
AcDbLine
 10
22170.53046689992
 20
27495.979651544825
 30
0.0
 11
22203.53046689992
 21
27495.979651544825
 31
0.0
  0
LINE
  5
1D2
100
AcDbEntity
  8
0
  6
Continuous
 62
               4
100
AcDbLine
 10
22200.53046689992
 20
27395.979651544825
 30
0.0
 11
22200.53046689992
 21
27495.979651544825
 31
0.0
  0
LINE
  5
1D3
100
AcDbEntity
  8
0
  6
Continuous
 62
               4
100
AcDbLine
 10
22172.03046689992
 20
27354.803376966698
 30
0.0
 11
22224.53046689992
 21
27354.803376966698
 31
0.0
  0
LINE
  5
1D4
100
AcDbEntity
  8
0
  6
Continuous
 62
               4
100
AcDbLine
 10
22221.53046689992
 20
27354.803376966698
 30
0.0
 11
22221.53046689992
 21
27654.803376966698
 31
0.0
  0
LINE
  5
1D5
100
AcDbEntity
  8
0
  6
Continuous
 62
               4
100
AcDbLine
 10
22172.03046689992
 20
27654.803376966698
 30
0.0
 11
22224.53046689992
 21
27654.803376966698
 31
0.0
  0
LINE
  5
1D6
100
AcDbEntity
  8
0
  6
Continuous
 62
               2
100
AcDbLine
 10
22162.702487343817
 20
27486.015801912952
 30
0.0
 11
22163.53046689992
 21
27495.479651544825
 31
0.0
  0
LINE
  5
1D7
100
AcDbEntity
  8
0
  6
Continuous
 62
               4
100
AcDbLine
 10
22155.03046689992
 20
27485.061690869978
 30
0.0
 11
22119.071446131187
 21
27556.97973240745
 31
0.0
  0
LINE
  5
1D8
100
AcDbEntity
  8
0
  6
Continuous
 62
               4
100
AcDbLine
 10
22119.071446131187
 20
27556.97973240745
 30
0.0
 11
22022.935430247519
 21
27556.97973240745
 31
0.0
  0
LINE
  5
1D9
100
AcDbEntity
  8
0
  6
Continuous
 62
               4
100
AcDbLine
 10
22155.03046689992
 20
27485.061690869978
 30
0.0
 11
22149.668851289054
 21
27492.290319926815
 31
0.0
  0
LINE
  5
1DA
100
AcDbEntity
  8
0
  6
Continuous
 62
               4
100
AcDbLine
 10
22155.03046689992
 20
27485.061690869978
 30
0.0
 11
22152.464533020968
 21
27493.688160792768
 31
0.0
  0
LINE
  5
1DB
100
AcDbEntity
  8
0
  6
Continuous
 62
               4
100
AcDbLine
 10
21972.944157723021
 20
27443.742073273668
 30
0.0
 11
22107.108236373013
 21
27510.824112598653
 31
0.0
  0
LINE
  5
1DC
100
AcDbEntity
  8
0
  6
Continuous
 62
               4
100
AcDbLine
 10
22200.53046689992
 20
27395.979651544825
 30
0.0
 11
22200.53046689992
 21
27395.729713769029
 31
0.0
  0
LINE
  5
1DD
100
AcDbEntity
  8
0
  6
DASHDOT
 62
               3
100
AcDbLine
 10
22185.388331276186
 20
27360.193044410575
 30
0.0
 11
22165.21963184392
 21
27360.193044410575
 31
0.0
  0
LINE
  5
1DE
100
AcDbEntity
  8
0
  6
DASHDOT
 62
               3
100
AcDbLine
 10
22185.388331276186
 20
27365.193044410575
 30
0.0
 11
22165.691767798919
 21
27365.193044410575
 31
0.0
  0
LINE
  5
1DF
100
AcDbEntity
  8
0
  6
DASHDOT
 62
               3
100
AcDbLine
 10
22195.486785153204
 20
27359.236726157291
 30
0.0
 11
22192.459399088053
 21
27362.264112222441
 31
0.0
  0
LINE
  5
1E0
100
AcDbEntity
  8
0
  6
DASHDOT
 62
               3
100
AcDbLine
 10
22191.951251247268
 20
27355.701192251359
 30
0.0
 11
22188.923865182122
 21
27358.728578316506
 31
0.0
  0
LINE
  5
1E1
100
AcDbEntity
  8
0
  6
Continuous
 62
               3
100
AcDbLine
 10
22162.53046689992
 20
27415.979651544825
 30
0.0
 11
22147.53046689992
 21
27415.979651544825
 31
0.0
  0
LINE
  5
1E2
100
AcDbEntity
  8
0
  6
Continuous
 62
               3
100
AcDbLine
 10
22182.53046689992
 20
27378.693044410575
 30
0.0
 11
22167.53046689992
 21
27378.693044410575
 31
0.0
  0
LINE
  5
1E3
100
AcDbEntity
  8
0
  6
Continuous
 62
               3
100
AcDbLine
 10
22182.53046689992
 20
27448.693044410575
 30
0.0
 11
22167.53046689992
 21
27448.693044410575
 31
0.0
  0
LINE
  5
1E4
100
AcDbEntity
  8
0
  6
Continuous
 62
               3
100
AcDbLine
 10
22182.53046689992
 20
27478.693044410575
 30
0.0
 11
22167.53046689992
 21
27478.693044410575
 31
0.0
  0
LINE
  5
1E5
100
AcDbEntity
  8
0
  6
Continuous
 62
               3
100
AcDbLine
 10
22182.53046689992
 20
27548.693044410575
 30
0.0
 11
22167.53046689992
 21
27548.693044410575
 31
0.0
  0
LINE
  5
1E6
100
AcDbEntity
  8
0
  6
Continuous
 62
               3
100
AcDbLine
 10
22167.53046689992
 20
27478.693044410575
 30
0.0
 11
22167.53046689992
 21
27548.693044410575
 31
0.0
  0
LINE
  5
1E7
100
AcDbEntity
  8
0
  6
Continuous
 62
               3
100
AcDbLine
 10
22182.53046689992
 20
27578.693044410575
 30
0.0
 11
22167.53046689992
 21
27578.693044410575
 31
0.0
  0
LINE
  5
1E8
100
AcDbEntity
  8
0
  6
Continuous
 62
               3
100
AcDbLine
 10
22167.53046689992
 20
27578.693044410575
 30
0.0
 11
22167.53046689992
 21
27704.803376966698
 31
0.0
  0
LINE
  5
1E9
100
AcDbEntity
  8
0
  6
Continuous
 62
               6
100
AcDbLine
 10
22167.53046689992
 20
27378.693044410575
 30
0.0
 11
22182.53046689992
 21
27448.693044410575
 31
0.0
  0
LINE
  5
1EA
100
AcDbEntity
  8
0
  6
Continuous
 62
               6
100
AcDbLine
 10
22167.53046689992
 20
27478.693044410575
 30
0.0
 11
22182.53046689992
 21
27548.693044410575
 31
0.0
  0
LINE
  5
1EB
100
AcDbEntity
  8
0
  6
Continuous
 62
               6
100
AcDbLine
 10
22182.53046689992
 20
27584.048383469901
 30
0.0
 11
22177.17512784059
 21
27578.693044410575
 31
0.0
  0
LINE
  5
1EC
100
AcDbEntity
  8
0
  6
Continuous
 62
               6
100
AcDbLine
 10
22182.53046689992
 20
27591.119451281767
 30
0.0
 11
22170.104060028727
 21
27578.693044410575
 31
0.0
  0
LINE
  5
1ED
100
AcDbEntity
  8
0
  6
Continuous
 62
               6
100
AcDbLine
 10
22182.53046689992
 20
27598.190519093634
 30
0.0
 11
22167.53046689992
 21
27583.190519093634
 31
0.0
  0
LINE
  5
1EE
100
AcDbEntity
  8
0
  6
Continuous
 62
               6
100
AcDbLine
 10
22182.53046689992
 20
27605.261586905497
 30
0.0
 11
22167.53046689992
 21
27590.261586905497
 31
0.0
  0
LINE
  5
1EF
100
AcDbEntity
  8
0
  6
Continuous
 62
               6
100
AcDbLine
 10
22182.53046689992
 20
27612.332654717364
 30
0.0
 11
22167.53046689992
 21
27597.332654717364
 31
0.0
  0
LINE
  5
1F0
100
AcDbEntity
  8
0
  6
Continuous
 62
               6
100
AcDbLine
 10
22182.53046689992
 20
27619.40372252923
 30
0.0
 11
22167.53046689992
 21
27604.40372252923
 31
0.0
  0
LINE
  5
1F1
100
AcDbEntity
  8
0
  6
Continuous
 62
               6
100
AcDbLine
 10
22182.53046689992
 20
27626.474790341093
 30
0.0
 11
22167.53046689992
 21
27611.474790341093
 31
0.0
  0
LINE
  5
1F2
100
AcDbEntity
  8
0
  6
Continuous
 62
               6
100
AcDbLine
 10
22182.53046689992
 20
27633.54585815296
 30
0.0
 11
22167.53046689992
 21
27618.54585815296
 31
0.0
  0
LINE
  5
1F3
100
AcDbEntity
  8
0
  6
Continuous
 62
               6
100
AcDbLine
 10
22182.53046689992
 20
27640.616925964827
 30
0.0
 11
22167.53046689992
 21
27625.616925964827
 31
0.0
  0
LINE
  5
1F4
100
AcDbEntity
  8
0
  6
Continuous
 62
               6
100
AcDbLine
 10
22182.53046689992
 20
27647.68799377669
 30
0.0
 11
22167.53046689992
 21
27632.68799377669
 31
0.0
  0
LINE
  5
1F5
100
AcDbEntity
  8
0
  6
Continuous
 62
               6
100
AcDbLine
 10
22182.53046689992
 20
27654.759061588557
 30
0.0
 11
22167.53046689992
 21
27639.759061588557
 31
0.0
  0
LINE
  5
1F6
100
AcDbEntity
  8
0
  6
Continuous
 62
               6
100
AcDbLine
 10
22182.53046689992
 20
27661.830129400423
 30
0.0
 11
22167.53046689992
 21
27646.830129400423
 31
0.0
  0
LINE
  5
1F7
100
AcDbEntity
  8
0
  6
Continuous
 62
               6
100
AcDbLine
 10
22182.53046689992
 20
27668.901197212286
 30
0.0
 11
22167.53046689992
 21
27653.901197212286
 31
0.0
  0
LINE
  5
1F8
100
AcDbEntity
  8
0
  6
Continuous
 62
               6
100
AcDbLine
 10
22182.53046689992
 20
27675.972265024153
 30
0.0
 11
22167.53046689992
 21
27660.972265024153
 31
0.0
  0
LINE
  5
1F9
100
AcDbEntity
  8
0
  6
Continuous
 62
               6
100
AcDbLine
 10
22182.53046689992
 20
27683.04333283602
 30
0.0
 11
22167.53046689992
 21
27668.04333283602
 31
0.0
  0
LINE
  5
1FA
100
AcDbEntity
  8
0
  6
Continuous
 62
               6
100
AcDbLine
 10
22182.53046689992
 20
27690.114400647883
 30
0.0
 11
22167.53046689992
 21
27675.114400647883
 31
0.0
  0
LINE
  5
1FB
100
AcDbEntity
  8
0
  6
Continuous
 62
               6
100
AcDbLine
 10
22182.53046689992
 20
27697.185468459749
 30
0.0
 11
22167.53046689992
 21
27682.185468459749
 31
0.0
  0
LINE
  5
1FC
100
AcDbEntity
  8
0
  6
Continuous
 62
               6
100
AcDbLine
 10
22182.53046689992
 20
27704.256536271616
 30
0.0
 11
22167.53046689992
 21
27689.256536271616
 31
0.0
  0
LINE
  5
1FD
100
AcDbEntity
  8
0
  6
Continuous
 62
               6
100
AcDbLine
 10
22176.006239783139
 20
27704.803376966698
 30
0.0
 11
22167.53046689992
 21
27696.327604083479
 31
0.0
  0
LINE
  5
1FE
100
AcDbEntity
  8
0
  6
Continuous
 62
               6
100
AcDbLine
 10
22168.935171971272
 20
27704.803376966698
 30
0.0
 11
22167.53046689992
 21
27703.398671895346
 31
0.0
  0
LINE
  5
1FF
100
AcDbEntity
  8
0
  6
DIVIDE
 62
               3
100
AcDbLine
 10
22193.339756106398
 20
27353.03389923376
 30
0.0
 11
22200.011927912528
 21
27315.194132572287
 31
0.0
  0
LINE
  5
200
100
AcDbEntity
  8
0
  6
DIVIDE
 62
               3
100
AcDbLine
 10
22198.263794871458
 20
27353.902140122096
 30
0.0
 11
22204.935966677589
 21
27316.062373460623
 31
0.0
  0
CIRCLE
  5
201
100
AcDbEntity
  8
0
  6
Continuous
 62
               7
100
AcDbCircle
 10
21897.901695000703
 20
27302.020061999225
 30
0.0
 40
0.5
  0
CIRCLE
  5
202
100
AcDbEntity
  8
0
  6
Continuous
 62
               7
100
AcDbCircle
 10
21895.531462944553
 20
27306.760526111524
 30
0.0
 40
0.5
  0
CIRCLE
  5
203
100
AcDbEntity
  8
0
  6
Continuous
 62
               7
100
AcDbCircle
 10
21900.271927056852
 20
27297.279597886925
 30
0.0
 40
0.5
  0
CIRCLE
  5
204
100
AcDbEntity
  8
0
  6
Continuous
 62
               7
100
AcDbCircle
 10
21896.716578972628
 20
27304.390294055374
 30
0.0
 40
0.5
  0
CIRCLE
  5
205
100
AcDbEntity
  8
0
  6
Continuous
 62
               7
100
AcDbCircle
 10
21899.086811028777
 20
27299.649829943075
 30
0.0
 40
0.5
  0
CIRCLE
  5
206
100
AcDbEntity
  8
0
  6
Continuous
 62
               7
100
AcDbCircle
 10
21889.851850281702
 20
27297.995139639726
 30
0.0
 40
0.5
  0
CIRCLE
  5
207
100
AcDbEntity
  8
0
  6
Continuous
 62
               7
100
AcDbCircle
 10
21887.481618225553
 20
27302.735603752026
 30
0.0
 40
0.5
  0
CIRCLE
  5
208
100
AcDbEntity
  8
0
  6
Continuous
 62
               7
100
AcDbCircle
 10
21892.222082337852
 20
27293.254675527427
 30
0.0
 40
0.5
  0
CIRCLE
  5
209
100
AcDbEntity
  8
0
  6
Continuous
 62
               7
100
AcDbCircle
 10
21888.666734253628
 20
27300.365371695876
 30
0.0
 40
0.5
  0
CIRCLE
  5
20A
100
AcDbEntity
  8
0
  6
Continuous
 62
               7
100
AcDbCircle
 10
21891.036966309777
 20
27295.624907583577
 30
0.0
 40
0.5
  0
CIRCLE
  5
20B
100
AcDbEntity
  8
0
  6
Continuous
 62
               4
100
AcDbCircle
 10
21972.944164110166
 20
27443.742060499379
 30
0.0
 40
1.5
  0
CIRCLE
  5
20C
100
AcDbEntity
  8
0
  6
Continuous
 62
               4
100
AcDbCircle
 10
21883.501418748034
 20
27399.020687818316
 30
0.0
 40
1.5
  0
CIRCLE
  5
20D
100
AcDbEntity
  8
0
  6
Continuous
 62
               4
100
AcDbCircle
 10
21874.109933242536
 20
27417.803658829318
 30
0.0
 40
1.5
  0
CIRCLE
  5
20E
100
AcDbEntity
  8
0
  6
Continuous
 62
               4
100
AcDbCircle
 10
22097.71675725466
 20
27529.607070835362
 30
0.0
 40
1.5
  0
CIRCLE
  5
20F
100
AcDbEntity
  8
0
  6
Continuous
 62
               4
100
AcDbCircle
 10
21874.109949759033
 20
27417.803625796325
 30
0.0
 40
1.5
  0
CIRCLE
  5
210
100
AcDbEntity
  8
0
  6
Continuous
 62
               4
100
AcDbCircle
 10
21842.804998074036
 20
27402.151149953828
 30
0.0
 40
1.5
  0
CIRCLE
  5
211
100
AcDbEntity
  8
0
  6
Continuous
 62
               4
100
AcDbCircle
 10
21778.853425142072
 20
27252.781839766416
 30
0.0
 40
1.5
  0
CIRCLE
  5
212
100
AcDbEntity
  8
0
  6
Continuous
 62
               4
100
AcDbCircle
 10
21782.878347501573
 20
27244.731995047416
 30
0.0
 40
1.5
  0
CIRCLE
  5
213
100
AcDbEntity
  8
0
  6
Continuous
 62
               4
100
AcDbCircle
 10
21782.878347501573
 20
27244.731995047416
 30
0.0
 40
1.5
  0
CIRCLE
  5
214
100
AcDbEntity
  8
0
  6
Continuous
 62
               4
100
AcDbCircle
 10
21800.49856316427
 20
27209.491563722018
 30
0.0
 40
1.5
  0
CIRCLE
  5
215
100
AcDbEntity
  8
0
  6
Continuous
 62
               4
100
AcDbCircle
 10
21781.715592153272
 20
27200.100078216517
 30
0.0
 40
1.5
  0
CIRCLE
  5
216
100
AcDbEntity
  8
0
  6
Continuous
 62
               4
100
AcDbCircle
 10
21795.132000018268
 20
27173.267262486519
 30
0.0
 40
1.5
  0
CIRCLE
  5
217
100
AcDbEntity
  8
0
  6
Continuous
 62
               4
100
AcDbCircle
 10
21797.368067995769
 20
27168.795126531521
 30
0.0
 40
1.5
  0
CIRCLE
  5
218
100
AcDbEntity
  8
0
  6
Continuous
 62
               4
100
AcDbCircle
 10
21802.734631141768
 20
27158.062000239523
 30
0.0
 40
1.5
  0
CIRCLE
  5
219
100
AcDbEntity
  8
0
  6
Continuous
 62
               4
100
AcDbCircle
 10
21781.715578219271
 20
27200.100071249519
 30
0.0
 40
1.5
  0
CIRCLE
  5
21A
100
AcDbEntity
  8
0
  6
Continuous
 62
               4
100
AcDbCircle
 10
21760.070440197072
 20
27243.39034729392
 30
0.0
 40
1.5
  0
CIRCLE
  5
21B
100
AcDbEntity
  8
0
  6
Continuous
 62
               4
100
AcDbCircle
 10
21785.173516221381
 20
27155.989646711827
 30
0.0
 40
1.5
  0
CIRCLE
  5
21C
100
AcDbEntity
  8
0
  6
Continuous
 62
               4
100
AcDbCircle
 10
21781.416767097573
 20
27162.496527065548
 30
0.0
 40
1.5
  0
CIRCLE
  5
21D
100
AcDbEntity
  8
0
  6
Continuous
 62
               4
100
AcDbCircle
 10
21779.663617506463
 20
27165.53307123062
 30
0.0
 40
1.5
  0
CIRCLE
  5
21E
100
AcDbEntity
  8
0
  6
Continuous
 62
               4
100
AcDbCircle
 10
21645.583779887955
 20
27186.14701713937
 30
0.0
 40
1.5
  0
CIRCLE
  5
21F
100
AcDbEntity
  8
0
  6
Continuous
 62
               4
100
AcDbCircle
 10
21666.15560528095
 20
27145.003366353372
 30
0.0
 40
1.5
  0
CIRCLE
  5
220
100
AcDbEntity
  8
0
  6
Continuous
 62
               4
100
AcDbCircle
 10
22200.53046689992
 20
27395.979651544825
 30
0.0
 40
1.5
  0
CIRCLE
  5
221
100
AcDbEntity
  8
0
  6
Continuous
 62
               4
100
AcDbCircle
 10
22200.53046689992
 20
27495.979651544825
 30
0.0
 40
1.5
  0
CIRCLE
  5
222
100
AcDbEntity
  8
0
  6
Continuous
 62
               4
100
AcDbCircle
 10
22221.53046689992
 20
27354.803376966698
 30
0.0
 40
1.5
  0
CIRCLE
  5
223
100
AcDbEntity
  8
0
  6
Continuous
 62
               4
100
AcDbCircle
 10
22221.53046689992
 20
27654.803376966698
 30
0.0
 40
1.5
  0
CIRCLE
  5
224
100
AcDbEntity
  8
0
  6
Continuous
 62
               4
100
AcDbCircle
 10
21972.944157723021
 20
27443.742073273668
 30
0.0
 40
1.5
  0
CIRCLE
  5
225
100
AcDbEntity
  8
0
  6
Continuous
 62
               4
100
AcDbCircle
 10
22107.108236373013
 20
27510.824112598653
 30
0.0
 40
1.5
  0
ARC
  5
226
100
AcDbEntity
  8
0
  6
Continuous
 62
               6
100
AcDbCircle
 10
21906.085703798351
 20
27302.422554235174
 30
0.0
 40
1.0
100
AcDbArc
 50
206.56505117707411
 51
26.565051177074125
  0
ARC
  5
227
100
AcDbEntity
  8
0
  6
Continuous
 62
               6
100
AcDbCircle
 10
21884.619451214352
 20
27291.689427943176
 30
0.0
 40
1.0
100
AcDbArc
 50
206.56505117707411
 51
26.565051177074125
  0
ARC
  5
228
100
AcDbEntity
  8
0
  6
Continuous
 62
               6
100
AcDbCircle
 10
21923.616476741947
 20
27275.410853066976
 30
0.0
 40
1.5
100
AcDbArc
 50
296.56505117707405
 51
26.565051177074125
  0
ARC
  5
229
100
AcDbEntity
  8
0
  6
Continuous
 62
               6
100
AcDbCircle
 10
21895.710348382749
 20
27261.457788887379
 30
0.0
 40
1.5
100
AcDbArc
 50
206.56505117707411
 51
296.56505117707405
  0
ARC
  5
22A
100
AcDbEntity
  8
0
  6
Continuous
 62
               7
100
AcDbCircle
 10
21890.433228041151
 20
27306.894690019577
 30
0.0
 40
12.800000190734863
100
AcDbArc
 50
98.355094593661988
 51
134.77500776048623
  0
ARC
  5
22B
100
AcDbEntity
  8
0
  6
Continuous
 62
               7
100
AcDbCircle
 10
21891.06343045448
 20
27318.491676063542
 30
0.0
 40
2.709175626521696
100
AcDbArc
 50
76.327888804620173
 51
156.80221354952798
  0
ARC
  5
22C
100
AcDbEntity
  8
0
  6
Continuous
 62
               7
100
AcDbCircle
 10
21880.777517757982
 20
27313.348719715294
 30
0.0
 40
2.709175626521696
100
AcDbArc
 50
76.327888804620287
 51
156.80221354952803
  0
ARC
  5
22D
100
AcDbEntity
  8
0
  6
Continuous
 62
               7
100
AcDbCircle
 10
21930.548287472197
 20
27270.938717111974
 30
0.0
 40
3.2000000000000002
100
AcDbArc
 50
26.565051177074086
 51
116.56505117707412
  0
ARC
  5
22E
100
AcDbEntity
  8
0
  6
Continuous
 62
               7
100
AcDbCircle
 10
21895.1289707086
 20
27253.22905873018
 30
0.0
 40
3.2000000000000002
100
AcDbArc
 50
116.56505117707412
 51
206.56505117707411
  0
ARC
  5
22F
100
AcDbEntity
  8
0
  6
Continuous
 62
               7
100
AcDbCircle
 10
21911.049774793697
 20
27265.661596514477
 30
0.0
 40
12.800000190734863
100
AcDbArc
 50
98.355094593661988
 51
134.77500776048623
  0
ARC
  5
230
100
AcDbEntity
  8
0
  6
Continuous
 62
               7
100
AcDbCircle
 10
21911.679977207026
 20
27277.258582558447
 30
0.0
 40
2.709175626521696
100
AcDbArc
 50
76.327888804620173
 51
156.80221354952798
  0
ARC
  5
231
100
AcDbEntity
  8
0
  6
Continuous
 62
               7
100
AcDbCircle
 10
21901.394064510529
 20
27272.115626210198
 30
0.0
 40
2.709175626521696
100
AcDbArc
 50
76.327888804620287
 51
156.80221354952803
  0
ARC
  5
232
100
AcDbEntity
  8
0
  6
Continuous
 62
               3
100
AcDbCircle
 10
22031.708029036432
 20
27327.332364635582
 30
0.0
 40
0.500000000000041
100
AcDbArc
 50
116.56505117707795
 51
296.5650511770794
  0
ARC
  5
233
100
AcDbEntity
  8
0
  6
Continuous
 62
               2
100
AcDbCircle
 10
22031.931515316461
 20
27328.003425983119
 30
0.0
 40
1.4999999999970011
100
AcDbArc
 50
116.56505117707893
 51
296.56505117707889
  0
ARC
  5
234
100
AcDbEntity
  8
0
  6
Continuous
 62
               3
100
AcDbCircle
 10
22067.932330271928
 20
27310.785461602085
 30
0.0
 40
0.499999999999993
100
AcDbArc
 50
206.56505117707874
 51
26.565051177078754
  0
ARC
  5
235
100
AcDbEntity
  8
0
  6
Continuous
 62
               2
100
AcDbCircle
 10
22156.480622180919
 20
27355.059607556574
 30
0.0
 40
1.0
100
AcDbArc
 50
296.56505117707525
 51
26.565051177077738
  0
ARC
  5
236
100
AcDbEntity
  8
0
  6
Continuous
 62
               7
100
AcDbCircle
 10
22080.230704148176
 20
27347.680583230831
 30
0.0
 40
0.999999999999979
100
AcDbArc
 50
116.5650511770787
 51
296.56505117707866
  0
ARC
  5
237
100
AcDbEntity
  8
0
  6
Continuous
 62
               7
100
AcDbCircle
 10
22083.808412912174
 20
27349.469437612832
 30
0.0
 40
1.0000000000000051
100
AcDbArc
 50
296.56505117707792
 51
116.56505117707866
  0
ARC
  5
238
100
AcDbEntity
  8
0
  6
Continuous
 62
               7
100
AcDbCircle
 10
22084.166183788577
 20
27354.34406580378
 30
0.0
 40
0.5
100
AcDbArc
 50
26.565051177074317
 51
116.5650511770756
  0
ARC
  5
239
100
AcDbEntity
  8
0
  6
Continuous
 62
               7
100
AcDbCircle
 10
22076.116339069576
 20
27350.319143444278
 30
0.0
 40
0.5
100
AcDbArc
 50
116.56505117707555
 51
206.56505117707431
  0
ARC
  5
23A
100
AcDbEntity
  8
0
  6
Continuous
 62
               7
100
AcDbCircle
 10
22145.747495888922
 20
27354.165180365577
 30
0.0
 40
5.0
100
AcDbArc
 50
296.56505117707525
 51
26.565051177077738
  0
ARC
  5
23B
100
AcDbEntity
  8
0
  6
Continuous
 62
               2
100
AcDbCircle
 10
22164.03046689992
 20
27495.479651544825
 30
0.0
 40
0.5
100
AcDbArc
 50
0.0
 51
180.0
  0
ARC
  5
23C
100
AcDbEntity
  8
0
  6
DASHDOT
 62
               3
100
AcDbCircle
 10
22165.21963184392
 20
27357.193044410575
 30
0.0
 40
3.0
100
AcDbArc
 50
89.999999999999957
 51
116.56505117707532
  0
ARC
  5
23D
100
AcDbEntity
  8
0
  6
DASHDOT
 62
               3
100
AcDbCircle
 10
22165.691767798919
 20
27355.193044410575
 30
0.0
 40
10.0
100
AcDbArc
 50
89.999999999999957
 51
116.56505117707532
  0
ARC
  5
23E
100
AcDbEntity
  8
0
  6
DASHDOT
 62
               3
100
AcDbCircle
 10
22185.388331276186
 20
27355.193044410575
 30
0.0
 40
5.0
100
AcDbArc
 50
45.000000000000099
 51
89.999999999999957
  0
ARC
  5
23F
100
AcDbEntity
  8
0
  6
DASHDOT
 62
               3
100
AcDbCircle
 10
22185.388331276186
 20
27355.193044410575
 30
0.0
 40
10.0
100
AcDbArc
 50
45.000000000000036
 51
89.999999999999957
  0
ARC
  5
240
100
AcDbEntity
  8
0
  6
DIVIDE
 62
               3
100
AcDbCircle
 10
22188.415717341337
 20
27352.165658345424
 30
0.0
 40
5.0
100
AcDbArc
 50
9.9999999999999449
 51
45.000000000000213
  0
ARC
  5
241
100
AcDbEntity
  8
0
  6
DASHDOT
 62
               3
100
AcDbCircle
 10
22188.415717341337
 20
27352.165658345424
 30
0.0
 40
10.0
100
AcDbArc
 50
9.9999999999999449
 51
45.000000000000156
  0
ARC
  5
242
100
AcDbEntity
  8
0
  6
DASHED
 62
               6
100
AcDbCircle
 10
22161.03046689992
 20
27357.893546910451
 30
0.0
 40
5.0
100
AcDbArc
 50
296.5650511770753
 51
0.0
  0
ELLIPSE
  5
243
100
AcDbEntity
  8
0
  6
Continuous
 62
               3
100
AcDbEllipse
 10
22202.47394729506
 20
27315.628253016457
 30
0.0
 11
-2.4620193825305217
 21
-0.4341204441673174
 31
0.0
210
0.0
220
0.0
230
1.0
 40
0.6
 41
0.0
 42
6.2831853071795862
  0
TEXT
  5
244
100
AcDbEntity
  8
0
 62
               7
100
AcDbText
 10
21853.761703264419
 20
27409.307167382311
 30
0.0
 40
9.0000000000000089
  1
35
 50
26.565052597449757
 41
0.7695
  7
FontTableH_0
 72
               5
 11
21861.811547883641
 21
27413.332089941367
 31
0.0
100
AcDbText
  0
TEXT
  5
245
100
AcDbEntity
  8
0
 62
               7
100
AcDbText
 10
21984.809615862076
 20
27418.480324120592
 30
0.0
 40
9.0000000000000089
  1
雨押エ：高級化粧鋼板 t0.4
 41
0.7695
  7
FontTableH_0
 72
               5
 11
22097.309615862076
 21
27418.480324120592
 31
0.0
100
AcDbText
  0
TEXT
  5
246
100
AcDbEntity
  8
0
 62
               7
100
AcDbText
 10
21904.879928362076
 20
27377.840492577623
 30
0.0
 40
9.0000000000000089
  1
面戸：高級化粧鋼板 t0.4
 41
0.7695
  7
FontTableH_0
 72
               5
 11
22008.379928362076
 21
27377.840492577623
 31
0.0
100
AcDbText
  0
TEXT
  5
247
100
AcDbEntity
  8
0
 62
               7
100
AcDbText
 10
22202.806503069107
 20
27300.841469140123
 30
0.0
 40
9.0000000000000089
  1
ＳＦル－フパネル本体立上げ処理
 41
0.7695
  7
FontTableH_0
 72
               5
 11
22337.806503069107
 21
27300.841469140123
 31
0.0
100
AcDbText
  0
TEXT
  5
248
100
AcDbEntity
  8
0
 62
               7
100
AcDbText
 10
22238.806503069107
 20
27285.841469140123
 30
0.0
 40
9.0000000000000089
  1
（周囲コ－キング充填）
 41
0.7695
  7
FontTableH_0
 72
               5
 11
22337.806503069107
 21
27285.841469140123
 31
0.0
100
AcDbText
  0
TEXT
  5
249
100
AcDbEntity
  8
0
 62
               7
100
AcDbText
 10
21753.710250627701
 20
27377.840889306139
 30
0.0
 40
9.0000000000000089
  1
モジュ－ル側面カバ－
 41
0.7695
  7
FontTableH_0
 72
               5
 11
21843.710250627701
 21
27377.840889306139
 31
0.0
100
AcDbText
  0
TEXT
  5
24A
100
AcDbEntity
  8
0
 62
               7
100
AcDbText
 10
21785.034713518326
 20
27356.840889306139
 30
0.0
 40
9.0000000000000089
  1
Ｍ8 六角ボルト
 41
0.7695
  7
FontTableH_0
 72
               5
 11
21848.034713518326
 21
27356.840889306139
 31
0.0
100
AcDbText
  0
TEXT
  5
24B
100
AcDbEntity
  8
0
 62
               7
100
AcDbText
 10
21783.964034807388
 20
27335.840950341295
 30
0.0
 40
9.0000000000000089
  1
アルミ架台
 41
0.7695
  7
FontTableH_0
 72
               5
 11
21828.964034807388
 21
27335.840950341295
 31
0.0
100
AcDbText
  0
TEXT
  5
24C
100
AcDbEntity
  8
0
 62
               7
100
AcDbText
 10
21976.078902971451
 20
27198.589577050279
 30
0.0
 40
9.0000000000000089
  1
取付金具
 41
0.7695
  7
FontTableH_0
 72
               5
 11
22012.078902971451
 21
27198.589577050279
 31
0.0
100
AcDbText
  0
TEXT
  5
24D
100
AcDbEntity
  8
0
 62
               7
100
AcDbText
 10
21769.338699114029
 20
27314.840919823717
 30
0.0
 40
9.0000000000000089
  1
ＰＦ管
 41
0.7695
  7
FontTableH_0
 72
               5
 11
21796.338699114029
 21
27314.840919823717
 31
0.0
100
AcDbText
  0
TEXT
  5
24E
100
AcDbEntity
  8
0
 62
               7
100
AcDbText
 10
21580.069015276138
 20
27251.840980858873
 30
0.0
 40
9.0000000000000089
  1
太陽電池モジュ－ル
 41
0.7695
  7
FontTableH_0
 72
               5
 11
21661.069015276138
 21
27251.840980858873
 31
0.0
100
AcDbText
  0
TEXT
  5
24F
100
AcDbEntity
  8
0
 62
               7
100
AcDbText
 10
22040.000961076919
 20
27230.840797753404
 30
0.0
 40
9.0000000000000089
  1
システム配線
 41
0.7695
  7
FontTableH_0
 72
               5
 11
22094.000961076919
 21
27230.840797753404
 31
0.0
100
AcDbText
  0
TEXT
  5
250
100
AcDbEntity
  8
0
 62
               7
100
AcDbText
 10
21777.176315080826
 20
27259.490333886217
 30
0.0
 40
9.0000000000000089
  1
9
 50
296.56506523352613
 41
0.7695
  7
FontTableH_0
 72
               5
 11
21779.188777248015
 21
27255.465412020436
 31
0.0
100
AcDbText
  0
TEXT
  5
251
100
AcDbEntity
  8
0
 62
               7
100
AcDbText
 10
21789.005141985122
 20
27235.832741112779
 30
0.0
 40
9.0000000000000089
  1
39.4
 50
296.56506523352613
 41
0.7695
  7
FontTableH_0
 72
               5
 11
21797.05499065388
 21
27219.733053649659
 31
0.0
100
AcDbText
  0
TEXT
  5
252
100
AcDbEntity
  8
0
 62
               7
100
AcDbText
 10
21787.752944719497
 20
27191.379707665514
 30
0.0
 40
9.0000000000000089
  1
30
 50
296.56506523352613
 41
0.7695
  7
FontTableH_0
 72
               5
 11
21791.777869053876
 21
27183.329863933955
 31
0.0
100
AcDbText
  0
TEXT
  5
253
100
AcDbEntity
  8
0
 62
               7
100
AcDbText
 10
21799.38050819606
 20
27168.124611229967
 30
0.0
 40
9.0000000000000089
  1
12
 50
296.56506523352613
 41
0.7695
  7
FontTableH_0
 72
               5
 11
21803.405432530439
 21
27160.074767498409
 31
0.0
100
AcDbText
  0
TEXT
  5
254
100
AcDbEntity
  8
0
 62
               7
100
AcDbText
 10
21768.209701311294
 20
27230.466163964342
 30
0.0
 40
9.0000000000000089
  1
48.4
 50
296.56506523352613
 41
0.7695
  7
FontTableH_0
 72
               5
 11
21776.259549980052
 21
27214.366476501222
 31
0.0
100
AcDbText
  0
TEXT
  5
255
100
AcDbEntity
  8
0
 62
               7
100
AcDbText
 10
21435.666908037369
 20
27329.840736718248
 30
0.0
 40
9.0000000000000089
  1
屋根材：ＳＦル－フパネル，高級化粧鋼板 t0.5
 41
0.7695
  7
FontTableH_0
 72
               5
 11
21629.166908037369
 21
27329.840736718248
 31
0.0
100
AcDbText
  0
TEXT
  5
256
100
AcDbEntity
  8
0
 62
               7
100
AcDbText
 10
21435.666908037369
 20
27311.840614647936
 30
0.0
 40
9.0000000000000089
  1
下葺材：ゴムアスファルトル－フィング t1.0（別途工事）
 41
0.7695
  7
FontTableH_0
 72
               5
 11
21674.166908037369
 21
27311.840614647936
 31
0.0
100
AcDbText
  0
TEXT
  5
257
100
AcDbEntity
  8
0
 62
               7
100
AcDbText
 10
21435.666908037369
 20
27293.840309472154
 30
0.0
 40
9.0000000000000089
  1
野地板：耐水合板 t12（別途工事）
 41
0.7695
  7
FontTableH_0
 72
               5
 11
21579.666908037369
 21
27293.840309472154
 31
0.0
100
AcDbText
  0
TEXT
  5
258
100
AcDbEntity
  8
0
 62
               7
100
AcDbText
 10
21971.380294573013
 20
27365.841255517076
 30
0.0
 40
9.0000000000000089
  1
L=2000
 41
0.7695
  7
FontTableH_0
 72
               5
 11
21998.380294573013
 21
27365.841255517076
 31
0.0
100
AcDbText
  0
TEXT
  5
259
100
AcDbEntity
  8
0
 62
               7
100
AcDbText
 10
21875.183212053482
 20
27048.38301882274
 30
0.0
 40
9.0000000000000089
  1
縦置き ＠1235
 50
26.565052597449757
 41
0.7695
  7
FontTableH_0
 72
               5
 11
21927.507202078417
 21
27074.54501545661
 31
0.0
100
AcDbText
  0
TEXT
  5
25A
100
AcDbEntity
  8
0
 62
               7
100
AcDbText
 10
21868.474960100357
 20
27061.799385399889
 30
0.0
 40
9.0000000000000089
  1
横置き ＠ 832
 50
26.565052597449757
 41
0.7695
  7
FontTableH_0
 72
               5
 11
21920.798950125292
 21
27087.961382033758
 31
0.0
100
AcDbText
  0
TEXT
  5
25B
100
AcDbEntity
  8
0
 62
               7
100
AcDbText
 10
21655.19886757106
 20
27170.271095604967
 30
0.0
 40
9.0000000000000089
  1
46
 50
296.56506523352613
 41
0.7695
  7
FontTableH_0
 72
               5
 11
21659.223791905439
 21
27162.221251873409
 31
0.0
100
AcDbText
  0
TEXT
  5
25C
100
AcDbEntity
  8
0
 62
               7
100
AcDbText
 10
22070.309615862076
 20
27406.480507226061
 30
0.0
 40
9.0000000000000089
  1
L=2000
 41
0.7695
  7
FontTableH_0
 72
               5
 11
22097.309615862076
 21
27406.480507226061
 31
0.0
100
AcDbText
  0
TEXT
  5
25D
100
AcDbEntity
  8
0
 62
               7
100
AcDbText
 10
22199.030441057388
 20
27439.229652733873
 30
0.0
 40
9.0000000000000089
  1
100
 50
90.000002504478189
 41
0.7695
  7
FontTableH_0
 72
               5
 11
22199.030440467286
 21
27452.729652733873
 31
0.0
100
AcDbText
  0
TEXT
  5
25E
100
AcDbEntity
  8
0
 62
               7
100
AcDbText
 10
22220.030441057388
 20
27412.553383202623
 30
0.0
 40
9.0000000000000089
  1
300以上（ゴムアスファルトル－フィング立上げ）
 50
90.000002504478189
 41
0.7695
  7
FontTableH_0
 72
               5
 11
22220.030432205833
 21
27615.053383202623
 31
0.0
100
AcDbText
  0
TEXT
  5
25F
100
AcDbEntity
  8
0
 62
               7
100
AcDbText
 10
22026.071456682388
 20
27558.479713769029
 30
0.0
 40
9.0000000000000089
  1
外装材（別途工事）
 41
0.7695
  7
FontTableH_0
 72
               5
 11
22107.071456682388
 21
27558.479713769029
 31
0.0
100
AcDbText
  0
TEXT
  5
260
100
AcDbEntity
  8
0
 62
               7
100
AcDbText
 10
22033.317977678482
 20
27475.606056542467
 30
0.0
 40
9.0000000000000089
  1
150
 50
26.565052597449757
 41
0.7695
  7
FontTableH_0
 72
               5
 11
22045.392744607314
 21
27481.643440381053
 31
0.0
100
AcDbText
  0
TEXT
  5
261
100
AcDbEntity
  8
0
 62
               7
100
AcDbText
 10
21942.980733144152
 20
27453.916377121179
 30
0.0
 40
9.0000000000000089
  1
割付による（250以上）
 50
26.565050889902427
 41
0.7695
  7
FontTableH_0
 72
               5
 11
22027.504102905466
 21
27496.178061472281
 31
0.0
100
AcDbText
  0
TEXT
  5
262
100
AcDbEntity
  8
0
 62
               7
100
AcDbText
 10
21893.339969202221
 20
27405.617418490059
 30
0.0
 40
9.0000000000000089
  1
100以上（通気口）
 50
26.565050889902427
 41
0.7695
  7
FontTableH_0
 72
               5
 11
21961.76364948519
 21
27439.829258202855
 31
0.0
100
AcDbText
  0
LINE
  5
263
100
AcDbEntity
  8
Layer00001
  6
Continuous
 62
               7
100
AcDbLine
 10
22025.304610979263
 20
26920.972999901842
 30
0.0
 11
21875.304610979263
 21
26920.972999901842
 31
0.0
  0
LINE
  5
264
100
AcDbEntity
  8
Layer00001
  6
Continuous
 62
               7
100
AcDbLine
 10
22025.304610979263
 20
26935.972999901842
 30
0.0
 11
21875.304610979263
 21
26935.972999901842
 31
0.0
  0
LINE
  5
265
100
AcDbEntity
  8
Layer00001
  6
Continuous
 62
               7
100
AcDbLine
 10
21875.304610979263
 20
26935.972999901842
 30
0.0
 11
21875.304610979263
 21
26920.972999901842
 31
0.0
  0
LINE
  5
266
100
AcDbEntity
  8
Layer00001
  6
Continuous
 62
               7
100
AcDbLine
 10
22025.304610979263
 20
26935.972999901842
 30
0.0
 11
22025.304610979263
 21
26920.972999901842
 31
0.0
  0
LINE
  5
267
100
AcDbEntity
  8
Layer00001
  6
Continuous
 62
               7
100
AcDbLine
 10
21350.304610979263
 20
27736.972999901842
 30
0.0
 11
21350.304610979263
 21
27751.972999901842
 31
0.0
  0
LINE
  5
268
100
AcDbEntity
  8
Layer00001
  6
Continuous
 62
               7
100
AcDbLine
 10
21440.304610979263
 20
27751.972999901842
 30
0.0
 11
21350.304610979263
 21
27751.972999901842
 31
0.0
  0
LINE
  5
269
100
AcDbEntity
  8
Layer00001
  6
Continuous
 62
               7
100
AcDbLine
 10
21440.304610979263
 20
27736.972999901842
 30
0.0
 11
21350.304610979263
 21
27736.972999901842
 31
0.0
  0
LINE
  5
26A
100
AcDbEntity
  8
Layer00001
  6
Continuous
 62
               7
100
AcDbLine
 10
21440.304610979263
 20
27736.972999901842
 30
0.0
 11
21440.304610979263
 21
27751.972999901842
 31
0.0
  0
TEXT
  5
26B
100
AcDbEntity
  8
Layer00001
 62
               7
100
AcDbText
 10
21372.804610979263
 20
27739.972999901842
 30
0.0
 40
9.0000000000000089
  1
ＳＦルーフ
 41
0.7695
  7
FontTableH_0
 72
               5
 11
21417.804610979263
 21
27739.972999901842
 31
0.0
100
AcDbText
  0
TEXT
  5
26C
100
AcDbEntity
  8
Layer00001
 62
               7
100
AcDbText
 10
21885.054610979263
 20
26923.972999901842
 30
0.0
 40
9.0000000000000089
  1
壁取合イ断面詳細図　［S=1/3］
 41
0.7695
  7
FontTableH_0
 72
               5
 11
22015.554610979263
 21
26923.972999901842
 31
0.0
100
AcDbText
  0
ENDSEC
  0
SECTION
  2
OBJECTS
  0
DICTIONARY
  5
19
100
AcDbDictionary
  3
ACAD_GROUP
350
1A
  3
ACAD_MLINESTYLE
350
1B
  3
DWGPROPS
350
26D
  0
DICTIONARY
  5
1A
102
{ACAD_REACTORS
330
19
102
}
100
AcDbDictionary
  0
DICTIONARY
  5
1B
102
{ACAD_REACTORS
330
19
102
}
100
AcDbDictionary
  3
STANDARD
350
1C
  0
MLINESTYLE
  5
1C
102
{ACAD_REACTORS
330
1B
102
}
100
AcDbMlineStyle
  2
Standard
 70
               0
  3

 62
               0
 51
90.0
 52
90.0
 71
               2
 49
0.5
 62
             256
  6
ByLayer
 49
-0.5
 62
             256
  6
ByLayer
  0
XRECORD
  5
26D
100
AcDbXrecord
  1
DWGPROPS COOKIE
  2

  3

  4

  6

  7

  0
ENDSEC
  0
EOF
