  0
SECTION
  2
HEADER
  9
$ACADVER
  1
AC1014
  9
$ACADMAINTVER
 70
               0
  9
$DWGCODEPAGE
  3
ANSI_932
  9
$INSBASE
 10
0.0
 20
0.0
 30
0.0
  9
$EXTMIN
 10
0.0
 20
0.0
 30
0.0
  9
$EXTMAX
 10
1260.0000000000014
 20
891.00000000000091
 30
0.0
  9
$LIMMIN
 10
0.0
 20
0.0
  9
$LIMMAX
 10
1260.0000000000014
 20
891.00000000000091
  9
$ORTHOMODE
 70
               0
  9
$REGENMODE
 70
               1
  9
$FILLMODE
 70
               1
  9
$QTEXTMODE
 70
               0
  9
$MIRRTEXT
 70
               1
  9
$DRAGMODE
 70
               2
  9
$LTSCALE
 40
3.0000000000000031
  9
$OSMODE
 70
               0
  9
$ATTMODE
 70
               1
  9
$TEXTSIZE
 40
0.2
  9
$TRACEWID
 40
0.05
  9
$TEXTSTYLE
  7
Standard
  9
$CLAYER
  8
Layer00001
  9
$CELTYPE
  6
Continuous
  9
$CECOLOR
 62
             256
  9
$CELTSCALE
 40
1.0
  9
$DELOBJ
 70
               1
  9
$DISPSILH
 70
               0
  9
$DIMSCALE
 40
1.0
  9
$DIMASZ
 40
0.18
  9
$DIMEXO
 40
0.0625
  9
$DIMDLI
 40
0.38
  9
$DIMRND
 40
0.0
  9
$DIMDLE
 40
0.0
  9
$DIMEXE
 40
0.18
  9
$DIMTP
 40
0.0
  9
$DIMTM
 40
0.0
  9
$DIMTXT
 40
0.18
  9
$DIMCEN
 40
0.09
  9
$DIMTSZ
 40
0.0
  9
$DIMTOL
 70
               0
  9
$DIMLIM
 70
               0
  9
$DIMTIH
 70
               1
  9
$DIMTOH
 70
               1
  9
$DIMSE1
 70
               0
  9
$DIMSE2
 70
               0
  9
$DIMTAD
 70
               0
  9
$DIMZIN
 70
               0
  9
$DIMBLK
  1

  9
$DIMASO
 70
               1
  9
$DIMSHO
 70
               1
  9
$DIMPOST
  1

  9
$DIMAPOST
  1

  9
$DIMALT
 70
               0
  9
$DIMALTD
 70
               2
  9
$DIMALTF
 40
25.399999999999999
  9
$DIMLFAC
 40
1.0
  9
$DIMTOFL
 70
               0
  9
$DIMTVP
 40
0.0
  9
$DIMTIX
 70
               0
  9
$DIMSOXD
 70
               0
  9
$DIMSAH
 70
               0
  9
$DIMBLK1
  1

  9
$DIMBLK2
  1

  9
$DIMSTYLE
  2
Standard
  9
$DIMCLRD
 70
               0
  9
$DIMCLRE
 70
               0
  9
$DIMCLRT
 70
               0
  9
$DIMTFAC
 40
1.0
  9
$DIMGAP
 40
0.09
  9
$DIMJUST
 70
               0
  9
$DIMSD1
 70
               0
  9
$DIMSD2
 70
               0
  9
$DIMTOLJ
 70
               1
  9
$DIMTZIN
 70
               0
  9
$DIMALTZ
 70
               0
  9
$DIMALTTZ
 70
               0
  9
$DIMFIT
 70
               3
  9
$DIMUPT
 70
               0
  9
$DIMUNIT
 70
               2
  9
$DIMDEC
 70
               4
  9
$DIMTDEC
 70
               4
  9
$DIMALTU
 70
               2
  9
$DIMALTTD
 70
               2
  9
$DIMTXSTY
  7
Standard
  9
$DIMAUNIT
 70
               0
  9
$LUNITS
 70
               2
  9
$LUPREC
 70
               4
  9
$SKETCHINC
 40
0.1
  9
$FILLETRAD
 40
0.0
  9
$AUNITS
 70
               0
  9
$AUPREC
 70
               0
  9
$MENU
  1
acad
  9
$ELEVATION
 40
0.0
  9
$PELEVATION
 40
0.0
  9
$THICKNESS
 40
0.0
  9
$LIMCHECK
 70
               0
  9
$BLIPMODE
 70
               1
  9
$CHAMFERA
 40
0.0
  9
$CHAMFERB
 40
0.0
  9
$CHAMFERC
 40
0.0
  9
$CHAMFERD
 40
0.0
  9
$SKPOLY
 70
               0
  9
$TDCREATE
 40
0.000000000
  9
$TDUPDATE
 40
0.000000000
  9
$TDINDWG
 40
0.0000000000
  9
$TDUSRTIMER
 40
0.0000000000
  9
$USRTIMER
 70
               1
  9
$ANGBASE
 50
0.0
  9
$ANGDIR
 70
               0
  9
$PDMODE
 70
               0
  9
$PDSIZE
 40
0.0
  9
$PLINEWID
 40
0.0
  9
$COORDS
 70
               0
  9
$SPLFRAME
 70
               0
  9
$SPLINETYPE
 70
               6
  9
$SPLINESEGS
 70
               8
  9
$ATTDIA
 70
               0
  9
$ATTREQ
 70
               1
  9
$HANDLING
 70
               1
  9
$HANDSEED
  5
282
  9
$SURFTAB1
 70
               6
  9
$SURFTAB2
 70
               6
  9
$SURFTYPE
 70
               6
  9
$SURFU
 70
               6
  9
$SURFV
 70
               6
  9
$UCSNAME
  2

  9
$UCSORG
 10
0.0
 20
0.0
 30
0.0
  9
$UCSXDIR
 10
1.0
 20
0.0
 30
0.0
  9
$UCSYDIR
 10
0.0
 20
1.0
 30
0.0
  9
$PUCSNAME
  2

  9
$PUCSORG
 10
0.0
 20
0.0
 30
0.0
  9
$PUCSXDIR
 10
1.0
 20
0.0
 30
0.0
  9
$PUCSYDIR
 10
0.0
 20
1.0
 30
0.0
  9
$USERI1
 70
               0
  9
$USERI2
 70
               0
  9
$USERI3
 70
               0
  9
$USERI4
 70
               0
  9
$USERI5
 70
               0
  9
$USERR1
 40
0.0
  9
$USERR2
 40
0.0
  9
$USERR3
 40
0.0
  9
$USERR4
 40
0.0
  9
$USERR5
 40
0.0
  9
$WORLDVIEW
 70
               1
  9
$SHADEDGE
 70
               3
  9
$SHADEDIF
 70
              70
  9
$TILEMODE
 70
               1
  9
$MAXACTVP
 70
              16
  9
$PINSBASE
 10
0.0
 20
0.0
 30
0.0
  9
$PLIMCHECK
 70
               0
  9
$PEXTMIN
 10
1.0000000000000000E+20
 20
1.0000000000000000E+20
 30
1.0000000000000000E+20
  9
$PEXTMAX
 10
-1.0000000000000000E+20
 20
-1.0000000000000000E+20
 30
-1.0000000000000000E+20
  9
$PLIMMIN
 10
0.0
 20
0.0
  9
$PLIMMAX
 10
12.0
 20
9.0
  9
$UNITMODE
 70
               0
  9
$VISRETAIN
 70
               0
  9
$PLINEGEN
 70
               1
  9
$PSLTSCALE
 70
               0
  9
$TREEDEPTH
 70
            3020
  9
$PICKSTYLE
 70
               1
  9
$CMLSTYLE
  2
Standard
  9
$CMLJUST
 70
               0
  9
$CMLSCALE
 40
1.0
  9
$PROXYGRAPHICS
 70
               0
  9
$MEASUREMENT
 70
               0
  0
ENDSEC
  0
SECTION
  2
CLASSES
  0
CLASS
  1
LWPOLYLINE
  2
AcDbPolyline
  3
"AutoCAD"
 90
        0
280
               0
281
               1
  0
CLASS
  1
IMAGE
  2
AcDbRasterImage
  3
ISM
 90
      127
280
               0
281
               1
  0
CLASS
  1
OLE2FRAME
  2
AcDbOle2Frame
  3
""
 90
        0
280
               0
281
               1
  0
CLASS
  1
HATCH
  2
AcDbHatch
  3
"ACAD_SEDONA"
 90
        0
280
               0
281
               1
  0
CLASS
  1
DICTIONARYVAR
  2
AcDbDictionaryVar
  3
"AutoCAD"
 90
        0
280
               0
281
               0
  0
CLASS
  1
RASTERVARIABLES
  2
AcDbRasterVariables
  3
ISM
 90
        0
280
               0
281
               0
  0
CLASS
  1
IMAGEDEF
  2
AcDbRasterImageDef
  3
ISM
 90
        0
280
               0
281
               0
  0
CLASS
  1
IMAGEDEF_REACTOR
  2
AcDbRasterImageDefReactor
  3
ISM
 90
        1
280
               0
281
               0
  0
CLASS
  1
IDBUFFER
  2
AcDbIdBuffer
  3
"Acad"
 90
        0
280
               0
281
               0
  0
CLASS
  1
SPATIAL_FILTER
  2
AcDbSpatialFilter
  3
"Acad"
 90
        0
280
               0
281
               0
  0
CLASS
  1
XRECORD
  2
AcDbXrecord
  3
"<Built In>"
 90
        0
280
               0
281
               0
  0
CLASS
  1
SORTENTSTABLE
  2
AcDbSortentsTable
  3
"AutoCAD"
 90
        0
280
               0
281
               0
  0
CLASS
  1
LAYER_INDEX
  2
AcDbLayerIndex
  3
"Acad"
 90
        0
280
               0
281
               0
  0
CLASS
  1
SPATIAL_INDEX
  2
AcDbSpatialIndex
  3
"Acad"
 90
        0
280
               0
281
               0
  0
CLASS
  1
OBJECT_PTR
  2
CAseDLPNTableRecord
  3
"ASE-LPNTableRecord"
 90
        1
280
               0
281
               0
  0
CLASS
  1
LAYOUT
  2
AcDbLayout
  3
"AutoCAD 2000"
 90
        0
280
               0
281
               0
  0
CLASS
  1
PLOTSETTINGS
  2
AcDbPlotSettings
  3
"AutoCAD 2000"
 90
        0
280
               0
281
               0
  0
CLASS
  1
ACDBDICTIONARYWDFLT
  2
AcDbDictionaryWithDefault
  3
"AutoCAD 2000"
 90
        0
280
               0
281
               0
  0
CLASS
  1
ACDBPLACEHOLDER
  2
AcDbPlaceHolder
  3
"AutoCAD 2000"
 90
        0
280
               0
281
               0
  0
CLASS
  1
VBA_PROJECT
  2
AcDbVbaProject
  3
"acadvba"
 90
        0
280
               0
281
               0
  0
CLASS
  1
WIPEOUT
  2
AcDbWipeout
  3
WipeOut|AutoCAD Express Tool|expresstools@autodesk.com
 90
      127
280
               0
281
               1
  0
CLASS
  1
WIPEOUTVARIABLES
  2
AcDbWipeoutVariables
  3
WipeOut|AutoCAD Express Tool|expresstools@autodesk.com
 90
        0
280
               0
281
               0
  0
CLASS
  1
RTEXT
  2
RText
  3
RText|AutoCAD Express Tool|expresstools@autodesk.com
 90
        0
280
               0
281
               1
  0
CLASS
  1
ARCALIGNEDTEXT
  2
AcDbArcAlignedText
  3
ATEXT|AutoCAD Express Tool|expresstools@autodesk.com
 90
        0
280
               0
281
               1
  0
ENDSEC
  0
SECTION
  2
TABLES
  0
TABLE
  2
VPORT
  5
7
100
AcDbSymbolTable
 70
               1
  0
VPORT
  5
15
100
AcDbSymbolTableRecord
100
AcDbViewportTableRecord
  2
*ACTIVE
 70
               0
 10
0.0
 20
0.0
 11
1.0
 21
1.0
 12
630.00000000000068
 22
445.50000000000045
 13
0.0
 23
0.0
 14
10.0
 24
10.0
 15
10.0
 25
10.0
 16
0.0
 26
0.0
 36
1.0
 17
0.0
 27
0.0
 37
0.0
 40
891.00000000000091
 41
1.4141414141414141
 42
50.0
 43
0.0
 44
0.0
 50
0.0
 51
0.0
 71
               0
 72
             100
 73
               1
 74
               1
 75
               0
 76
               0
 77
               0
 78
               0
  0
ENDTAB
  0
TABLE
  2
LTYPE
  5
4
100
AcDbSymbolTable
 70
              24
  0
LTYPE
  5
11
100
AcDbSymbolTableRecord
100
AcDbLinetypeTableRecord
  2
ByBlock
 70
              64
  3

 72
              65
 73
               0
 40
0.0
  0
LTYPE
  5
12
100
AcDbSymbolTableRecord
100
AcDbLinetypeTableRecord
  2
ByLayer
 70
              64
  3

 72
              65
 73
               0
 40
0.0
  0
LTYPE
  5
13
100
AcDbSymbolTableRecord
100
AcDbLinetypeTableRecord
  2
Continuous
 70
              64
  3
Solid line
 72
              65
 73
               0
 40
0.0
  0
LTYPE
  5
1D
100
AcDbSymbolTableRecord
100
AcDbLinetypeTableRecord
  2
DOT
 70
              64
  3
Dot . . . . . . . . . . . . . . . . . . . . . .
 72
              65
 73
               2
 40
6.3499999999999996
 49
0.35
 74
               0
 49
-6.0
 74
               0
  0
LTYPE
  5
1E
100
AcDbSymbolTableRecord
100
AcDbLinetypeTableRecord
  2
DASHED
 70
              64
  3
Dashed __ __ __ __ __ __ __ __ __ __ __ __ __ _
 72
              65
 73
               2
 40
12.699999999999999
 49
6.3499999999999996
 74
               0
 49
-6.3499999999999996
 74
               0
  0
LTYPE
  5
1F
100
AcDbSymbolTableRecord
100
AcDbLinetypeTableRecord
  2
DASHDOT
 70
              64
  3
Dash dot __ . __ . __ . __ . __ . __ . __ . __
 72
              65
 73
               4
 40
25.399999999999999
 49
12.699999999999999
 74
               0
 49
-6.0
 74
               0
 49
0.7
 74
               0
 49
-6.0
 74
               0
  0
LTYPE
  5
20
100
AcDbSymbolTableRecord
100
AcDbLinetypeTableRecord
  2
DIVIDE
 70
              64
  3
Divide ____ . . ____ . . ____ . . ____ . . ____
 72
              65
 73
               6
 40
31.75
 49
12.699999999999999
 74
               0
 49
-6.0
 74
               0
 49
0.875
 74
               0
 49
-6.0
 74
               0
 49
0.875
 74
               0
 49
-6.0
 74
               0
  0
LTYPE
  5
21
100
AcDbSymbolTableRecord
100
AcDbLinetypeTableRecord
  2
HIDDEN
 70
              64
  3
Hidden __ __ __ __ __ __ __ __ __ __ __ __ __ _
 72
              65
 73
               2
 40
9.5250000000000004
 49
6.3499999999999996
 74
               0
 49
-3.1749999999999998
 74
               0
  0
LTYPE
  5
22
100
AcDbSymbolTableRecord
100
AcDbLinetypeTableRecord
  2
CENTER
 70
              64
  3
Center ____ _ ____ _ ____ _ ____ _ ____ _ ____
 72
              65
 73
               4
 40
50.799999999999997
 49
31.75
 74
               0
 49
-6.3499999999999996
 74
               0
 49
6.3499999999999996
 74
               0
 49
-6.3499999999999996
 74
               0
  0
LTYPE
  5
23
100
AcDbSymbolTableRecord
100
AcDbLinetypeTableRecord
  2
PHANTOM
 70
              64
  3
Phantom ______  __  __  ______  __  __  ______
 72
              65
 73
               6
 40
63.5
 49
31.75
 74
               0
 49
-6.3499999999999996
 74
               0
 49
6.3499999999999996
 74
               0
 49
-6.3499999999999996
 74
               0
 49
6.3499999999999996
 74
               0
 49
-6.3499999999999996
 74
               0
  0
LTYPE
  5
24
100
AcDbSymbolTableRecord
100
AcDbLinetypeTableRecord
  2
ACAD_ISO02W100
 70
              64
  3
ISO dash __ __ __ __ __ __ __ __ __ __ __ __ __
 72
              65
 73
               2
 40
15.0
 49
12.0
 74
               0
 49
-3.0
 74
               0
  0
LTYPE
  5
25
100
AcDbSymbolTableRecord
100
AcDbLinetypeTableRecord
  2
ACAD_ISO03W100
 70
              64
  3
ISO dash space __ __ __ __ __ __ __ __ __ __ __ __ __ __
 72
              65
 73
               2
 40
30.0
 49
12.0
 74
               0
 49
-18.0
 74
               0
  0
LTYPE
  5
26
100
AcDbSymbolTableRecord
100
AcDbLinetypeTableRecord
  2
ACAD_ISO04W100
 70
              64
  3
ISO long-dash dot ____ . ____ . ____ . ____ . _
 72
              65
 73
               4
 40
30.0
 49
24.0
 74
               0
 49
-3.0
 74
               0
 49
0.0
 74
               0
 49
-3.0
 74
               0
  0
LTYPE
  5
27
100
AcDbSymbolTableRecord
100
AcDbLinetypeTableRecord
  2
ACAD_ISO05W100
 70
              64
  3
ISO long-dash double-dot ____ .. ____ .. ____ .
 72
              65
 73
               6
 40
33.0
 49
24.0
 74
               0
 49
-3.0
 74
               0
 49
0.0
 74
               0
 49
-3.0
 74
               0
 49
0.0
 74
               0
 49
-3.0
 74
               0
  0
LTYPE
  5
28
100
AcDbSymbolTableRecord
100
AcDbLinetypeTableRecord
  2
ACAD_ISO06W100
 70
              64
  3
ISO long-dash triple-dot ____ ... ____ ... ____
 72
              65
 73
               8
 40
36.0
 49
24.0
 74
               0
 49
-3.0
 74
               0
 49
0.0
 74
               0
 49
-3.0
 74
               0
 49
0.0
 74
               0
 49
-3.0
 74
               0
 49
0.0
 74
               0
 49
-3.0
 74
               0
  0
LTYPE
  5
29
100
AcDbSymbolTableRecord
100
AcDbLinetypeTableRecord
  2
ACAD_ISO07W100
 70
              64
  3
ISO dot . . . . . . . . . . . . . . . . . . . .
 72
              65
 73
               2
 40
3.0
 49
0.0
 74
               0
 49
-3.0
 74
               0
  0
LTYPE
  5
2A
100
AcDbSymbolTableRecord
100
AcDbLinetypeTableRecord
  2
ACAD_ISO08W100
 70
              64
  3
ISO long-dash short-dash ____ __ ____ __ ____ _
 72
              65
 73
               4
 40
36.0
 49
24.0
 74
               0
 49
-3.0
 74
               0
 49
6.0
 74
               0
 49
-3.0
 74
               0
  0
LTYPE
  5
2B
100
AcDbSymbolTableRecord
100
AcDbLinetypeTableRecord
  2
ACAD_ISO09W100
 70
              64
  3
ISO long-dash double-short-dash ____ __ __ ____
 72
              65
 73
               6
 40
45.0
 49
24.0
 74
               0
 49
-3.0
 74
               0
 49
6.0
 74
               0
 49
-3.0
 74
               0
 49
6.0
 74
               0
 49
-3.0
 74
               0
  0
LTYPE
  5
2C
100
AcDbSymbolTableRecord
100
AcDbLinetypeTableRecord
  2
ACAD_ISO10W100
 70
              64
  3
ISO dash dot __ . __ . __ . __ . __ . __ . __ .
 72
              65
 73
               4
 40
18.0
 49
12.0
 74
               0
 49
-3.0
 74
               0
 49
0.0
 74
               0
 49
-3.0
 74
               0
  0
LTYPE
  5
2D
100
AcDbSymbolTableRecord
100
AcDbLinetypeTableRecord
  2
ACAD_ISO11W100
 70
              64
  3
ISO double-dash dot __ __ . __ __ . __ __ . __ 
 72
              65
 73
               6
 40
33.0
 49
12.0
 74
               0
 49
-3.0
 74
               0
 49
12.0
 74
               0
 49
-3.0
 74
               0
 49
0.0
 74
               0
 49
-3.0
 74
               0
  0
LTYPE
  5
2E
100
AcDbSymbolTableRecord
100
AcDbLinetypeTableRecord
  2
ACAD_ISO12W100
 70
              64
  3
ISO dash double-dot __ . . __ . . __ . . __ . .
 72
              65
 73
               6
 40
21.0
 49
12.0
 74
               0
 49
-3.0
 74
               0
 49
0.0
 74
               0
 49
-3.0
 74
               0
 49
0.0
 74
               0
 49
-3.0
 74
               0
  0
LTYPE
  5
2F
100
AcDbSymbolTableRecord
100
AcDbLinetypeTableRecord
  2
ACAD_ISO13W100
 70
              64
  3
ISO double-dash double-dot __ __ . . __ __ . . 
 72
              65
 73
               8
 40
36.0
 49
12.0
 74
               0
 49
-3.0
 74
               0
 49
12.0
 74
               0
 49
-3.0
 74
               0
 49
0.0
 74
               0
 49
-3.0
 74
               0
 49
0.0
 74
               0
 49
-3.0
 74
               0
  0
LTYPE
  5
30
100
AcDbSymbolTableRecord
100
AcDbLinetypeTableRecord
  2
ACAD_ISO14W100
 70
              64
  3
ISO dash triple-dot __ . . . __ . . . __ . . . 
 72
              65
 73
               8
 40
24.0
 49
12.0
 74
               0
 49
-3.0
 74
               0
 49
0.0
 74
               0
 49
-3.0
 74
               0
 49
0.0
 74
               0
 49
-3.0
 74
               0
 49
0.0
 74
               0
 49
-3.0
 74
               0
  0
LTYPE
  5
31
100
AcDbSymbolTableRecord
100
AcDbLinetypeTableRecord
  2
ACAD_ISO15W100
 70
              64
  3
ISO double-dash double-dot __ __ . . __ __ . . 
 72
              65
 73
              10
 40
39.0
 49
12.0
 74
               0
 49
-3.0
 74
               0
 49
12.0
 74
               0
 49
-3.0
 74
               0
 49
0.0
 74
               0
 49
-3.0
 74
               0
 49
0.0
 74
               0
 49
-3.0
 74
               0
 49
0.0
 74
               0
 49
-3.0
 74
               0
  0
ENDTAB
  0
TABLE
  2
LAYER
  5
2
100
AcDbSymbolTable
 70
               2
  0
LAYER
  5
14
100
AcDbSymbolTableRecord
100
AcDbLayerTableRecord
  2
0
 70
               0
 62
               7
  6
Continuous
  0
LAYER
  5
35
100
AcDbSymbolTableRecord
100
AcDbLayerTableRecord
  2
Layer00001
 70
               0
 62
               7
  6
Continuous
  0
ENDTAB
  0
TABLE
  2
STYLE
  5
3
100
AcDbSymbolTable
 70
               4
  0
STYLE
  5
17
100
AcDbSymbolTableRecord
100
AcDbTextStyleTableRecord
  2
Standard
 70
               0
 40
0.0
 41
1.0
 50
0.0
 71
               0
 42
0.0
  3
txt.shx
  4
bigfont.shx
  0
STYLE
  5
32
100
AcDbSymbolTableRecord
100
AcDbTextStyleTableRecord
  2
STANDARD_T
 70
               4
 40
0.0
 41
1.0
 50
0.0
 71
               0
 42
0.0
  3
txt.shx
  4
bigfont.shx
  0
STYLE
  5
33
100
AcDbSymbolTableRecord
100
AcDbTextStyleTableRecord
  2
FontTableH_0
 70
               0
 40
0.0
 41
1.0
 50
0.0
 71
               0
 42
0.0
  3
MS Gothic.ttf
  4

1001
ACAD
1000
MS Gothic
1071
    32817
  0
STYLE
  5
34
100
AcDbSymbolTableRecord
100
AcDbTextStyleTableRecord
  2
FontTableV_0
 70
               0
 40
0.0
 41
1.0
 50
0.0
 71
               0
 42
0.0
  3
@MS Gothic.ttf
  4

1001
ACAD
1000
@MS Gothic
1071
    32817
  0
ENDTAB
  0
TABLE
  2
VIEW
  5
5
100
AcDbSymbolTable
 70
               0
  0
ENDTAB
  0
TABLE
  2
UCS
  5
6
100
AcDbSymbolTable
 70
               0
  0
ENDTAB
  0
TABLE
  2
APPID
  5
8
100
AcDbSymbolTable
 70
               1
  0
APPID
  5
16
100
AcDbSymbolTableRecord
100
AcDbRegAppTableRecord
  2
ACAD
 70
               0
  0
ENDTAB
  0
TABLE
  2
DIMSTYLE
  5
9
100
AcDbSymbolTable
 70
               1
  0
DIMSTYLE
105
18
100
AcDbSymbolTableRecord
100
AcDbDimStyleTableRecord
  2
Standard
 70
               0
  3

  4

  5

  6

  7

 40
1.0
 41
0.18
 42
0.0625
 43
0.38
 44
0.18
 45
0.0
 46
0.0
 47
0.0
 48
0.0
 71
               0
 72
               0
 73
               1
 74
               1
 75
               0
 76
               0
 77
               0
 78
               0
140
0.18
141
0.09
142
0.0
143
25.399999999999999
144
1.0
145
0.0
146
1.0
147
0.09
170
               0
171
               2
172
               0
173
               0
174
               0
175
               0
176
               0
177
               0
178
               0
270
               2
271
               4
272
               4
273
               2
274
               2
275
               0
280
               0
281
               0
282
               0
283
               1
284
               0
285
               0
286
               0
287
               0
288
               0
340
17
  0
ENDTAB
  0
TABLE
  2
BLOCK_RECORD
  5
1
100
AcDbSymbolTable
 70
               0
  0
BLOCK_RECORD
  5
A
100
AcDbSymbolTableRecord
100
AcDbBlockTableRecord
  2
*MODEL_SPACE
  0
BLOCK_RECORD
  5
B
100
AcDbSymbolTableRecord
100
AcDbBlockTableRecord
  2
*PAPER_SPACE
  0
ENDTAB
  0
ENDSEC
  0
SECTION
  2
BLOCKS
  0
BLOCK
  5
D
100
AcDbEntity
  8
0
100
AcDbBlockBegin
  2
*MODEL_SPACE
 70
               0
 10
0.0
 20
0.0
 30
0.0
  3
*MODEL_SPACE
  1

  0
ENDBLK
  5
E
100
AcDbEntity
  8
0
100
AcDbBlockEnd
  0
BLOCK
  5
F
100
AcDbEntity
 67
               1
  8
0
100
AcDbBlockBegin
  2
*PAPER_SPACE
 70
               0
 10
0.0
 20
0.0
 30
0.0
  3
*PAPER_SPACE
  1

  0
ENDBLK
  5
10
100
AcDbEntity
 67
               1
  8
0
100
AcDbBlockEnd
  0
ENDSEC
  0
SECTION
  2
ENTITIES
  0
LINE
  5
36
100
AcDbEntity
  8
0
  6
Continuous
 62
               2
100
AcDbLine
 10
242.24151321503868
 20
522.23164998929849
 30
0.0
 11
629.74151321503894
 21
522.23164998929849
 31
0.0
  0
LINE
  5
37
100
AcDbEntity
  8
0
  6
Continuous
 62
               2
100
AcDbLine
 10
642.24151321503882
 20
522.23164998929849
 30
0.0
 11
994.4915132150395
 21
522.23164998929849
 31
0.0
  0
LINE
  5
38
100
AcDbEntity
  8
0
  6
Continuous
 62
               3
100
AcDbLine
 10
922.94151321503921
 20
295.23164998929849
 30
0.0
 11
922.94151321503921
 21
283.23164998929849
 31
0.0
  0
LINE
  5
39
100
AcDbEntity
  8
0
  6
DASHED
 62
               6
100
AcDbLine
 10
965.74151321503928
 20
518.73164998929838
 30
0.0
 11
85.741513215038751
 21
518.73164998929838
 31
0.0
  0
LINE
  5
3A
100
AcDbEntity
  8
0
  6
Continuous
 62
               3
100
AcDbLine
 10
486.74151321503894
 20
295.23164998929849
 30
0.0
 11
486.74151321503894
 21
113.23164998929849
 31
0.0
  0
LINE
  5
3B
100
AcDbEntity
  8
0
  6
Continuous
 62
               3
100
AcDbLine
 10
511.74151321503894
 20
295.23164998929849
 30
0.0
 11
511.74151321503894
 21
113.23164998929849
 31
0.0
  0
LINE
  5
3C
100
AcDbEntity
  8
0
  6
Continuous
 62
               3
100
AcDbLine
 10
85.741513215038751
 20
517.23164998929849
 30
0.0
 11
965.74151321503928
 21
517.23164998929849
 31
0.0
  0
LINE
  5
3D
100
AcDbEntity
  8
0
  6
Continuous
 62
               2
100
AcDbLine
 10
229.74151321503874
 20
522.23164998929849
 30
0.0
 11
85.741513215038751
 21
522.23164998929849
 31
0.0
  0
LINE
  5
3E
100
AcDbEntity
  8
0
  6
Continuous
 62
               7
100
AcDbLine
 10
85.741513215038751
 20
515.23164998929849
 30
0.0
 11
845.74151321503916
 21
515.23164998929849
 31
0.0
  0
LINE
  5
3F
100
AcDbEntity
  8
0
  6
Continuous
 62
               2
100
AcDbLine
 10
635.74151321503894
 20
520.23164998929849
 30
0.0
 11
675.74151321503894
 21
520.23164998929849
 31
0.0
  0
LINE
  5
40
100
AcDbEntity
  8
0
  6
Continuous
 62
               2
100
AcDbLine
 10
229.74151321503874
 20
522.23164998929838
 30
0.0
 11
234.74151321503874
 21
527.23164998929838
 31
0.0
  0
LINE
  5
41
100
AcDbEntity
  8
0
  6
Continuous
 62
               2
100
AcDbLine
 10
237.24151321503868
 20
527.23164998929849
 30
0.0
 11
242.24151321503868
 21
522.23164998929849
 31
0.0
  0
LINE
  5
42
100
AcDbEntity
  8
0
  6
Continuous
 62
               2
100
AcDbLine
 10
629.74151321503894
 20
522.23164998929849
 30
0.0
 11
634.74151321503894
 21
527.23164998929849
 31
0.0
  0
LINE
  5
43
100
AcDbEntity
  8
0
  6
Continuous
 62
               2
100
AcDbLine
 10
637.24151321503882
 20
527.23164998929849
 30
0.0
 11
642.24151321503882
 21
522.23164998929849
 31
0.0
  0
LINE
  5
44
100
AcDbEntity
  8
0
  6
Continuous
 62
               2
100
AcDbLine
 10
235.74151321503874
 20
549.73164998929849
 30
0.0
 11
235.74151321503874
 21
520.23164998929849
 31
0.0
  0
LINE
  5
45
100
AcDbEntity
  8
0
  6
Continuous
 62
               2
100
AcDbLine
 10
218.60753861882316
 20
551.23164998929849
 30
0.0
 11
234.24151321503874
 21
551.23164998929849
 31
0.0
  0
LINE
  5
46
100
AcDbEntity
  8
0
  6
Continuous
 62
               2
100
AcDbLine
 10
234.74151321503868
 20
549.73164998929849
 30
0.0
 11
234.74151321503868
 21
527.23164998929838
 31
0.0
  0
LINE
  5
47
100
AcDbEntity
  8
0
  6
Continuous
 62
               2
100
AcDbLine
 10
218.6075386188231
 20
550.23164998929849
 30
0.0
 11
234.24151321503868
 21
550.23164998929849
 31
0.0
  0
LINE
  5
48
100
AcDbEntity
  8
0
  6
Continuous
 62
               2
100
AcDbLine
 10
217.30850051314644
 20
550.48164998929849
 30
0.0
 11
211.24151321503868
 21
539.97331974010069
 31
0.0
  0
LINE
  5
49
100
AcDbEntity
  8
0
  6
Continuous
 62
               2
100
AcDbLine
 10
218.17452591693086
 20
549.98164998929849
 30
0.0
 11
212.10753861882316
 21
539.47331974010069
 31
0.0
  0
LINE
  5
4A
100
AcDbEntity
  8
0
  6
Continuous
 62
               2
100
AcDbLine
 10
237.24151321503868
 20
550.2316499892986
 30
0.0
 11
237.24151321503868
 21
527.23164998929838
 31
0.0
  0
LINE
  5
4B
100
AcDbEntity
  8
0
  6
Continuous
 62
               2
100
AcDbLine
 10
237.24151321503868
 20
552.23164998929849
 30
0.0
 11
216.24151321503862
 21
552.23164998929849
 31
0.0
  0
LINE
  5
4C
100
AcDbEntity
  8
0
  6
Continuous
 62
               2
100
AcDbLine
 10
213.82164023396078
 20
538.04030703820854
 30
0.0
 11
218.32164023396078
 21
545.83453567226854
 31
0.0
  0
LINE
  5
4D
100
AcDbEntity
  8
0
  6
Continuous
 62
               2
100
AcDbLine
 10
217.88862753206857
 20
546.08453567226854
 30
0.0
 11
215.57609921949418
 21
541.65145403490362
 31
0.0
  0
LINE
  5
4E
100
AcDbEntity
  8
0
  6
Continuous
 62
               2
100
AcDbLine
 10
215.664162945849
 20
551.2316499892986
 30
0.0
 11
209.49151321503857
 21
540.54030703820865
 31
0.0
  0
LINE
  5
4F
100
AcDbEntity
  8
0
  6
Continuous
 62
               2
100
AcDbLine
 10
635.74151321503894
 20
549.7316499892986
 30
0.0
 11
635.74151321503894
 21
520.23164998929849
 31
0.0
  0
LINE
  5
50
100
AcDbEntity
  8
0
  6
Continuous
 62
               2
100
AcDbLine
 10
618.60753861882324
 20
551.2316499892986
 30
0.0
 11
634.24151321503894
 21
551.2316499892986
 31
0.0
  0
LINE
  5
51
100
AcDbEntity
  8
0
  6
Continuous
 62
               2
100
AcDbLine
 10
634.74151321503882
 20
549.7316499892986
 30
0.0
 11
634.74151321503882
 21
527.23164998929849
 31
0.0
  0
LINE
  5
52
100
AcDbEntity
  8
0
  6
Continuous
 62
               2
100
AcDbLine
 10
618.60753861882324
 20
550.2316499892986
 30
0.0
 11
634.24151321503882
 21
550.2316499892986
 31
0.0
  0
LINE
  5
53
100
AcDbEntity
  8
0
  6
Continuous
 62
               2
100
AcDbLine
 10
617.30850051314667
 20
550.4816499892986
 30
0.0
 11
611.24151321503882
 21
539.97331974010081
 31
0.0
  0
LINE
  5
54
100
AcDbEntity
  8
0
  6
Continuous
 62
               2
100
AcDbLine
 10
618.17452591693109
 20
549.9816499892986
 30
0.0
 11
612.10753861882336
 21
539.47331974010081
 31
0.0
  0
LINE
  5
55
100
AcDbEntity
  8
0
  6
Continuous
 62
               2
100
AcDbLine
 10
637.24151321503882
 20
550.2316499892986
 30
0.0
 11
637.24151321503882
 21
527.23164998929849
 31
0.0
  0
LINE
  5
56
100
AcDbEntity
  8
0
  6
Continuous
 62
               2
100
AcDbLine
 10
637.24151321503882
 20
552.2316499892986
 30
0.0
 11
616.24151321503882
 21
552.2316499892986
 31
0.0
  0
LINE
  5
57
100
AcDbEntity
  8
0
  6
Continuous
 62
               2
100
AcDbLine
 10
613.82164023396092
 20
538.04030703820854
 30
0.0
 11
618.32164023396092
 21
545.83453567226866
 31
0.0
  0
LINE
  5
58
100
AcDbEntity
  8
0
  6
Continuous
 62
               2
100
AcDbLine
 10
617.88862753206877
 20
546.08453567226866
 30
0.0
 11
615.57609921949438
 21
541.65145403490374
 31
0.0
  0
LINE
  5
59
100
AcDbEntity
  8
0
  6
Continuous
 62
               2
100
AcDbLine
 10
615.66416294584917
 20
551.2316499892986
 30
0.0
 11
609.49151321503871
 21
540.54030703820865
 31
0.0
  0
LINE
  5
5A
100
AcDbEntity
  8
0
  6
Continuous
 62
               3
100
AcDbLine
 10
935.74151321503928
 20
268.23164998929849
 30
0.0
 11
935.74151321503928
 21
493.23164998929849
 31
0.0
  0
LINE
  5
5B
100
AcDbEntity
  8
0
  6
Continuous
 62
               3
100
AcDbLine
 10
911.74151321503916
 20
493.23164998929849
 30
0.0
 11
911.74151321503916
 21
295.23164998929849
 31
0.0
  0
LINE
  5
5C
100
AcDbEntity
  8
0
  6
Continuous
 62
               6
100
AcDbLine
 10
835.74151321503905
 20
552.2316499892986
 30
0.0
 11
835.74151321503905
 21
601.83164998929885
 31
0.0
  0
LINE
  5
5D
100
AcDbEntity
  8
0
  6
Continuous
 62
               6
100
AcDbLine
 10
85.741513215038751
 20
601.83164998929908
 30
0.0
 11
835.74151321503905
 21
601.83164998929885
 31
0.0
  0
LINE
  5
5E
100
AcDbEntity
  8
0
  6
Continuous
 62
               6
100
AcDbLine
 10
85.741513215038751
 20
591.63164998929904
 30
0.0
 11
267.02721622489469
 21
591.63164998929904
 31
0.0
  0
LINE
  5
5F
100
AcDbEntity
  8
0
  6
Continuous
 62
               6
100
AcDbLine
 10
85.741513215038751
 20
554.63164998929858
 30
0.0
 11
835.74151321503905
 21
554.63164998929858
 31
0.0
  0
LINE
  5
60
100
AcDbEntity
  8
0
  6
Continuous
 62
               7
100
AcDbLine
 10
603.53676166578782
 20
550.45943391501908
 30
0.0
 11
579.75125998273347
 21
551.29004193653884
 31
0.0
  0
LINE
  5
61
100
AcDbEntity
  8
0
  6
Continuous
 62
               7
100
AcDbLine
 10
579.22776753219568
 20
536.29917953125232
 30
0.0
 11
579.75125998273347
 21
551.29004193653884
 31
0.0
  0
LINE
  5
62
100
AcDbEntity
  8
0
  6
Continuous
 62
               7
100
AcDbLine
 10
603.01326921525003
 20
535.46857150973256
 30
0.0
 11
603.53676166578782
 21
550.45943391501908
 31
0.0
  0
LINE
  5
63
100
AcDbEntity
  8
0
  6
Continuous
 62
               7
100
AcDbLine
 10
618.72750223647824
 20
549.92896156514064
 30
0.0
 11
618.4134067661555
 21
540.9344441219688
 31
0.0
  0
LINE
  5
64
100
AcDbEntity
  8
0
  6
Continuous
 62
               7
100
AcDbLine
 10
621.92555288293931
 20
549.81728317569264
 30
0.0
 11
621.56519870908335
 21
539.49808978160058
 31
0.0
  0
LINE
  5
65
100
AcDbEntity
  8
0
  6
Continuous
 62
               7
100
AcDbLine
 10
618.72750223647824
 20
549.92896156514064
 30
0.0
 11
621.92555288293931
 21
549.81728317569264
 31
0.0
  0
LINE
  5
66
100
AcDbEntity
  8
0
  6
Continuous
 62
               7
100
AcDbLine
 10
599.91039824408529
 20
532.57509751878274
 30
0.0
 11
582.12124152314539
 21
533.19630856008746
 31
0.0
  0
LINE
  5
67
100
AcDbEntity
  8
0
  6
Continuous
 62
               7
100
AcDbLine
 10
606.2113198617111
 20
535.35689312028433
 30
0.0
 11
612.20766482382578
 21
535.14749614006928
 31
0.0
  0
LINE
  5
68
100
AcDbEntity
  8
0
  6
Continuous
 62
               7
100
AcDbLine
 10
606.09964147226322
 20
532.15884247382337
 30
0.0
 11
613.4206623852981
 21
531.90318679007476
 31
0.0
  0
LINE
  5
69
100
AcDbEntity
  8
0
  6
Continuous
 62
               7
100
AcDbLine
 10
582.12124152314539
 20
533.19630856008746
 30
0.0
 11
579.22776753219568
 21
536.29917953125232
 31
0.0
  0
LINE
  5
6A
100
AcDbEntity
  8
0
  6
Continuous
 62
               7
100
AcDbLine
 10
599.91039824408529
 20
532.57509751878274
 30
0.0
 11
603.01326921525003
 21
535.46857150973256
 31
0.0
  0
LINE
  5
6B
100
AcDbEntity
  8
0
  6
Continuous
 62
               7
100
AcDbLine
 10
606.62313392280089
 20
547.14970487910966
 30
0.0
 11
606.2113198617111
 21
535.35689312028433
 31
0.0
  0
LINE
  5
6C
100
AcDbEntity
  8
0
  6
Continuous
 62
               7
100
AcDbLine
 10
603.3971636789779
 20
546.46187060694251
 30
0.0
 11
606.59521432543886
 21
546.35019221749462
 31
0.0
  0
LINE
  5
6D
100
AcDbEntity
  8
0
  6
DASHED
 62
               7
100
AcDbLine
 10
579.63958159328536
 20
548.09199129007766
 30
0.0
 11
603.42508327633971
 21
547.26138326855778
 31
0.0
  0
LINE
  5
6E
100
AcDbEntity
  8
0
  6
Continuous
 62
               7
100
AcDbLine
 10
612.20766482382578
 20
535.14749614006928
 30
0.0
 11
618.4134067661555
 21
540.9344441219688
 31
0.0
  0
LINE
  5
6F
100
AcDbEntity
  8
0
  6
Continuous
 62
               7
100
AcDbLine
 10
613.4206623852981
 20
531.90318679007476
 30
0.0
 11
621.56519870908335
 21
539.49808978160058
 31
0.0
  0
LINE
  5
70
100
AcDbEntity
  8
0
  6
DASHED
 62
               7
100
AcDbLine
 10
591.63227151751448
 20
547.17319732964745
 30
0.0
 11
591.74394990696248
 21
550.37124797610863
 31
0.0
  0
LINE
  5
71
100
AcDbEntity
  8
0
  6
DASHED
 62
               7
100
AcDbLine
 10
599.62739813366727
 20
546.89400135602739
 30
0.0
 11
599.73907652311527
 21
550.09205200248857
 31
0.0
  0
LINE
  5
72
100
AcDbEntity
  8
0
  6
Continuous
 62
               7
100
AcDbLine
 10
587.24151321503894
 20
556.2316499892986
 30
0.0
 11
587.24151321503894
 21
554.63164998929858
 31
0.0
  0
LINE
  5
73
100
AcDbEntity
  8
0
  6
Continuous
 62
               7
100
AcDbLine
 10
604.24151321503928
 20
556.2316499892986
 30
0.0
 11
604.24151321503928
 21
554.63164998929858
 31
0.0
  0
LINE
  5
74
100
AcDbEntity
  8
0
  6
Continuous
 62
               7
100
AcDbLine
 10
587.24151321503894
 20
556.2316499892986
 30
0.0
 11
604.24151321503928
 21
556.2316499892986
 31
0.0
  0
LINE
  5
75
100
AcDbEntity
  8
0
  6
Continuous
 62
               7
100
AcDbLine
 10
588.49151321503894
 20
558.2316499892986
 30
0.0
 11
588.49151321503894
 21
556.2316499892986
 31
0.0
  0
LINE
  5
76
100
AcDbEntity
  8
0
  6
Continuous
 62
               7
100
AcDbLine
 10
602.99151321503928
 20
558.2316499892986
 30
0.0
 11
602.99151321503928
 21
556.2316499892986
 31
0.0
  0
LINE
  5
77
100
AcDbEntity
  8
0
  6
Continuous
 62
               7
100
AcDbLine
 10
588.24151321503894
 20
558.2316499892986
 30
0.0
 11
603.24151321503928
 21
558.2316499892986
 31
0.0
  0
LINE
  5
78
100
AcDbEntity
  8
0
  6
Continuous
 62
               7
100
AcDbLine
 10
603.24151321503928
 20
558.2316499892986
 30
0.0
 11
603.24151321503928
 21
564.09059732221135
 31
0.0
  0
LINE
  5
79
100
AcDbEntity
  8
0
  6
Continuous
 62
               7
100
AcDbLine
 10
601.49151321503905
 20
564.73164998929872
 30
0.0
 11
589.99151321503894
 21
564.73164998929872
 31
0.0
  0
LINE
  5
7A
100
AcDbEntity
  8
0
  6
Continuous
 62
               7
100
AcDbLine
 10
591.74151321503894
 20
558.2316499892986
 30
0.0
 11
591.74151321503894
 21
564.09059732221135
 31
0.0
  0
LINE
  5
7B
100
AcDbEntity
  8
0
  6
Continuous
 62
               7
100
AcDbLine
 10
599.74151321503894
 20
558.2316499892986
 30
0.0
 11
599.74151321503894
 21
564.09059732221135
 31
0.0
  0
LINE
  5
7C
100
AcDbEntity
  8
0
  6
Continuous
 62
               7
100
AcDbLine
 10
588.24151321503894
 20
558.2316499892986
 30
0.0
 11
588.24151321503894
 21
564.09059732221135
 31
0.0
  0
LINE
  5
7D
100
AcDbEntity
  8
0
  6
Continuous
 62
               7
100
AcDbLine
 10
599.74151321503894
 20
537.85157351784824
 30
0.0
 11
599.74151321503894
 21
552.2316499892986
 31
0.0
  0
LINE
  5
7E
100
AcDbEntity
  8
0
  6
Continuous
 62
               7
100
AcDbLine
 10
591.74151321503894
 20
537.85157351784824
 30
0.0
 11
591.74151321503894
 21
552.2316499892986
 31
0.0
  0
LINE
  5
7F
100
AcDbEntity
  8
0
  6
Continuous
 62
               7
100
AcDbLine
 10
592.74151321503894
 20
536.85157351784824
 30
0.0
 11
598.74151321503894
 21
536.85157351784824
 31
0.0
  0
LINE
  5
80
100
AcDbEntity
  8
0
  6
Continuous
 62
               7
100
AcDbLine
 10
592.74151321503894
 20
552.2316499892986
 30
0.0
 11
592.74151321503894
 21
536.85157351784824
 31
0.0
  0
LINE
  5
81
100
AcDbEntity
  8
0
  6
Continuous
 62
               7
100
AcDbLine
 10
598.74151321503894
 20
552.2316499892986
 30
0.0
 11
598.74151321503894
 21
536.85157351784824
 31
0.0
  0
LINE
  5
82
100
AcDbEntity
  8
0
  6
Continuous
 62
               7
100
AcDbLine
 10
591.74151321503894
 20
537.85157351784824
 30
0.0
 11
599.74151321503894
 21
537.85157351784824
 31
0.0
  0
LINE
  5
83
100
AcDbEntity
  8
0
  6
Continuous
 62
               7
100
AcDbLine
 10
598.74151321503894
 20
536.85157351784824
 30
0.0
 11
599.74151321503894
 21
537.85157351784824
 31
0.0
  0
LINE
  5
84
100
AcDbEntity
  8
0
  6
Continuous
 62
               7
100
AcDbLine
 10
592.74151321503894
 20
536.85157351784824
 30
0.0
 11
591.74151321503894
 21
537.85157351784824
 31
0.0
  0
LINE
  5
85
100
AcDbEntity
  8
0
  6
Continuous
 62
               7
100
AcDbLine
 10
618.58790424966799
 20
545.9313982570643
 30
0.0
 11
621.78595489612917
 21
545.81971986761619
 31
0.0
  0
LINE
  5
86
100
AcDbEntity
  8
0
  6
DASHED
 62
               6
100
AcDbLine
 10
85.741513215038751
 20
588.13164998929904
 30
0.0
 11
265.72101596805732
 21
588.13164998929904
 31
0.0
  0
LINE
  5
87
100
AcDbEntity
  8
0
  6
Continuous
 62
               6
100
AcDbLine
 10
85.741513215038751
 20
552.23164998929849
 30
0.0
 11
835.74151321503905
 21
552.2316499892986
 31
0.0
  0
LINE
  5
88
100
AcDbEntity
  8
0
  6
Continuous
 62
               6
100
AcDbLine
 10
835.74151321503905
 20
593.63156111610363
 30
0.0
 11
538.14061665631277
 21
593.63161945561626
 31
0.0
  0
LINE
  5
89
100
AcDbEntity
  8
0
  6
Continuous
 62
               3
100
AcDbLine
 10
911.74152498186243
 20
268.23164998929849
 30
0.0
 11
911.74151321503916
 21
283.23164998929849
 31
0.0
  0
LINE
  5
8A
100
AcDbEntity
  8
0
  6
Continuous
 62
               3
100
AcDbLine
 10
85.741513215038751
 20
505.23164998929849
 30
0.0
 11
845.74151321503916
 21
505.23164998929849
 31
0.0
  0
LINE
  5
8B
100
AcDbEntity
  8
0
  6
Continuous
 62
               7
100
AcDbLine
 10
85.741513215038751
 20
507.23164998929849
 30
0.0
 11
845.74151321503916
 21
507.23164998929849
 31
0.0
  0
LINE
  5
8C
100
AcDbEntity
  8
0
  6
Continuous
 62
               3
100
AcDbLine
 10
922.94151321503921
 20
295.23164998929849
 30
0.0
 11
85.741513215038751
 21
295.23164998929849
 31
0.0
  0
LINE
  5
8D
100
AcDbEntity
  8
0
  6
Continuous
 62
               3
100
AcDbLine
 10
511.74151466416026
 20
283.23165446242268
 30
0.0
 11
922.94151321503921
 21
283.23164998929849
 31
0.0
  0
LINE
  5
8E
100
AcDbEntity
  8
0
  6
Continuous
 62
               3
100
AcDbLine
 10
965.74151321503928
 20
517.23164998929849
 30
0.0
 11
965.74151321503928
 21
493.23164998929849
 31
0.0
  0
LINE
  5
8F
100
AcDbEntity
  8
0
  6
Continuous
 62
               3
100
AcDbLine
 10
845.74151321503916
 20
493.23164998929849
 30
0.0
 11
965.74151321503928
 21
493.23164998929849
 31
0.0
  0
LINE
  5
90
100
AcDbEntity
  8
0
  6
Continuous
 62
               3
100
AcDbLine
 10
845.74151321503916
 20
517.23164998929849
 30
0.0
 11
845.74151321503916
 21
493.23164998929849
 31
0.0
  0
LINE
  5
91
100
AcDbEntity
  8
0
  6
Continuous
 62
               3
100
AcDbLine
 10
911.74152498186243
 20
268.23164998929849
 30
0.0
 11
935.74151321503928
 21
268.23164998929849
 31
0.0
  0
LINE
  5
92
100
AcDbEntity
  8
0
  6
Continuous
 62
               2
100
AcDbLine
 10
968.74151321503928
 20
518.73164998929838
 30
0.0
 11
968.74151321503928
 21
469.48164998929843
 31
0.0
  0
LINE
  5
93
100
AcDbEntity
  8
0
  6
Continuous
 62
               2
100
AcDbLine
 10
868.74151321503928
 20
520.23164998929838
 30
0.0
 11
994.9915132150395
 21
520.23164998929838
 31
0.0
  0
LINE
  5
94
100
AcDbEntity
  8
0
  6
Continuous
 62
               2
100
AcDbLine
 10
968.74151321503928
 20
518.73164998929838
 30
0.0
 11
994.9915132150395
 21
518.73164998929838
 31
0.0
  0
LINE
  5
95
100
AcDbEntity
  8
0
  6
Continuous
 62
               2
100
AcDbLine
 10
964.07782688927682
 20
478.17380673156811
 30
0.0
 11
967.24151321503928
 21
469.48164998929843
 31
0.0
  0
LINE
  5
96
100
AcDbEntity
  8
0
  6
Continuous
 62
               2
100
AcDbLine
 10
976.80905732391091
 20
516.18463555552751
 30
0.0
 11
994.4915132150395
 21
517.73164998929849
 31
0.0
  0
LINE
  5
97
100
AcDbEntity
  8
0
  6
Continuous
 62
               7
100
AcDbLine
 10
965.74151321503928
 20
495.00524311810557
 30
0.0
 11
963.9679200862322
 21
493.23164998929849
 31
0.0
  0
LINE
  5
98
100
AcDbEntity
  8
0
  6
Continuous
 62
               7
100
AcDbLine
 10
965.74151321503928
 20
502.07631092997104
 30
0.0
 11
956.89685227436678
 21
493.23164998929849
 31
0.0
  0
LINE
  5
99
100
AcDbEntity
  8
0
  6
Continuous
 62
               7
100
AcDbLine
 10
965.74151321503928
 20
509.14737874183652
 30
0.0
 11
949.82578446250125
 21
493.23164998929849
 31
0.0
  0
LINE
  5
9A
100
AcDbEntity
  8
0
  6
Continuous
 62
               7
100
AcDbLine
 10
965.74151321503928
 20
516.21844655370194
 30
0.0
 11
942.75471665063571
 21
493.23164998929849
 31
0.0
  0
LINE
  5
9B
100
AcDbEntity
  8
0
  6
Continuous
 62
               7
100
AcDbLine
 10
959.6836488387703
 20
517.23164998929849
 30
0.0
 11
935.6836488387703
 21
493.23164998929849
 31
0.0
  0
LINE
  5
9C
100
AcDbEntity
  8
0
  6
Continuous
 62
               7
100
AcDbLine
 10
952.61258102690476
 20
517.23164998929849
 30
0.0
 11
928.61258102690476
 21
493.23164998929849
 31
0.0
  0
LINE
  5
9D
100
AcDbEntity
  8
0
  6
Continuous
 62
               7
100
AcDbLine
 10
945.54151321503934
 20
517.23164998929849
 30
0.0
 11
921.54151321503923
 21
493.23164998929849
 31
0.0
  0
LINE
  5
9E
100
AcDbEntity
  8
0
  6
Continuous
 62
               7
100
AcDbLine
 10
938.47044540317381
 20
517.23164998929849
 30
0.0
 11
914.47044540317381
 21
493.23164998929849
 31
0.0
  0
LINE
  5
9F
100
AcDbEntity
  8
0
  6
Continuous
 62
               7
100
AcDbLine
 10
931.39937759130839
 20
517.23164998929849
 30
0.0
 11
907.39937759130828
 21
493.23164998929849
 31
0.0
  0
LINE
  5
A0
100
AcDbEntity
  8
0
  6
Continuous
 62
               7
100
AcDbLine
 10
924.32830977944286
 20
517.23164998929849
 30
0.0
 11
900.32830977944286
 21
493.23164998929849
 31
0.0
  0
LINE
  5
A1
100
AcDbEntity
  8
0
  6
Continuous
 62
               7
100
AcDbLine
 10
917.25724196757733
 20
517.23164998929849
 30
0.0
 11
893.25724196757733
 21
493.23164998929849
 31
0.0
  0
LINE
  5
A2
100
AcDbEntity
  8
0
  6
Continuous
 62
               7
100
AcDbLine
 10
910.18617415571191
 20
517.23164998929849
 30
0.0
 11
886.18617415571191
 21
493.23164998929849
 31
0.0
  0
LINE
  5
A3
100
AcDbEntity
  8
0
  6
Continuous
 62
               7
100
AcDbLine
 10
903.11510634384638
 20
517.23164998929849
 30
0.0
 11
879.11510634384638
 21
493.23164998929849
 31
0.0
  0
LINE
  5
A4
100
AcDbEntity
  8
0
  6
Continuous
 62
               7
100
AcDbLine
 10
896.04403853198096
 20
517.23164998929849
 30
0.0
 11
872.04403853198096
 21
493.23164998929849
 31
0.0
  0
LINE
  5
A5
100
AcDbEntity
  8
0
  6
Continuous
 62
               7
100
AcDbLine
 10
888.97297072011543
 20
517.23164998929849
 30
0.0
 11
864.97297072011543
 21
493.23164998929849
 31
0.0
  0
LINE
  5
A6
100
AcDbEntity
  8
0
  6
Continuous
 62
               7
100
AcDbLine
 10
881.90190290825001
 20
517.23164998929849
 30
0.0
 11
857.90190290825001
 21
493.23164998929849
 31
0.0
  0
LINE
  5
A7
100
AcDbEntity
  8
0
  6
Continuous
 62
               7
100
AcDbLine
 10
874.83083509638448
 20
517.23164998929849
 30
0.0
 11
850.83083509638448
 21
493.23164998929849
 31
0.0
  0
LINE
  5
A8
100
AcDbEntity
  8
0
  6
Continuous
 62
               7
100
AcDbLine
 10
867.75976728451906
 20
517.23164998929849
 30
0.0
 11
845.74151321503916
 21
495.21339591981865
 31
0.0
  0
LINE
  5
A9
100
AcDbEntity
  8
0
  6
Continuous
 62
               7
100
AcDbLine
 10
860.68869947265352
 20
517.23164998929849
 30
0.0
 11
845.74151321503916
 21
502.28446373168413
 31
0.0
  0
LINE
  5
AA
100
AcDbEntity
  8
0
  6
Continuous
 62
               7
100
AcDbLine
 10
853.61763166078811
 20
517.23164998929849
 30
0.0
 11
845.74151321503916
 21
509.3555315435496
 31
0.0
  0
LINE
  5
AB
100
AcDbEntity
  8
0
  6
Continuous
 62
               7
100
AcDbLine
 10
846.54656384892257
 20
517.23164998929849
 30
0.0
 11
845.74151321503916
 21
516.42659935541508
 31
0.0
  0
LINE
  5
AC
100
AcDbEntity
  8
0
  6
Continuous
 62
               7
100
AcDbLine
 10
935.74151321503928
 20
355.64990405877819
 30
0.0
 11
911.74151321503916
 21
379.64990405877825
 31
0.0
  0
LINE
  5
AD
100
AcDbEntity
  8
0
  6
Continuous
 62
               7
100
AcDbLine
 10
911.74151321503916
 20
393.7920396825092
 30
0.0
 11
935.74151321503928
 21
369.7920396825092
 31
0.0
  0
LINE
  5
AE
100
AcDbEntity
  8
0
  6
Continuous
 62
               7
100
AcDbLine
 10
935.74151321503928
 20
376.86310749437467
 30
0.0
 11
911.74151321503916
 21
400.86310749437462
 31
0.0
  0
LINE
  5
AF
100
AcDbEntity
  8
0
  6
Continuous
 62
               7
100
AcDbLine
 10
912.3729707201154
 20
400.23164998929849
 30
0.0
 11
911.74151321503916
 21
400.86310749437467
 31
0.0
  0
LINE
  5
B0
100
AcDbEntity
  8
0
  6
Continuous
 62
               7
100
AcDbLine
 10
911.74151321503916
 20
407.93417530624015
 30
0.0
 11
935.74151321503928
 21
383.93417530624015
 31
0.0
  0
LINE
  5
B1
100
AcDbEntity
  8
0
  6
Continuous
 62
               7
100
AcDbLine
 10
935.74151321503928
 20
391.00524311810562
 30
0.0
 11
911.74151321503916
 21
415.00524311810562
 31
0.0
  0
LINE
  5
B2
100
AcDbEntity
  8
0
  6
Continuous
 62
               7
100
AcDbLine
 10
935.74151321503928
 20
398.0763109299711
 30
0.0
 11
911.74151321503916
 21
422.0763109299711
 31
0.0
  0
LINE
  5
B3
100
AcDbEntity
  8
0
  6
Continuous
 62
               7
100
AcDbLine
 10
935.74151321503928
 20
405.14737874183658
 30
0.0
 11
911.74151321503916
 21
429.14737874183658
 31
0.0
  0
LINE
  5
B4
100
AcDbEntity
  8
0
  6
Continuous
 62
               7
100
AcDbLine
 10
935.74151321503928
 20
412.21844655370205
 30
0.0
 11
911.74151321503916
 21
436.21844655370205
 31
0.0
  0
LINE
  5
B5
100
AcDbEntity
  8
0
  6
Continuous
 62
               7
100
AcDbLine
 10
935.74151321503928
 20
419.28951436556753
 30
0.0
 11
911.74151321503916
 21
443.28951436556753
 31
0.0
  0
LINE
  5
B6
100
AcDbEntity
  8
0
  6
Continuous
 62
               7
100
AcDbLine
 10
935.74151321503928
 20
426.360582177433
 30
0.0
 11
911.74151321503916
 21
450.360582177433
 31
0.0
  0
LINE
  5
B7
100
AcDbEntity
  8
0
  6
Continuous
 62
               7
100
AcDbLine
 10
935.74151321503928
 20
433.43164998929848
 30
0.0
 11
911.74151321503916
 21
457.43164998929848
 31
0.0
  0
LINE
  5
B8
100
AcDbEntity
  8
0
  6
Continuous
 62
               7
100
AcDbLine
 10
935.74151321503928
 20
440.50271780116395
 30
0.0
 11
911.74151321503916
 21
464.50271780116395
 31
0.0
  0
LINE
  5
B9
100
AcDbEntity
  8
0
  6
Continuous
 62
               7
100
AcDbLine
 10
935.74151321503928
 20
447.57378561302943
 30
0.0
 11
911.74151321503916
 21
471.57378561302943
 31
0.0
  0
LINE
  5
BA
100
AcDbEntity
  8
0
  6
Continuous
 62
               7
100
AcDbLine
 10
935.74151321503928
 20
454.6448534248949
 30
0.0
 11
911.74151321503916
 21
478.6448534248949
 31
0.0
  0
LINE
  5
BB
100
AcDbEntity
  8
0
  6
Continuous
 62
               7
100
AcDbLine
 10
935.74151321503928
 20
461.71592123676038
 30
0.0
 11
911.74151321503916
 21
485.71592123676038
 31
0.0
  0
LINE
  5
BC
100
AcDbEntity
  8
0
  6
Continuous
 62
               7
100
AcDbLine
 10
935.74151321503928
 20
468.78698904862586
 30
0.0
 11
911.74151321503916
 21
492.78698904862586
 31
0.0
  0
LINE
  5
BD
100
AcDbEntity
  8
0
  6
Continuous
 62
               7
100
AcDbLine
 10
935.74151321503928
 20
475.85805686049133
 30
0.0
 11
918.36792008623206
 21
493.23164998929849
 31
0.0
  0
LINE
  5
BE
100
AcDbEntity
  8
0
  6
Continuous
 62
               7
100
AcDbLine
 10
935.74151321503928
 20
482.92912467235681
 30
0.0
 11
925.43898789809759
 21
493.23164998929849
 31
0.0
  0
LINE
  5
BF
100
AcDbEntity
  8
0
  6
Continuous
 62
               7
100
AcDbLine
 10
935.74151321503928
 20
490.00019248422228
 30
0.0
 11
932.51005570996301
 21
493.23164998929849
 31
0.0
  0
LINE
  5
C0
100
AcDbEntity
  8
0
  6
Continuous
 62
               7
100
AcDbLine
 10
511.74151321503894
 20
286.23164998929849
 30
0.0
 11
922.94151321503921
 21
286.23164998929849
 31
0.0
  0
LINE
  5
C1
100
AcDbEntity
  8
0
  6
Continuous
 62
               7
100
AcDbLine
 10
511.74151321503894
 20
289.23164998929849
 30
0.0
 11
922.94151321503921
 21
289.23164998929849
 31
0.0
  0
LINE
  5
C2
100
AcDbEntity
  8
0
  6
Continuous
 62
               7
100
AcDbLine
 10
511.74151321503894
 20
292.23164998929849
 30
0.0
 11
922.94151321503921
 21
292.23164998929849
 31
0.0
  0
LINE
  5
C3
100
AcDbEntity
  8
0
  6
Continuous
 62
               4
100
AcDbLine
 10
635.74151321503894
 20
555.7316499892986
 30
0.0
 11
635.74151321503894
 21
667.83164998929885
 31
0.0
  0
LINE
  5
C4
100
AcDbEntity
  8
0
  6
Continuous
 62
               4
100
AcDbLine
 10
835.74151321503905
 20
607.83164998929885
 30
0.0
 11
835.74151321503905
 21
646.83164998929885
 31
0.0
  0
LINE
  5
C5
100
AcDbEntity
  8
0
  6
Continuous
 62
               4
100
AcDbLine
 10
635.74151321503894
 20
643.83164998929885
 30
0.0
 11
835.74151321503905
 21
643.83164998929885
 31
0.0
  0
LINE
  5
C6
100
AcDbEntity
  8
0
  6
Continuous
 62
               4
100
AcDbLine
 10
965.74151321503928
 20
523.23164998929849
 30
0.0
 11
965.74151321503928
 21
604.83164998929885
 31
0.0
  0
LINE
  5
C7
100
AcDbEntity
  8
0
  6
Continuous
 62
               4
100
AcDbLine
 10
835.74151321503905
 20
643.83164998929885
 30
0.0
 11
995.74151321503928
 21
643.83164998929885
 31
0.0
  0
LINE
  5
C8
100
AcDbEntity
  8
0
  6
Continuous
 62
               4
100
AcDbLine
 10
995.7415132150395
 20
525.48164998929838
 30
0.0
 11
995.7415132150395
 21
667.83164998929885
 31
0.0
  0
LINE
  5
C9
100
AcDbEntity
  8
0
  6
Continuous
 62
               4
100
AcDbLine
 10
965.74151321503928
 20
601.83164998929885
 30
0.0
 11
995.7415132150395
 21
601.83164998929885
 31
0.0
  0
LINE
  5
CA
100
AcDbEntity
  8
0
  6
Continuous
 62
               4
100
AcDbLine
 10
635.74151321503894
 20
664.83164998929885
 30
0.0
 11
995.74151321503928
 21
664.83164998929885
 31
0.0
  0
LINE
  5
CB
100
AcDbEntity
  8
0
  6
Continuous
 62
               4
100
AcDbLine
 10
1000.9915132150395
 20
518.73164998929838
 30
0.0
 11
1019.7415132150395
 21
518.73164998929838
 31
0.0
  0
LINE
  5
CC
100
AcDbEntity
  8
0
  6
Continuous
 62
               4
100
AcDbLine
 10
973.99151321503939
 20
468.73164998929843
 30
0.0
 11
1019.7415132150395
 21
468.73164998929843
 31
0.0
  0
LINE
  5
CD
100
AcDbEntity
  8
0
  6
Continuous
 62
               4
100
AcDbLine
 10
1016.7415132150395
 20
518.73164998929838
 30
0.0
 11
1016.7415132150395
 21
468.73164998929843
 31
0.0
  0
LINE
  5
CE
100
AcDbEntity
  8
0
  6
DASHDOT
 62
               7
100
AcDbLine
 10
595.74151321503894
 20
533.85157351784824
 30
0.0
 11
595.74151321503894
 21
567.73164998929872
 31
0.0
  0
LINE
  5
CF
100
AcDbEntity
  8
0
  6
Continuous
 62
               4
100
AcDbLine
 10
235.74151321503874
 20
557.23164998929849
 30
0.0
 11
235.74151321503874
 21
667.83164998929885
 31
0.0
  0
LINE
  5
D0
100
AcDbEntity
  8
0
  6
Continuous
 62
               4
100
AcDbLine
 10
635.74153376717561
 20
664.83162902706306
 30
0.0
 11
235.74151321503874
 21
664.83164998929885
 31
0.0
  0
LINE
  5
D1
100
AcDbEntity
  8
0
  6
Continuous
 62
               7
100
AcDbLine
 10
203.53676166578791
 20
550.45943391501908
 30
0.0
 11
179.7512599827335
 21
551.29004193653884
 31
0.0
  0
LINE
  5
D2
100
AcDbEntity
  8
0
  6
Continuous
 62
               7
100
AcDbLine
 10
179.22776753219574
 20
536.29917953125232
 30
0.0
 11
179.7512599827335
 21
551.29004193653884
 31
0.0
  0
LINE
  5
D3
100
AcDbEntity
  8
0
  6
Continuous
 62
               7
100
AcDbLine
 10
203.01326921525012
 20
535.46857150973256
 30
0.0
 11
203.53676166578791
 21
550.45943391501908
 31
0.0
  0
LINE
  5
D4
100
AcDbEntity
  8
0
  6
Continuous
 62
               7
100
AcDbLine
 10
218.7275022364783
 20
549.92896156514064
 30
0.0
 11
218.4134067661555
 21
540.9344441219688
 31
0.0
  0
LINE
  5
D5
100
AcDbEntity
  8
0
  6
Continuous
 62
               7
100
AcDbLine
 10
221.92555288293934
 20
549.81728317569264
 30
0.0
 11
221.56519870908335
 21
539.49808978160058
 31
0.0
  0
LINE
  5
D6
100
AcDbEntity
  8
0
  6
Continuous
 62
               7
100
AcDbLine
 10
218.7275022364783
 20
549.92896156514064
 30
0.0
 11
221.92555288293934
 21
549.81728317569264
 31
0.0
  0
LINE
  5
D7
100
AcDbEntity
  8
0
  6
Continuous
 62
               7
100
AcDbLine
 10
199.91039824408534
 20
532.57509751878274
 30
0.0
 11
182.12124152314544
 21
533.19630856008746
 31
0.0
  0
LINE
  5
D8
100
AcDbEntity
  8
0
  6
Continuous
 62
               7
100
AcDbLine
 10
206.21131986171119
 20
535.35689312028433
 30
0.0
 11
212.20766482382581
 21
535.14749614006928
 31
0.0
  0
LINE
  5
D9
100
AcDbEntity
  8
0
  6
Continuous
 62
               7
100
AcDbLine
 10
206.09964147226324
 20
532.15884247382337
 30
0.0
 11
213.4206623852981
 21
531.90318679007476
 31
0.0
  0
LINE
  5
DA
100
AcDbEntity
  8
0
  6
Continuous
 62
               7
100
AcDbLine
 10
182.12124152314544
 20
533.19630856008746
 30
0.0
 11
179.22776753219574
 21
536.29917953125232
 31
0.0
  0
LINE
  5
DB
100
AcDbEntity
  8
0
  6
Continuous
 62
               7
100
AcDbLine
 10
199.91039824408534
 20
532.57509751878274
 30
0.0
 11
203.01326921525012
 21
535.46857150973256
 31
0.0
  0
LINE
  5
DC
100
AcDbEntity
  8
0
  6
Continuous
 62
               7
100
AcDbLine
 10
206.62313392280095
 20
547.14970487910966
 30
0.0
 11
206.21131986171119
 21
535.35689312028433
 31
0.0
  0
LINE
  5
DD
100
AcDbEntity
  8
0
  6
Continuous
 62
               7
100
AcDbLine
 10
203.39716367897793
 20
546.46187060694251
 30
0.0
 11
206.59521432543895
 21
546.35019221749462
 31
0.0
  0
LINE
  5
DE
100
AcDbEntity
  8
0
  6
DASHED
 62
               7
100
AcDbLine
 10
179.63958159328544
 20
548.09199129007766
 30
0.0
 11
203.42508327633979
 21
547.26138326855778
 31
0.0
  0
LINE
  5
DF
100
AcDbEntity
  8
0
  6
Continuous
 62
               7
100
AcDbLine
 10
212.20766482382581
 20
535.14749614006928
 30
0.0
 11
218.4134067661555
 21
540.9344441219688
 31
0.0
  0
LINE
  5
E0
100
AcDbEntity
  8
0
  6
Continuous
 62
               7
100
AcDbLine
 10
213.4206623852981
 20
531.90318679007476
 30
0.0
 11
221.56519870908335
 21
539.49808978160058
 31
0.0
  0
LINE
  5
E1
100
AcDbEntity
  8
0
  6
DASHED
 62
               7
100
AcDbLine
 10
191.63227151751457
 20
547.17319732964745
 30
0.0
 11
191.74394990696257
 21
550.37124797610863
 31
0.0
  0
LINE
  5
E2
100
AcDbEntity
  8
0
  6
DASHED
 62
               7
100
AcDbLine
 10
199.62739813366736
 20
546.89400135602739
 30
0.0
 11
199.73907652311536
 21
550.09205200248857
 31
0.0
  0
LINE
  5
E3
100
AcDbEntity
  8
0
  6
Continuous
 62
               7
100
AcDbLine
 10
187.24151321503896
 20
556.2316499892986
 30
0.0
 11
187.24151321503896
 21
554.63164998929858
 31
0.0
  0
LINE
  5
E4
100
AcDbEntity
  8
0
  6
Continuous
 62
               7
100
AcDbLine
 10
204.24151321503936
 20
556.2316499892986
 30
0.0
 11
204.24151321503936
 21
554.63164998929858
 31
0.0
  0
LINE
  5
E5
100
AcDbEntity
  8
0
  6
Continuous
 62
               7
100
AcDbLine
 10
187.24151321503896
 20
556.2316499892986
 30
0.0
 11
204.24151321503936
 21
556.2316499892986
 31
0.0
  0
LINE
  5
E6
100
AcDbEntity
  8
0
  6
Continuous
 62
               7
100
AcDbLine
 10
188.49151321503896
 20
558.2316499892986
 30
0.0
 11
188.49151321503896
 21
556.2316499892986
 31
0.0
  0
LINE
  5
E7
100
AcDbEntity
  8
0
  6
Continuous
 62
               7
100
AcDbLine
 10
202.99151321503936
 20
558.2316499892986
 30
0.0
 11
202.99151321503936
 21
556.2316499892986
 31
0.0
  0
LINE
  5
E8
100
AcDbEntity
  8
0
  6
Continuous
 62
               7
100
AcDbLine
 10
188.24151321503896
 20
558.2316499892986
 30
0.0
 11
203.24151321503936
 21
558.2316499892986
 31
0.0
  0
LINE
  5
E9
100
AcDbEntity
  8
0
  6
Continuous
 62
               7
100
AcDbLine
 10
203.24151321503936
 20
558.2316499892986
 30
0.0
 11
203.24151321503936
 21
564.09059732221135
 31
0.0
  0
LINE
  5
EA
100
AcDbEntity
  8
0
  6
Continuous
 62
               7
100
AcDbLine
 10
201.49151321503908
 20
564.73164998929872
 30
0.0
 11
189.99151321503896
 21
564.73164998929872
 31
0.0
  0
LINE
  5
EB
100
AcDbEntity
  8
0
  6
Continuous
 62
               7
100
AcDbLine
 10
191.74151321503896
 20
558.2316499892986
 30
0.0
 11
191.74151321503896
 21
564.09059732221135
 31
0.0
  0
LINE
  5
EC
100
AcDbEntity
  8
0
  6
Continuous
 62
               7
100
AcDbLine
 10
199.74151321503896
 20
558.2316499892986
 30
0.0
 11
199.74151321503896
 21
564.09059732221135
 31
0.0
  0
LINE
  5
ED
100
AcDbEntity
  8
0
  6
Continuous
 62
               7
100
AcDbLine
 10
188.24151321503896
 20
558.2316499892986
 30
0.0
 11
188.24151321503896
 21
564.09059732221135
 31
0.0
  0
LINE
  5
EE
100
AcDbEntity
  8
0
  6
Continuous
 62
               7
100
AcDbLine
 10
199.74151321503896
 20
537.85157351784824
 30
0.0
 11
199.74151321503896
 21
552.2316499892986
 31
0.0
  0
LINE
  5
EF
100
AcDbEntity
  8
0
  6
Continuous
 62
               7
100
AcDbLine
 10
191.74151321503896
 20
537.85157351784824
 30
0.0
 11
191.74151321503896
 21
552.2316499892986
 31
0.0
  0
LINE
  5
F0
100
AcDbEntity
  8
0
  6
Continuous
 62
               7
100
AcDbLine
 10
192.74151321503896
 20
536.85157351784824
 30
0.0
 11
198.74151321503896
 21
536.85157351784824
 31
0.0
  0
LINE
  5
F1
100
AcDbEntity
  8
0
  6
Continuous
 62
               7
100
AcDbLine
 10
192.74151321503896
 20
552.2316499892986
 30
0.0
 11
192.74151321503896
 21
536.85157351784824
 31
0.0
  0
LINE
  5
F2
100
AcDbEntity
  8
0
  6
Continuous
 62
               7
100
AcDbLine
 10
198.74151321503896
 20
552.2316499892986
 30
0.0
 11
198.74151321503896
 21
536.85157351784824
 31
0.0
  0
LINE
  5
F3
100
AcDbEntity
  8
0
  6
Continuous
 62
               7
100
AcDbLine
 10
191.74151321503896
 20
537.85157351784824
 30
0.0
 11
199.74151321503896
 21
537.85157351784824
 31
0.0
  0
LINE
  5
F4
100
AcDbEntity
  8
0
  6
Continuous
 62
               7
100
AcDbLine
 10
198.74151321503896
 20
536.85157351784824
 30
0.0
 11
199.74151321503896
 21
537.85157351784824
 31
0.0
  0
LINE
  5
F5
100
AcDbEntity
  8
0
  6
Continuous
 62
               7
100
AcDbLine
 10
192.74151321503896
 20
536.85157351784824
 30
0.0
 11
191.74151321503896
 21
537.85157351784824
 31
0.0
  0
LINE
  5
F6
100
AcDbEntity
  8
0
  6
Continuous
 62
               7
100
AcDbLine
 10
218.58790424966807
 20
545.9313982570643
 30
0.0
 11
221.78595489612923
 21
545.81971986761619
 31
0.0
  0
LINE
  5
F7
100
AcDbEntity
  8
0
  6
DASHDOT
 62
               7
100
AcDbLine
 10
195.74151321503896
 20
533.85157351784824
 30
0.0
 11
195.74151321503896
 21
567.73164998929872
 31
0.0
  0
LINE
  5
F8
100
AcDbEntity
  8
0
  6
Continuous
 62
               2
100
AcDbLine
 10
235.74151321503896
 20
520.23164998929849
 30
0.0
 11
275.74151321503899
 21
520.23164998929849
 31
0.0
  0
LINE
  5
F9
100
AcDbEntity
  8
0
  6
Continuous
 62
               3
100
AcDbLine
 10
566.74151321503894
 20
400.23164998929849
 30
0.0
 11
611.74151321503894
 21
400.23164998929849
 31
0.0
  0
LINE
  5
FA
100
AcDbEntity
  8
0
  6
Continuous
 62
               3
100
AcDbLine
 10
911.74151321503916
 20
400.23164998929849
 30
0.0
 11
85.741513215038751
 21
400.23164998929849
 31
0.0
  0
LINE
  5
FB
100
AcDbEntity
  8
0
  6
Continuous
 62
               4
100
AcDbLine
 10
235.74150170498652
 20
664.83164998929885
 30
0.0
 11
85.741513215038751
 21
664.83164998929885
 31
0.0
  0
LINE
  5
FC
100
AcDbEntity
  8
0
  6
Continuous
 62
               4
100
AcDbLine
 10
85.741513215038751
 20
664.83164998929885
 30
0.0
 11
97.741513215038751
 21
666.94757375780046
 31
0.0
  0
LINE
  5
FD
100
AcDbEntity
  8
0
  6
Continuous
 62
               4
100
AcDbLine
 10
97.741513215038751
 20
666.94757375780046
 30
0.0
 11
101.74151321503875
 21
656.83164998929885
 31
0.0
  0
LINE
  5
FE
100
AcDbEntity
  8
0
  6
Continuous
 62
               3
100
AcDbLine
 10
566.74151321503894
 20
400.23164998929849
 30
0.0
 11
566.74151321503894
 21
505.23164998929849
 31
0.0
  0
LINE
  5
FF
100
AcDbEntity
  8
0
  6
Continuous
 62
               3
100
AcDbLine
 10
611.74151321503894
 20
400.23164998929849
 30
0.0
 11
611.74151321503894
 21
505.23164998929849
 31
0.0
  0
LINE
  5
100
100
AcDbEntity
  8
0
  6
Continuous
 62
               3
100
AcDbLine
 10
381.74151321503894
 20
295.23164998929849
 30
0.0
 11
381.74151321503894
 21
190.23164998929849
 31
0.0
  0
LINE
  5
101
100
AcDbEntity
  8
0
  6
Continuous
 62
               3
100
AcDbLine
 10
381.74151321503894
 20
190.23164998929849
 30
0.0
 11
486.74151321503894
 21
190.23164998929849
 31
0.0
  0
LINE
  5
102
100
AcDbEntity
  8
0
  6
Continuous
 62
               6
100
AcDbLine
 10
381.74151321503894
 20
190.23164998929849
 30
0.0
 11
486.74151321503894
 21
295.23164998929849
 31
0.0
  0
LINE
  5
103
100
AcDbEntity
  8
0
  6
Continuous
 62
               6
100
AcDbLine
 10
486.74151321503894
 20
190.23164998929849
 30
0.0
 11
381.74151321503894
 21
295.23164998929849
 31
0.0
  0
LINE
  5
104
100
AcDbEntity
  8
0
  6
Continuous
 62
               3
100
AcDbLine
 10
111.74151321503898
 20
400.23164998929849
 30
0.0
 11
156.74151321503896
 21
400.23164998929849
 31
0.0
  0
LINE
  5
105
100
AcDbEntity
  8
0
  6
Continuous
 62
               3
100
AcDbLine
 10
111.74151321503898
 20
400.23164998929849
 30
0.0
 11
111.74151321503898
 21
505.23164998929849
 31
0.0
  0
LINE
  5
106
100
AcDbEntity
  8
0
  6
Continuous
 62
               3
100
AcDbLine
 10
156.74151321503896
 20
400.23164998929849
 30
0.0
 11
156.74151321503896
 21
505.23164998929849
 31
0.0
  0
LINE
  5
107
100
AcDbEntity
  8
0
  6
Continuous
 62
               7
100
AcDbLine
 10
491.74151321503894
 20
295.23164998929849
 30
0.0
 11
491.74151321503894
 21
113.23164998929849
 31
0.0
  0
LINE
  5
108
100
AcDbEntity
  8
0
  6
Continuous
 62
               7
100
AcDbLine
 10
506.74151321503894
 20
295.23164998929849
 30
0.0
 11
506.74151321503894
 21
113.23164998929849
 31
0.0
  0
LINE
  5
109
100
AcDbEntity
  8
0
  6
Continuous
 62
               4
100
AcDbLine
 10
968.74151321503928
 20
499.10664998929843
 30
0.0
 11
1003.5990357173631
 21
438.73164998929843
 31
0.0
  0
LINE
  5
10A
100
AcDbEntity
  8
0
  6
Continuous
 62
               4
100
AcDbLine
 10
968.74151321503928
 20
499.10664998929843
 30
0.0
 11
971.81969450497036
 21
490.64941640222526
 31
0.0
  0
LINE
  5
10B
100
AcDbEntity
  8
0
  6
Continuous
 62
               4
100
AcDbLine
 10
968.74151321503928
 20
499.10664998929843
 30
0.0
 11
974.52660170221816
 21
492.21225000122763
 31
0.0
  0
LINE
  5
10C
100
AcDbEntity
  8
0
  6
Continuous
 62
               4
100
AcDbLine
 10
923.74151321503916
 20
418.23164998929849
 30
0.0
 11
959.82590503939082
 21
355.73164998929843
 31
0.0
  0
LINE
  5
10D
100
AcDbEntity
  8
0
  6
Continuous
 62
               4
100
AcDbLine
 10
923.74151321503916
 20
418.23164998929849
 30
0.0
 11
929.52660170221804
 21
411.33725000122769
 31
0.0
  0
LINE
  5
10E
100
AcDbEntity
  8
0
  6
Continuous
 62
               4
100
AcDbLine
 10
923.74151321503916
 20
418.23164998929849
 30
0.0
 11
926.81969450497024
 21
409.77441640222531
 31
0.0
  0
LINE
  5
10F
100
AcDbEntity
  8
0
  6
Continuous
 62
               4
100
AcDbLine
 10
1003.5990357173631
 20
438.73164998929843
 30
0.0
 11
1181.9126140344515
 21
438.73164998929843
 31
0.0
  0
LINE
  5
110
100
AcDbEntity
  8
0
  6
Continuous
 62
               4
100
AcDbLine
 10
959.82592483613291
 20
355.73164998929849
 30
0.0
 11
1050.1073724487512
 21
355.73164998929843
 31
0.0
  0
LINE
  5
111
100
AcDbEntity
  8
0
  6
Continuous
 62
               4
100
AcDbLine
 10
589.24151321503894
 20
445.23164998929843
 30
0.0
 11
537.56866412256738
 21
355.73164998929838
 31
0.0
  0
LINE
  5
112
100
AcDbEntity
  8
0
  6
Continuous
 62
               4
100
AcDbLine
 10
537.56866412256738
 20
355.73164998929838
 30
0.0
 11
451.66903627376456
 21
355.73164998929843
 31
0.0
  0
LINE
  5
113
100
AcDbEntity
  8
0
  6
Continuous
 62
               6
100
AcDbLine
 10
111.74151321503898
 20
505.23164998929849
 30
0.0
 11
156.74151321503896
 21
400.23164998929849
 31
0.0
  0
LINE
  5
114
100
AcDbEntity
  8
0
  6
Continuous
 62
               6
100
AcDbLine
 10
566.74151321503894
 20
505.23164998929849
 30
0.0
 11
611.74151321503894
 21
400.23164998929849
 31
0.0
  0
LINE
  5
115
100
AcDbEntity
  8
0
  6
Continuous
 62
               4
100
AcDbLine
 10
595.74151321503894
 20
564.73164998929872
 30
0.0
 11
558.15601069079412
 21
629.83164998929897
 31
0.0
  0
LINE
  5
116
100
AcDbEntity
  8
0
  6
Continuous
 62
               4
100
AcDbLine
 10
579.48951375746458
 20
543.79461073389564
 30
0.0
 11
541.94036163606131
 21
608.83164998929897
 31
0.0
  0
LINE
  5
117
100
AcDbEntity
  8
0
  6
Continuous
 62
               4
100
AcDbLine
 10
185.74151321503896
 20
577.03164998929878
 30
0.0
 11
159.29887088615405
 21
622.83164998929897
 31
0.0
  0
LINE
  5
118
100
AcDbEntity
  8
0
  6
Continuous
 62
               4
100
AcDbLine
 10
99.298870886154063
 20
622.83164998929897
 30
0.0
 11
159.29887088615405
 21
622.83164998929897
 31
0.0
  0
LINE
  5
119
100
AcDbEntity
  8
0
  6
Continuous
 62
               4
100
AcDbLine
 10
491.94036163606131
 20
608.83164998929897
 30
0.0
 11
541.94036163606131
 21
608.83164998929897
 31
0.0
  0
LINE
  5
11A
100
AcDbEntity
  8
0
  6
Continuous
 62
               4
100
AcDbLine
 10
478.15601069079418
 20
629.83164998929897
 30
0.0
 11
558.15601069079412
 21
629.83164998929897
 31
0.0
  0
LINE
  5
11B
100
AcDbEntity
  8
0
  6
Continuous
 62
               4
100
AcDbLine
 10
589.24151321503894
 20
445.23164998929843
 30
0.0
 11
586.16333192510785
 21
436.77441640222526
 31
0.0
  0
LINE
  5
11C
100
AcDbEntity
  8
0
  6
Continuous
 62
               4
100
AcDbLine
 10
589.24151321503894
 20
445.23164998929843
 30
0.0
 11
583.45642472786005
 21
438.33725000122763
 31
0.0
  0
LINE
  5
11D
100
AcDbEntity
  8
0
  6
Continuous
 62
               4
100
AcDbLine
 10
579.48951375746458
 20
543.79461073389564
 30
0.0
 11
573.7044252702857
 21
550.68901072196638
 31
0.0
  0
LINE
  5
11E
100
AcDbEntity
  8
0
  6
Continuous
 62
               4
100
AcDbLine
 10
579.48951375746458
 20
543.79461073389564
 30
0.0
 11
576.41133246753361
 21
552.25184432096876
 31
0.0
  0
LINE
  5
11F
100
AcDbEntity
  8
0
  6
Continuous
 62
               4
100
AcDbLine
 10
595.74151321503894
 20
564.73164998929872
 30
0.0
 11
589.95642472786005
 21
571.62604997736946
 31
0.0
  0
LINE
  5
120
100
AcDbEntity
  8
0
  6
Continuous
 62
               4
100
AcDbLine
 10
595.74151321503894
 20
564.73164998929872
 30
0.0
 11
592.66333192510797
 21
573.18888357637184
 31
0.0
  0
LINE
  5
121
100
AcDbEntity
  8
0
  6
Continuous
 62
               6
100
AcDbLine
 10
85.741513215038751
 20
600.63164998929915
 30
0.0
 11
835.74151321503905
 21
600.63164998929892
 31
0.0
  0
LINE
  5
122
100
AcDbEntity
  8
0
  6
Continuous
 62
               4
100
AcDbLine
 10
740.74151321503871
 20
600.63164998929915
 30
0.0
 11
740.74151321503871
 21
591.63164998929904
 31
0.0
  0
LINE
  5
123
100
AcDbEntity
  8
0
  6
Continuous
 62
               4
100
AcDbLine
 10
740.74151321503871
 20
591.63164998929904
 30
0.0
 11
740.74151321503871
 21
552.23164998929849
 31
0.0
  0
LINE
  5
124
100
AcDbEntity
  8
0
  6
Continuous
 62
               4
100
AcDbLine
 10
761.74151321503871
 20
600.63164998929915
 30
0.0
 11
761.74151321503871
 21
552.23164998929849
 31
0.0
  0
LINE
  5
125
100
AcDbEntity
  8
0
  6
Continuous
 62
               4
100
AcDbLine
 10
761.74151321503871
 20
552.23164998929849
 30
0.0
 11
761.74151321503871
 21
522.23164998929849
 31
0.0
  0
LINE
  5
126
100
AcDbEntity
  8
0
  6
Continuous
 62
               4
100
AcDbLine
 10
761.74151321503871
 20
517.23164998929849
 30
0.0
 11
761.74151321503871
 21
505.23164998929849
 31
0.0
  0
LINE
  5
127
100
AcDbEntity
  8
0
  6
Continuous
 62
               4
100
AcDbLine
 10
452.3423661761247
 20
511.23164998929849
 30
0.0
 11
326.71095005030401
 21
728.83164574604803
 31
0.0
  0
LINE
  5
128
100
AcDbEntity
  8
0
  6
Continuous
 62
               4
100
AcDbLine
 10
347.49556036999763
 20
692.8316446568183
 30
0.0
 11
76.710950050304376
 21
692.83165884744483
 31
0.0
  0
LINE
  5
129
100
AcDbEntity
  8
0
  6
Continuous
 62
               4
100
AcDbLine
 10
337.10326606740563
 20
710.83165884744483
 30
0.0
 11
76.710950050304376
 21
710.83165884744483
 31
0.0
  0
LINE
  5
12A
100
AcDbEntity
  8
0
  6
Continuous
 62
               4
100
AcDbLine
 10
76.710950050304376
 20
728.83165884744483
 30
0.0
 11
326.71095005030401
 21
728.83164574604803
 31
0.0
  0
LINE
  5
12B
100
AcDbEntity
  8
0
  6
Continuous
 62
               4
100
AcDbLine
 10
185.74151321503896
 20
577.03164998929878
 30
0.0
 11
179.95642472786014
 21
583.92604997736964
 31
0.0
  0
LINE
  5
12C
100
AcDbEntity
  8
0
  6
Continuous
 62
               4
100
AcDbLine
 10
185.74151321503896
 20
577.03164998929878
 30
0.0
 11
182.66333192510797
 21
585.48888357637202
 31
0.0
  0
LINE
  5
12D
100
AcDbEntity
  8
0
  6
Continuous
 62
               4
100
AcDbLine
 10
585.74151321503905
 20
727.83164998929885
 30
0.0
 11
835.74151321503905
 21
727.83164998929885
 31
0.0
  0
LINE
  5
12E
100
AcDbEntity
  8
0
  6
Continuous
 62
               4
100
AcDbLine
 10
835.74151321503905
 20
685.83164998929885
 30
0.0
 11
835.74151321503905
 21
730.83164998929885
 31
0.0
  0
LINE
  5
12F
100
AcDbEntity
  8
0
  6
Continuous
 62
               4
100
AcDbLine
 10
585.74151321503905
 20
727.83164998929885
 30
0.0
 11
597.74151321503905
 21
729.94757375780046
 31
0.0
  0
LINE
  5
130
100
AcDbEntity
  8
0
  6
Continuous
 62
               4
100
AcDbLine
 10
597.74151321503905
 20
729.94757375780046
 30
0.0
 11
601.74151321503905
 21
719.83164998929885
 31
0.0
  0
LINE
  5
131
100
AcDbEntity
  8
0
  6
Continuous
 62
               6
100
AcDbLine
 10
537.02721622489469
 20
591.63164998929904
 30
0.0
 11
835.74151321503905
 21
591.63164998929881
 31
0.0
  0
LINE
  5
132
100
AcDbEntity
  8
0
  6
DASHED
 62
               6
100
AcDbLine
 10
535.72101596805726
 20
588.13164998929904
 30
0.0
 11
835.74151321503905
 21
588.13164998929881
 31
0.0
  0
LINE
  5
133
100
AcDbEntity
  8
0
  6
Continuous
 62
               6
100
AcDbLine
 10
268.14064170113301
 20
593.63165894174324
 30
0.0
 11
85.741514293230097
 21
593.63170814064176
 31
0.0
  0
LINE
  5
134
100
AcDbEntity
  8
0
  6
Continuous
 62
               4
100
AcDbLine
 10
376.27128138297098
 20
577.63164998929858
 30
0.0
 11
350.17505267794439
 21
622.83164399234204
 31
0.0
  0
LINE
  5
135
100
AcDbEntity
  8
0
  6
Continuous
 62
               4
100
AcDbLine
 10
350.17505267794439
 20
622.83164399234204
 30
0.0
 11
256.30179463534
 21
622.83164891182514
 31
0.0
  0
LINE
  5
136
100
AcDbEntity
  8
0
  6
Continuous
 62
               4
100
AcDbLine
 10
376.27128138297098
 20
577.63164998929858
 30
0.0
 11
370.48619289579216
 21
584.52604997736933
 31
0.0
  0
LINE
  5
137
100
AcDbEntity
  8
0
  6
Continuous
 62
               4
100
AcDbLine
 10
376.27128138297098
 20
577.63164998929858
 30
0.0
 11
373.19310009303996
 21
586.0888835763717
 31
0.0
  0
LINE
  5
138
100
AcDbEntity
  8
0
  6
Continuous
 62
               7
100
AcDbLine
 10
534.54259512931537
 20
564.63164998929858
 30
0.0
 11
524.54259512931537
 21
554.63164998929858
 31
0.0
  0
LINE
  5
139
100
AcDbEntity
  8
0
  6
Continuous
 62
               7
100
AcDbLine
 10
530.29995444219605
 20
564.63164998929858
 30
0.0
 11
520.29995444219605
 21
554.63164998929858
 31
0.0
  0
LINE
  5
13A
100
AcDbEntity
  8
0
  6
Continuous
 62
               7
100
AcDbLine
 10
526.05731375507673
 20
564.63164998929858
 30
0.0
 11
516.05731375507673
 21
554.63164998929858
 31
0.0
  0
LINE
  5
13B
100
AcDbEntity
  8
0
  6
Continuous
 62
               7
100
AcDbLine
 10
521.81467306795753
 20
564.63164998929858
 30
0.0
 11
511.81467306795753
 21
554.63164998929858
 31
0.0
  0
LINE
  5
13C
100
AcDbEntity
  8
0
  6
Continuous
 62
               7
100
AcDbLine
 10
517.57203238083821
 20
564.63164998929858
 30
0.0
 11
507.57203238083821
 21
554.63164998929858
 31
0.0
  0
LINE
  5
13D
100
AcDbEntity
  8
0
  6
Continuous
 62
               7
100
AcDbLine
 10
513.32939169371889
 20
564.63164998929858
 30
0.0
 11
503.32939169371895
 21
554.63164998929858
 31
0.0
  0
LINE
  5
13E
100
AcDbEntity
  8
0
  6
Continuous
 62
               7
100
AcDbLine
 10
545.08675100660014
 20
600.63164998929904
 30
0.0
 11
544.1676375683669
 21
599.7125365510658
 31
0.0
  0
LINE
  5
13F
100
AcDbEntity
  8
0
  6
Continuous
 62
               7
100
AcDbLine
 10
538.23665154553271
 20
593.78155052823161
 30
0.0
 11
535.08675100660014
 21
590.63164998929904
 31
0.0
  0
LINE
  5
140
100
AcDbEntity
  8
0
  6
Continuous
 62
               7
100
AcDbLine
 10
509.08675100659968
 20
564.63164998929858
 30
0.0
 11
499.08675100659968
 21
554.63164998929858
 31
0.0
  0
LINE
  5
141
100
AcDbEntity
  8
0
  6
Continuous
 62
               7
100
AcDbLine
 10
540.84411031948082
 20
600.63164998929904
 30
0.0
 11
530.84411031948082
 21
590.63164998929904
 31
0.0
  0
LINE
  5
142
100
AcDbEntity
  8
0
  6
Continuous
 62
               7
100
AcDbLine
 10
504.84411031948036
 20
564.63164998929858
 30
0.0
 11
494.84411031948036
 21
554.63164998929858
 31
0.0
  0
LINE
  5
143
100
AcDbEntity
  8
0
  6
Continuous
 62
               7
100
AcDbLine
 10
536.6014696323615
 20
600.63164998929904
 30
0.0
 11
526.6014696323615
 21
590.63164998929904
 31
0.0
  0
LINE
  5
144
100
AcDbEntity
  8
0
  6
Continuous
 62
               7
100
AcDbLine
 10
500.6014696323611
 20
564.63164998929858
 30
0.0
 11
490.6014696323611
 21
554.63164998929858
 31
0.0
  0
LINE
  5
145
100
AcDbEntity
  8
0
  6
Continuous
 62
               7
100
AcDbLine
 10
532.35882894524218
 20
600.63164998929904
 30
0.0
 11
522.35882894524229
 21
590.63164998929904
 31
0.0
  0
LINE
  5
146
100
AcDbEntity
  8
0
  6
Continuous
 62
               7
100
AcDbLine
 10
496.35882894524178
 20
564.63164998929858
 30
0.0
 11
486.35882894524178
 21
554.63164998929858
 31
0.0
  0
LINE
  5
147
100
AcDbEntity
  8
0
  6
Continuous
 62
               7
100
AcDbLine
 10
528.11618825812297
 20
600.63164998929904
 30
0.0
 11
518.11618825812297
 21
590.63164998929904
 31
0.0
  0
LINE
  5
148
100
AcDbEntity
  8
0
  6
Continuous
 62
               7
100
AcDbLine
 10
492.11618825812252
 20
564.63164998929858
 30
0.0
 11
482.11618825812252
 21
554.63164998929858
 31
0.0
  0
LINE
  5
149
100
AcDbEntity
  8
0
  6
Continuous
 62
               7
100
AcDbLine
 10
523.87354757100366
 20
600.63164998929904
 30
0.0
 11
513.87354757100366
 21
590.63164998929904
 31
0.0
  0
LINE
  5
14A
100
AcDbEntity
  8
0
  6
Continuous
 62
               7
100
AcDbLine
 10
487.87354757100326
 20
564.63164998929858
 30
0.0
 11
477.87354757100326
 21
554.63164998929858
 31
0.0
  0
LINE
  5
14B
100
AcDbEntity
  8
0
  6
Continuous
 62
               7
100
AcDbLine
 10
519.63090688388434
 20
600.63164998929904
 30
0.0
 11
509.63090688388439
 21
590.63164998929904
 31
0.0
  0
LINE
  5
14C
100
AcDbEntity
  8
0
  6
Continuous
 62
               7
100
AcDbLine
 10
483.63090688388394
 20
564.63164998929858
 30
0.0
 11
473.63090688388394
 21
554.63164998929858
 31
0.0
  0
LINE
  5
14D
100
AcDbEntity
  8
0
  6
Continuous
 62
               7
100
AcDbLine
 10
515.38826619676513
 20
600.63164998929904
 30
0.0
 11
505.38826619676513
 21
590.63164998929904
 31
0.0
  0
LINE
  5
14E
100
AcDbEntity
  8
0
  6
Continuous
 62
               7
100
AcDbLine
 10
479.38826619676468
 20
564.63164998929858
 30
0.0
 11
469.38826619676468
 21
554.63164998929858
 31
0.0
  0
LINE
  5
14F
100
AcDbEntity
  8
0
  6
Continuous
 62
               7
100
AcDbLine
 10
511.14562550964581
 20
600.63164998929904
 30
0.0
 11
501.14562550964587
 21
590.63164998929904
 31
0.0
  0
LINE
  5
150
100
AcDbEntity
  8
0
  6
Continuous
 62
               7
100
AcDbLine
 10
475.14562550964536
 20
564.63164998929858
 30
0.0
 11
465.14562550964536
 21
554.63164998929858
 31
0.0
  0
LINE
  5
151
100
AcDbEntity
  8
0
  6
Continuous
 62
               7
100
AcDbLine
 10
506.90298482252655
 20
600.63164998929904
 30
0.0
 11
496.90298482252655
 21
590.63164998929904
 31
0.0
  0
LINE
  5
152
100
AcDbEntity
  8
0
  6
Continuous
 62
               7
100
AcDbLine
 10
470.90298482252609
 20
564.63164998929858
 30
0.0
 11
460.90298482252609
 21
554.63164998929858
 31
0.0
  0
LINE
  5
153
100
AcDbEntity
  8
0
  6
Continuous
 62
               7
100
AcDbLine
 10
502.66034413540729
 20
600.63164998929904
 30
0.0
 11
492.66034413540729
 21
590.63164998929904
 31
0.0
  0
LINE
  5
154
100
AcDbEntity
  8
0
  6
Continuous
 62
               7
100
AcDbLine
 10
466.66034413540683
 20
564.63164998929858
 30
0.0
 11
456.66034413540683
 21
554.63164998929858
 31
0.0
  0
LINE
  5
155
100
AcDbEntity
  8
0
  6
Continuous
 62
               7
100
AcDbLine
 10
498.41770344828797
 20
600.63164998929904
 30
0.0
 11
488.41770344828797
 21
590.63164998929904
 31
0.0
  0
LINE
  5
156
100
AcDbEntity
  8
0
  6
Continuous
 62
               7
100
AcDbLine
 10
462.41770344828751
 20
564.63164998929858
 30
0.0
 11
452.41770344828751
 21
554.63164998929858
 31
0.0
  0
LINE
  5
157
100
AcDbEntity
  8
0
  6
Continuous
 62
               7
100
AcDbLine
 10
494.1750627611687
 20
600.63164998929904
 30
0.0
 11
484.1750627611687
 21
590.63164998929904
 31
0.0
  0
LINE
  5
158
100
AcDbEntity
  8
0
  6
Continuous
 62
               7
100
AcDbLine
 10
458.17506276116825
 20
564.63164998929858
 30
0.0
 11
448.17506276116825
 21
554.63164998929858
 31
0.0
  0
LINE
  5
159
100
AcDbEntity
  8
0
  6
Continuous
 62
               7
100
AcDbLine
 10
489.93242207404944
 20
600.63164998929904
 30
0.0
 11
479.93242207404944
 21
590.63164998929904
 31
0.0
  0
LINE
  5
15A
100
AcDbEntity
  8
0
  6
Continuous
 62
               7
100
AcDbLine
 10
453.93242207404893
 20
564.63164998929858
 30
0.0
 11
443.93242207404893
 21
554.63164998929858
 31
0.0
  0
LINE
  5
15B
100
AcDbEntity
  8
0
  6
Continuous
 62
               7
100
AcDbLine
 10
485.68978138693012
 20
600.63164998929904
 30
0.0
 11
475.68978138693012
 21
590.63164998929904
 31
0.0
  0
LINE
  5
15C
100
AcDbEntity
  8
0
  6
Continuous
 62
               7
100
AcDbLine
 10
449.68978138692967
 20
564.63164998929858
 30
0.0
 11
439.68978138692967
 21
554.63164998929858
 31
0.0
  0
LINE
  5
15D
100
AcDbEntity
  8
0
  6
Continuous
 62
               7
100
AcDbLine
 10
481.44714069981086
 20
600.63164998929904
 30
0.0
 11
471.44714069981086
 21
590.63164998929904
 31
0.0
  0
LINE
  5
15E
100
AcDbEntity
  8
0
  6
Continuous
 62
               7
100
AcDbLine
 10
445.4471406998104
 20
564.63164998929858
 30
0.0
 11
435.4471406998104
 21
554.63164998929858
 31
0.0
  0
LINE
  5
15F
100
AcDbEntity
  8
0
  6
Continuous
 62
               7
100
AcDbLine
 10
477.2045000126916
 20
600.63164998929904
 30
0.0
 11
467.2045000126916
 21
590.63164998929904
 31
0.0
  0
LINE
  5
160
100
AcDbEntity
  8
0
  6
Continuous
 62
               7
100
AcDbLine
 10
441.20450001269108
 20
564.63164998929858
 30
0.0
 11
431.20450001269108
 21
554.63164998929858
 31
0.0
  0
LINE
  5
161
100
AcDbEntity
  8
0
  6
Continuous
 62
               7
100
AcDbLine
 10
472.96185932557228
 20
600.63164998929904
 30
0.0
 11
462.96185932557228
 21
590.63164998929904
 31
0.0
  0
LINE
  5
162
100
AcDbEntity
  8
0
  6
Continuous
 62
               7
100
AcDbLine
 10
436.96185932557182
 20
564.63164998929858
 30
0.0
 11
426.96185932557182
 21
554.63164998929858
 31
0.0
  0
LINE
  5
163
100
AcDbEntity
  8
0
  6
Continuous
 62
               7
100
AcDbLine
 10
468.71921863845301
 20
600.63164998929904
 30
0.0
 11
458.71921863845301
 21
590.63164998929904
 31
0.0
  0
LINE
  5
164
100
AcDbEntity
  8
0
  6
Continuous
 62
               7
100
AcDbLine
 10
432.7192186384525
 20
564.63164998929858
 30
0.0
 11
422.7192186384525
 21
554.63164998929858
 31
0.0
  0
LINE
  5
165
100
AcDbEntity
  8
0
  6
Continuous
 62
               7
100
AcDbLine
 10
464.4765779513337
 20
600.63164998929904
 30
0.0
 11
454.4765779513337
 21
590.63164998929904
 31
0.0
  0
LINE
  5
166
100
AcDbEntity
  8
0
  6
Continuous
 62
               7
100
AcDbLine
 10
428.47657795133324
 20
564.63164998929858
 30
0.0
 11
418.47657795133324
 21
554.63164998929858
 31
0.0
  0
LINE
  5
167
100
AcDbEntity
  8
0
  6
Continuous
 62
               7
100
AcDbLine
 10
460.23393726421443
 20
600.63164998929904
 30
0.0
 11
450.23393726421443
 21
590.63164998929904
 31
0.0
  0
LINE
  5
168
100
AcDbEntity
  8
0
  6
Continuous
 62
               7
100
AcDbLine
 10
424.23393726421398
 20
564.63164998929858
 30
0.0
 11
414.23393726421398
 21
554.63164998929858
 31
0.0
  0
LINE
  5
169
100
AcDbEntity
  8
0
  6
Continuous
 62
               7
100
AcDbLine
 10
455.99129657709517
 20
600.63164998929904
 30
0.0
 11
445.99129657709517
 21
590.63164998929904
 31
0.0
  0
LINE
  5
16A
100
AcDbEntity
  8
0
  6
Continuous
 62
               7
100
AcDbLine
 10
419.99129657709466
 20
564.63164998929858
 30
0.0
 11
409.99129657709466
 21
554.63164998929858
 31
0.0
  0
LINE
  5
16B
100
AcDbEntity
  8
0
  6
Continuous
 62
               7
100
AcDbLine
 10
451.74865588997585
 20
600.63164998929904
 30
0.0
 11
441.74865588997591
 21
590.63164998929904
 31
0.0
  0
LINE
  5
16C
100
AcDbEntity
  8
0
  6
Continuous
 62
               7
100
AcDbLine
 10
415.7486558899754
 20
564.63164998929858
 30
0.0
 11
405.7486558899754
 21
554.63164998929858
 31
0.0
  0
LINE
  5
16D
100
AcDbEntity
  8
0
  6
Continuous
 62
               7
100
AcDbLine
 10
447.50601520285659
 20
600.63164998929904
 30
0.0
 11
437.50601520285659
 21
590.63164998929904
 31
0.0
  0
LINE
  5
16E
100
AcDbEntity
  8
0
  6
Continuous
 62
               7
100
AcDbLine
 10
411.50601520285608
 20
564.63164998929858
 30
0.0
 11
401.50601520285608
 21
554.63164998929858
 31
0.0
  0
LINE
  5
16F
100
AcDbEntity
  8
0
  6
Continuous
 62
               7
100
AcDbLine
 10
443.26337451573727
 20
600.63164998929904
 30
0.0
 11
433.26337451573733
 21
590.63164998929904
 31
0.0
  0
LINE
  5
170
100
AcDbEntity
  8
0
  6
Continuous
 62
               7
100
AcDbLine
 10
407.26337451573681
 20
564.63164998929858
 30
0.0
 11
397.26337451573681
 21
554.63164998929858
 31
0.0
  0
LINE
  5
171
100
AcDbEntity
  8
0
  6
Continuous
 62
               7
100
AcDbLine
 10
439.02073382861801
 20
600.63164998929904
 30
0.0
 11
429.02073382861801
 21
590.63164998929904
 31
0.0
  0
LINE
  5
172
100
AcDbEntity
  8
0
  6
Continuous
 62
               7
100
AcDbLine
 10
403.02073382861755
 20
564.63164998929858
 30
0.0
 11
393.02073382861755
 21
554.63164998929858
 31
0.0
  0
LINE
  5
173
100
AcDbEntity
  8
0
  6
Continuous
 62
               7
100
AcDbLine
 10
434.77809314149874
 20
600.63164998929904
 30
0.0
 11
424.77809314149874
 21
590.63164998929904
 31
0.0
  0
LINE
  5
174
100
AcDbEntity
  8
0
  6
Continuous
 62
               7
100
AcDbLine
 10
398.77809314149823
 20
564.63164998929858
 30
0.0
 11
388.77809314149823
 21
554.63164998929858
 31
0.0
  0
LINE
  5
175
100
AcDbEntity
  8
0
  6
Continuous
 62
               7
100
AcDbLine
 10
430.53545245437948
 20
600.63164998929904
 30
0.0
 11
420.53545245437948
 21
590.63164998929904
 31
0.0
  0
LINE
  5
176
100
AcDbEntity
  8
0
  6
Continuous
 62
               7
100
AcDbLine
 10
394.53545245437897
 20
564.63164998929858
 30
0.0
 11
384.53545245437897
 21
554.63164998929858
 31
0.0
  0
LINE
  5
177
100
AcDbEntity
  8
0
  6
Continuous
 62
               7
100
AcDbLine
 10
426.29281176726016
 20
600.63164998929904
 30
0.0
 11
416.29281176726016
 21
590.63164998929904
 31
0.0
  0
LINE
  5
178
100
AcDbEntity
  8
0
  6
Continuous
 62
               7
100
AcDbLine
 10
390.29281176725965
 20
564.63164998929858
 30
0.0
 11
380.29281176725965
 21
554.63164998929858
 31
0.0
  0
LINE
  5
179
100
AcDbEntity
  8
0
  6
Continuous
 62
               7
100
AcDbLine
 10
422.0501710801409
 20
600.63164998929904
 30
0.0
 11
412.0501710801409
 21
590.63164998929904
 31
0.0
  0
LINE
  5
17A
100
AcDbEntity
  8
0
  6
Continuous
 62
               7
100
AcDbLine
 10
386.05017108014039
 20
564.63164998929858
 30
0.0
 11
376.05017108014039
 21
554.63164998929858
 31
0.0
  0
LINE
  5
17B
100
AcDbEntity
  8
0
  6
Continuous
 62
               7
100
AcDbLine
 10
417.80753039302158
 20
600.63164998929904
 30
0.0
 11
407.80753039302158
 21
590.63164998929904
 31
0.0
  0
LINE
  5
17C
100
AcDbEntity
  8
0
  6
Continuous
 62
               7
100
AcDbLine
 10
381.80753039302112
 20
564.63164998929858
 30
0.0
 11
371.80753039302112
 21
554.63164998929858
 31
0.0
  0
LINE
  5
17D
100
AcDbEntity
  8
0
  6
Continuous
 62
               7
100
AcDbLine
 10
413.56488970590232
 20
600.63164998929904
 30
0.0
 11
403.56488970590232
 21
590.63164998929904
 31
0.0
  0
LINE
  5
17E
100
AcDbEntity
  8
0
  6
Continuous
 62
               7
100
AcDbLine
 10
377.56488970590181
 20
564.63164998929858
 30
0.0
 11
367.56488970590181
 21
554.63164998929858
 31
0.0
  0
LINE
  5
17F
100
AcDbEntity
  8
0
  6
Continuous
 62
               7
100
AcDbLine
 10
409.32224901878305
 20
600.63164998929904
 30
0.0
 11
399.32224901878305
 21
590.63164998929904
 31
0.0
  0
LINE
  5
180
100
AcDbEntity
  8
0
  6
Continuous
 62
               7
100
AcDbLine
 10
373.32224901878254
 20
564.63164998929858
 30
0.0
 11
363.32224901878254
 21
554.63164998929858
 31
0.0
  0
LINE
  5
181
100
AcDbEntity
  8
0
  6
Continuous
 62
               7
100
AcDbLine
 10
405.07960833166374
 20
600.63164998929904
 30
0.0
 11
395.07960833166374
 21
590.63164998929904
 31
0.0
  0
LINE
  5
182
100
AcDbEntity
  8
0
  6
Continuous
 62
               7
100
AcDbLine
 10
369.07960833166322
 20
564.63164998929858
 30
0.0
 11
359.07960833166322
 21
554.63164998929858
 31
0.0
  0
LINE
  5
183
100
AcDbEntity
  8
0
  6
Continuous
 62
               7
100
AcDbLine
 10
400.83696764454447
 20
600.63164998929904
 30
0.0
 11
390.83696764454447
 21
590.63164998929904
 31
0.0
  0
LINE
  5
184
100
AcDbEntity
  8
0
  6
Continuous
 62
               7
100
AcDbLine
 10
364.83696764454396
 20
564.63164998929858
 30
0.0
 11
354.83696764454396
 21
554.63164998929858
 31
0.0
  0
LINE
  5
185
100
AcDbEntity
  8
0
  6
Continuous
 62
               7
100
AcDbLine
 10
396.59432695742515
 20
600.63164998929904
 30
0.0
 11
386.59432695742515
 21
590.63164998929904
 31
0.0
  0
LINE
  5
186
100
AcDbEntity
  8
0
  6
Continuous
 62
               7
100
AcDbLine
 10
360.5943269574247
 20
564.63164998929858
 30
0.0
 11
350.59432695742464
 21
554.63164998929858
 31
0.0
  0
LINE
  5
187
100
AcDbEntity
  8
0
  6
Continuous
 62
               7
100
AcDbLine
 10
392.35168627030589
 20
600.63164998929904
 30
0.0
 11
382.35168627030589
 21
590.63164998929904
 31
0.0
  0
LINE
  5
188
100
AcDbEntity
  8
0
  6
Continuous
 62
               7
100
AcDbLine
 10
356.35168627030538
 20
564.63164998929858
 30
0.0
 11
346.35168627030538
 21
554.63164998929858
 31
0.0
  0
LINE
  5
189
100
AcDbEntity
  8
0
  6
Continuous
 62
               7
100
AcDbLine
 10
388.10904558318663
 20
600.63164998929904
 30
0.0
 11
378.10904558318663
 21
590.63164998929904
 31
0.0
  0
LINE
  5
18A
100
AcDbEntity
  8
0
  6
Continuous
 62
               7
100
AcDbLine
 10
352.10904558318612
 20
564.63164998929858
 30
0.0
 11
342.10904558318612
 21
554.63164998929858
 31
0.0
  0
LINE
  5
18B
100
AcDbEntity
  8
0
  6
Continuous
 62
               7
100
AcDbLine
 10
383.86640489606731
 20
600.63164998929904
 30
0.0
 11
373.86640489606731
 21
590.63164998929904
 31
0.0
  0
LINE
  5
18C
100
AcDbEntity
  8
0
  6
Continuous
 62
               7
100
AcDbLine
 10
347.8664048960668
 20
564.63164998929858
 30
0.0
 11
337.8664048960668
 21
554.63164998929858
 31
0.0
  0
LINE
  5
18D
100
AcDbEntity
  8
0
  6
Continuous
 62
               7
100
AcDbLine
 10
379.62376420894805
 20
600.63164998929904
 30
0.0
 11
369.62376420894805
 21
590.63164998929904
 31
0.0
  0
LINE
  5
18E
100
AcDbEntity
  8
0
  6
Continuous
 62
               7
100
AcDbLine
 10
343.62376420894753
 20
564.63164998929858
 30
0.0
 11
333.62376420894753
 21
554.63164998929858
 31
0.0
  0
LINE
  5
18F
100
AcDbEntity
  8
0
  6
Continuous
 62
               7
100
AcDbLine
 10
375.38112352182878
 20
600.63164998929904
 30
0.0
 11
365.38112352182873
 21
590.63164998929904
 31
0.0
  0
LINE
  5
190
100
AcDbEntity
  8
0
  6
Continuous
 62
               7
100
AcDbLine
 10
339.38112352182821
 20
564.63164998929858
 30
0.0
 11
329.38112352182821
 21
554.63164998929858
 31
0.0
  0
LINE
  5
191
100
AcDbEntity
  8
0
  6
Continuous
 62
               7
100
AcDbLine
 10
371.13848283470946
 20
600.63164998929904
 30
0.0
 11
361.13848283470946
 21
590.63164998929904
 31
0.0
  0
LINE
  5
192
100
AcDbEntity
  8
0
  6
Continuous
 62
               7
100
AcDbLine
 10
335.13848283470895
 20
564.63164998929858
 30
0.0
 11
325.13848283470895
 21
554.63164998929858
 31
0.0
  0
LINE
  5
193
100
AcDbEntity
  8
0
  6
Continuous
 62
               7
100
AcDbLine
 10
366.8958421475902
 20
600.63164998929904
 30
0.0
 11
356.8958421475902
 21
590.63164998929904
 31
0.0
  0
LINE
  5
194
100
AcDbEntity
  8
0
  6
Continuous
 62
               7
100
AcDbLine
 10
330.89584214758969
 20
564.63164998929858
 30
0.0
 11
320.89584214758969
 21
554.63164998929858
 31
0.0
  0
LINE
  5
195
100
AcDbEntity
  8
0
  6
Continuous
 62
               7
100
AcDbLine
 10
362.65320146047088
 20
600.63164998929904
 30
0.0
 11
352.65320146047088
 21
590.63164998929904
 31
0.0
  0
LINE
  5
196
100
AcDbEntity
  8
0
  6
Continuous
 62
               7
100
AcDbLine
 10
326.65320146047037
 20
564.63164998929858
 30
0.0
 11
316.65320146047037
 21
554.63164998929858
 31
0.0
  0
LINE
  5
197
100
AcDbEntity
  8
0
  6
Continuous
 62
               7
100
AcDbLine
 10
358.41056077335162
 20
600.63164998929904
 30
0.0
 11
348.41056077335162
 21
590.63164998929904
 31
0.0
  0
LINE
  5
198
100
AcDbEntity
  8
0
  6
Continuous
 62
               7
100
AcDbLine
 10
322.41056077335111
 20
564.63164998929858
 30
0.0
 11
312.41056077335111
 21
554.63164998929858
 31
0.0
  0
LINE
  5
199
100
AcDbEntity
  8
0
  6
Continuous
 62
               7
100
AcDbLine
 10
354.16792008623236
 20
600.63164998929904
 30
0.0
 11
344.16792008623236
 21
590.63164998929904
 31
0.0
  0
LINE
  5
19A
100
AcDbEntity
  8
0
  6
Continuous
 62
               7
100
AcDbLine
 10
318.16792008623185
 20
564.63164998929858
 30
0.0
 11
308.16792008623179
 21
554.63164998929858
 31
0.0
  0
LINE
  5
19B
100
AcDbEntity
  8
0
  6
Continuous
 62
               7
100
AcDbLine
 10
349.92527939911304
 20
600.63164998929904
 30
0.0
 11
339.92527939911304
 21
590.63164998929904
 31
0.0
  0
LINE
  5
19C
100
AcDbEntity
  8
0
  6
Continuous
 62
               7
100
AcDbLine
 10
313.92527939911253
 20
564.63164998929858
 30
0.0
 11
303.92527939911253
 21
554.63164998929858
 31
0.0
  0
LINE
  5
19D
100
AcDbEntity
  8
0
  6
Continuous
 62
               7
100
AcDbLine
 10
345.68263871199377
 20
600.63164998929904
 30
0.0
 11
335.68263871199377
 21
590.63164998929904
 31
0.0
  0
LINE
  5
19E
100
AcDbEntity
  8
0
  6
Continuous
 62
               7
100
AcDbLine
 10
309.68263871199326
 20
564.63164998929858
 30
0.0
 11
299.68263871199326
 21
554.63164998929858
 31
0.0
  0
LINE
  5
19F
100
AcDbEntity
  8
0
  6
Continuous
 62
               7
100
AcDbLine
 10
341.43999802487451
 20
600.63164998929904
 30
0.0
 11
331.43999802487451
 21
590.63164998929904
 31
0.0
  0
LINE
  5
1A0
100
AcDbEntity
  8
0
  6
Continuous
 62
               7
100
AcDbLine
 10
305.43999802487394
 20
564.63164998929858
 30
0.0
 11
295.43999802487394
 21
554.63164998929858
 31
0.0
  0
LINE
  5
1A1
100
AcDbEntity
  8
0
  6
Continuous
 62
               7
100
AcDbLine
 10
337.19735733775519
 20
600.63164998929904
 30
0.0
 11
327.19735733775519
 21
590.63164998929904
 31
0.0
  0
LINE
  5
1A2
100
AcDbEntity
  8
0
  6
Continuous
 62
               7
100
AcDbLine
 10
301.19735733775468
 20
564.63164998929858
 30
0.0
 11
291.19735733775468
 21
554.63164998929858
 31
0.0
  0
LINE
  5
1A3
100
AcDbEntity
  8
0
  6
Continuous
 62
               7
100
AcDbLine
 10
332.95471665063593
 20
600.63164998929904
 30
0.0
 11
322.95471665063593
 21
590.63164998929904
 31
0.0
  0
LINE
  5
1A4
100
AcDbEntity
  8
0
  6
Continuous
 62
               7
100
AcDbLine
 10
296.95471665063536
 20
564.63164998929858
 30
0.0
 11
286.95471665063536
 21
554.63164998929858
 31
0.0
  0
LINE
  5
1A5
100
AcDbEntity
  8
0
  6
Continuous
 62
               7
100
AcDbLine
 10
328.71207596351667
 20
600.63164998929904
 30
0.0
 11
318.71207596351661
 21
590.63164998929904
 31
0.0
  0
LINE
  5
1A6
100
AcDbEntity
  8
0
  6
Continuous
 62
               7
100
AcDbLine
 10
292.7120759635161
 20
564.63164998929858
 30
0.0
 11
282.7120759635161
 21
554.63164998929858
 31
0.0
  0
LINE
  5
1A7
100
AcDbEntity
  8
0
  6
Continuous
 62
               7
100
AcDbLine
 10
324.46943527639735
 20
600.63164998929915
 30
0.0
 11
314.46943527639735
 21
590.63164998929904
 31
0.0
  0
LINE
  5
1A8
100
AcDbEntity
  8
0
  6
Continuous
 62
               7
100
AcDbLine
 10
288.46943527639684
 20
564.63164998929858
 30
0.0
 11
278.46943527639684
 21
554.63164998929858
 31
0.0
  0
LINE
  5
1A9
100
AcDbEntity
  8
0
  6
Continuous
 62
               7
100
AcDbLine
 10
320.22679458927809
 20
600.63164998929915
 30
0.0
 11
310.22679458927809
 21
590.63164998929904
 31
0.0
  0
LINE
  5
1AA
100
AcDbEntity
  8
0
  6
Continuous
 62
               7
100
AcDbLine
 10
284.22679458927752
 20
564.63164998929858
 30
0.0
 11
274.22679458927752
 21
554.63164998929858
 31
0.0
  0
LINE
  5
1AB
100
AcDbEntity
  8
0
  6
Continuous
 62
               7
100
AcDbLine
 10
315.98415390215877
 20
600.63164998929915
 30
0.0
 11
305.98415390215877
 21
590.63164998929904
 31
0.0
  0
LINE
  5
1AC
100
AcDbEntity
  8
0
  6
Continuous
 62
               7
100
AcDbLine
 10
279.98415390215825
 20
564.63164998929858
 30
0.0
 11
269.98415390215825
 21
554.63164998929858
 31
0.0
  0
LINE
  5
1AD
100
AcDbEntity
  8
0
  6
Continuous
 62
               7
100
AcDbLine
 10
311.7415132150395
 20
600.63164998929915
 30
0.0
 11
301.7415132150395
 21
590.63164998929904
 31
0.0
  0
LINE
  5
1AE
100
AcDbEntity
  8
0
  6
Continuous
 62
               7
100
AcDbLine
 10
275.74151321503899
 20
564.63164998929858
 30
0.0
 11
265.74151321503894
 21
554.63164998929858
 31
0.0
  0
LINE
  5
1AF
100
AcDbEntity
  8
0
  6
Continuous
 62
               7
100
AcDbLine
 10
307.49887252792024
 20
600.63164998929915
 30
0.0
 11
297.49887252792018
 21
590.63164998929915
 31
0.0
  0
LINE
  5
1B0
100
AcDbEntity
  8
0
  6
Continuous
 62
               7
100
AcDbLine
 10
271.49887252791967
 20
564.63164998929858
 30
0.0
 11
261.49887252791967
 21
554.63164998929858
 31
0.0
  0
LINE
  5
1B1
100
AcDbEntity
  8
0
  6
Continuous
 62
               7
100
AcDbLine
 10
303.25623184080092
 20
600.63164998929915
 30
0.0
 11
293.25623184080092
 21
590.63164998929915
 31
0.0
  0
LINE
  5
1B2
100
AcDbEntity
  8
0
  6
Continuous
 62
               7
100
AcDbLine
 10
267.25623184080041
 20
564.63164998929858
 30
0.0
 11
257.25623184080041
 21
554.63164998929858
 31
0.0
  0
LINE
  5
1B3
100
AcDbEntity
  8
0
  6
Continuous
 62
               7
100
AcDbLine
 10
299.01359115368166
 20
600.63164998929915
 30
0.0
 11
289.01359115368166
 21
590.63164998929915
 31
0.0
  0
LINE
  5
1B4
100
AcDbEntity
  8
0
  6
Continuous
 62
               7
100
AcDbLine
 10
294.7709504665624
 20
600.63164998929915
 30
0.0
 11
284.77095046656234
 21
590.63164998929915
 31
0.0
  0
LINE
  5
1B5
100
AcDbEntity
  8
0
  6
Continuous
 62
               7
100
AcDbLine
 10
290.52830977944308
 20
600.63164998929915
 30
0.0
 11
280.52830977944308
 21
590.63164998929915
 31
0.0
  0
LINE
  5
1B6
100
AcDbEntity
  8
0
  6
Continuous
 62
               7
100
AcDbLine
 10
286.28566909232381
 20
600.63164998929915
 30
0.0
 11
276.28566909232381
 21
590.63164998929915
 31
0.0
  0
LINE
  5
1B7
100
AcDbEntity
  8
0
  6
Continuous
 62
               7
100
AcDbLine
 10
282.04302840520455
 20
600.63164998929915
 30
0.0
 11
272.0430284052045
 21
590.63164998929915
 31
0.0
  0
LINE
  5
1B8
100
AcDbEntity
  8
0
  6
Continuous
 62
               7
100
AcDbLine
 10
277.80038771808523
 20
600.63164998929915
 30
0.0
 11
267.80038771808523
 21
590.63164998929915
 31
0.0
  0
LINE
  5
1B9
100
AcDbEntity
  8
0
  6
Continuous
 62
               4
100
AcDbLine
 10
472.74151321503899
 20
554.63164998929858
 30
0.0
 11
472.74151321503899
 21
600.63164998929904
 31
0.0
  0
LINE
  5
1BA
100
AcDbEntity
  8
0
  6
Continuous
 62
               7
100
AcDbLine
 10
911.74151321503916
 20
386.72097187064372
 30
0.0
 11
935.74151321503928
 21
362.72097187064378
 31
0.0
  0
LINE
  5
1BB
100
AcDbEntity
  8
0
  6
DASHDOT
 62
               7
100
AcDbLine
 10
255.74151321503896
 20
489.23164998929849
 30
0.0
 11
255.74151321503896
 21
522.23164998929849
 31
0.0
  0
LINE
  5
1BC
100
AcDbEntity
  8
0
  6
Continuous
 62
               7
100
AcDbLine
 10
251.24151321503896
 20
521.23164998929849
 30
0.0
 11
260.24151321503894
 21
521.23164998929849
 31
0.0
  0
LINE
  5
1BD
100
AcDbEntity
  8
0
  6
Continuous
 62
               7
100
AcDbLine
 10
253.74151321503896
 20
495.23164998929849
 30
0.0
 11
253.74151321503896
 21
519.23164998929849
 31
0.0
  0
LINE
  5
1BE
100
AcDbEntity
  8
0
  6
Continuous
 62
               7
100
AcDbLine
 10
257.74151321503894
 20
495.23164998929849
 30
0.0
 11
257.74151321503894
 21
519.23164998929849
 31
0.0
  0
LINE
  5
1BF
100
AcDbEntity
  8
0
  6
Continuous
 62
               7
100
AcDbLine
 10
253.74151321503896
 20
519.23164998929849
 30
0.0
 11
257.74151321503894
 21
519.23164998929849
 31
0.0
  0
LINE
  5
1C0
100
AcDbEntity
  8
0
  6
Continuous
 62
               7
100
AcDbLine
 10
251.24151321503896
 20
521.23164998929849
 30
0.0
 11
253.74151321503896
 21
519.23164998929849
 31
0.0
  0
LINE
  5
1C1
100
AcDbEntity
  8
0
  6
Continuous
 62
               7
100
AcDbLine
 10
257.74151321503894
 20
519.23164998929849
 30
0.0
 11
260.24151321503894
 21
521.23164998929849
 31
0.0
  0
LINE
  5
1C2
100
AcDbEntity
  8
0
  6
Continuous
 62
               7
100
AcDbLine
 10
253.74151321503896
 20
508.23164998929849
 30
0.0
 11
256.40817988170562
 21
509.23164998929849
 31
0.0
  0
LINE
  5
1C3
100
AcDbEntity
  8
0
  6
Continuous
 62
               7
100
AcDbLine
 10
253.74151321503896
 20
506.73164998929849
 30
0.0
 11
257.74151321503894
 21
508.23164998929849
 31
0.0
  0
LINE
  5
1C4
100
AcDbEntity
  8
0
  6
Continuous
 62
               7
100
AcDbLine
 10
253.74151321503896
 20
505.23164998929849
 30
0.0
 11
257.74151321503894
 21
506.73164998929849
 31
0.0
  0
LINE
  5
1C5
100
AcDbEntity
  8
0
  6
Continuous
 62
               7
100
AcDbLine
 10
253.74151321503896
 20
503.73164998929849
 30
0.0
 11
257.74151321503894
 21
505.23164998929849
 31
0.0
  0
LINE
  5
1C6
100
AcDbEntity
  8
0
  6
Continuous
 62
               7
100
AcDbLine
 10
253.74151321503896
 20
502.23164998929849
 30
0.0
 11
257.74151321503894
 21
503.73164998929849
 31
0.0
  0
LINE
  5
1C7
100
AcDbEntity
  8
0
  6
Continuous
 62
               7
100
AcDbLine
 10
253.74151321503896
 20
500.73164998929849
 30
0.0
 11
257.74151321503894
 21
502.23164998929849
 31
0.0
  0
LINE
  5
1C8
100
AcDbEntity
  8
0
  6
Continuous
 62
               7
100
AcDbLine
 10
253.74151321503896
 20
499.23164998929849
 30
0.0
 11
257.74151321503894
 21
500.73164998929849
 31
0.0
  0
LINE
  5
1C9
100
AcDbEntity
  8
0
  6
Continuous
 62
               7
100
AcDbLine
 10
253.74151321503896
 20
497.73164998929849
 30
0.0
 11
257.74151321503894
 21
499.23164998929849
 31
0.0
  0
LINE
  5
1CA
100
AcDbEntity
  8
0
  6
Continuous
 62
               7
100
AcDbLine
 10
253.74151321503896
 20
496.23164998929849
 30
0.0
 11
257.74151321503894
 21
497.73164998929849
 31
0.0
  0
LINE
  5
1CB
100
AcDbEntity
  8
0
  6
Continuous
 62
               7
100
AcDbLine
 10
253.95203953082844
 20
494.81059735771959
 30
0.0
 11
257.74151321503894
 21
496.23164998929849
 31
0.0
  0
LINE
  5
1CC
100
AcDbEntity
  8
0
  6
Continuous
 62
               7
100
AcDbLine
 10
254.58361847819685
 20
493.54743946298271
 30
0.0
 11
257.43382090734661
 21
494.61626537391385
 31
0.0
  0
LINE
  5
1CD
100
AcDbEntity
  8
0
  6
Continuous
 62
               7
100
AcDbLine
 10
255.21519742556529
 20
492.28428156824589
 30
0.0
 11
256.51074398426977
 21
492.77011152776009
 31
0.0
  0
LINE
  5
1CE
100
AcDbEntity
  8
0
  6
DOT
 62
               7
100
AcDbLine
 10
253.74151321503896
 20
521.23164998929849
 30
0.0
 11
254.74151321503896
 21
519.23164998929849
 31
0.0
  0
LINE
  5
1CF
100
AcDbEntity
  8
0
  6
DOT
 62
               7
100
AcDbLine
 10
256.74151321503894
 20
519.23164998929849
 30
0.0
 11
257.74151321503894
 21
521.23164998929849
 31
0.0
  0
LINE
  5
1D0
100
AcDbEntity
  8
0
  6
Continuous
 62
               7
100
AcDbLine
 10
255.74151321503896
 20
491.23164998929849
 30
0.0
 11
257.74151321503894
 21
495.23164998929849
 31
0.0
  0
LINE
  5
1D1
100
AcDbEntity
  8
0
  6
Continuous
 62
               7
100
AcDbLine
 10
255.74151321503896
 20
491.23164998929849
 30
0.0
 11
253.74151321503896
 21
495.23164998929849
 31
0.0
  0
LINE
  5
1D2
100
AcDbEntity
  8
0
  6
DASHDOT
 62
               7
100
AcDbLine
 10
655.74151321503894
 20
489.23164998929849
 30
0.0
 11
655.74151321503894
 21
522.23164998929849
 31
0.0
  0
LINE
  5
1D3
100
AcDbEntity
  8
0
  6
Continuous
 62
               7
100
AcDbLine
 10
651.24151321503894
 20
521.23164998929849
 30
0.0
 11
660.24151321503894
 21
521.23164998929849
 31
0.0
  0
LINE
  5
1D4
100
AcDbEntity
  8
0
  6
Continuous
 62
               7
100
AcDbLine
 10
653.74151321503894
 20
495.23164998929849
 30
0.0
 11
653.74151321503894
 21
519.23164998929849
 31
0.0
  0
LINE
  5
1D5
100
AcDbEntity
  8
0
  6
Continuous
 62
               7
100
AcDbLine
 10
657.74151321503894
 20
495.23164998929849
 30
0.0
 11
657.74151321503894
 21
519.23164998929849
 31
0.0
  0
LINE
  5
1D6
100
AcDbEntity
  8
0
  6
Continuous
 62
               7
100
AcDbLine
 10
653.74151321503894
 20
519.23164998929849
 30
0.0
 11
657.74151321503894
 21
519.23164998929849
 31
0.0
  0
LINE
  5
1D7
100
AcDbEntity
  8
0
  6
Continuous
 62
               7
100
AcDbLine
 10
651.24151321503894
 20
521.23164998929849
 30
0.0
 11
653.74151321503894
 21
519.23164998929849
 31
0.0
  0
LINE
  5
1D8
100
AcDbEntity
  8
0
  6
Continuous
 62
               7
100
AcDbLine
 10
657.74151321503894
 20
519.23164998929849
 30
0.0
 11
660.24151321503894
 21
521.23164998929849
 31
0.0
  0
LINE
  5
1D9
100
AcDbEntity
  8
0
  6
Continuous
 62
               7
100
AcDbLine
 10
653.74151321503894
 20
508.23164998929849
 30
0.0
 11
656.40817988170556
 21
509.23164998929849
 31
0.0
  0
LINE
  5
1DA
100
AcDbEntity
  8
0
  6
Continuous
 62
               7
100
AcDbLine
 10
653.74151321503894
 20
506.73164998929849
 30
0.0
 11
657.74151321503894
 21
508.23164998929849
 31
0.0
  0
LINE
  5
1DB
100
AcDbEntity
  8
0
  6
Continuous
 62
               7
100
AcDbLine
 10
653.74151321503894
 20
505.23164998929849
 30
0.0
 11
657.74151321503894
 21
506.73164998929849
 31
0.0
  0
LINE
  5
1DC
100
AcDbEntity
  8
0
  6
Continuous
 62
               7
100
AcDbLine
 10
653.74151321503894
 20
503.73164998929849
 30
0.0
 11
657.74151321503894
 21
505.23164998929849
 31
0.0
  0
LINE
  5
1DD
100
AcDbEntity
  8
0
  6
Continuous
 62
               7
100
AcDbLine
 10
653.74151321503894
 20
502.23164998929849
 30
0.0
 11
657.74151321503894
 21
503.73164998929849
 31
0.0
  0
LINE
  5
1DE
100
AcDbEntity
  8
0
  6
Continuous
 62
               7
100
AcDbLine
 10
653.74151321503894
 20
500.73164998929849
 30
0.0
 11
657.74151321503894
 21
502.23164998929849
 31
0.0
  0
LINE
  5
1DF
100
AcDbEntity
  8
0
  6
Continuous
 62
               7
100
AcDbLine
 10
653.74151321503894
 20
499.23164998929849
 30
0.0
 11
657.74151321503894
 21
500.73164998929849
 31
0.0
  0
LINE
  5
1E0
100
AcDbEntity
  8
0
  6
Continuous
 62
               7
100
AcDbLine
 10
653.74151321503894
 20
497.73164998929849
 30
0.0
 11
657.74151321503894
 21
499.23164998929849
 31
0.0
  0
LINE
  5
1E1
100
AcDbEntity
  8
0
  6
Continuous
 62
               7
100
AcDbLine
 10
653.74151321503894
 20
496.23164998929849
 30
0.0
 11
657.74151321503894
 21
497.73164998929849
 31
0.0
  0
LINE
  5
1E2
100
AcDbEntity
  8
0
  6
Continuous
 62
               7
100
AcDbLine
 10
653.95203953082842
 20
494.81059735771959
 30
0.0
 11
657.74151321503894
 21
496.23164998929849
 31
0.0
  0
LINE
  5
1E3
100
AcDbEntity
  8
0
  6
Continuous
 62
               7
100
AcDbLine
 10
654.58361847819685
 20
493.54743946298271
 30
0.0
 11
657.43382090734656
 21
494.61626537391385
 31
0.0
  0
LINE
  5
1E4
100
AcDbEntity
  8
0
  6
Continuous
 62
               7
100
AcDbLine
 10
655.21519742556529
 20
492.28428156824589
 30
0.0
 11
656.51074398426977
 21
492.77011152776009
 31
0.0
  0
LINE
  5
1E5
100
AcDbEntity
  8
0
  6
DOT
 62
               7
100
AcDbLine
 10
653.74151321503894
 20
521.23164998929849
 30
0.0
 11
654.74151321503894
 21
519.23164998929849
 31
0.0
  0
LINE
  5
1E6
100
AcDbEntity
  8
0
  6
DOT
 62
               7
100
AcDbLine
 10
656.74151321503894
 20
519.23164998929849
 30
0.0
 11
657.74151321503894
 21
521.23164998929849
 31
0.0
  0
LINE
  5
1E7
100
AcDbEntity
  8
0
  6
Continuous
 62
               7
100
AcDbLine
 10
655.74151321503894
 20
491.23164998929849
 30
0.0
 11
657.74151321503894
 21
495.23164998929849
 31
0.0
  0
LINE
  5
1E8
100
AcDbEntity
  8
0
  6
Continuous
 62
               7
100
AcDbLine
 10
655.74151321503894
 20
491.23164998929849
 30
0.0
 11
653.74151321503894
 21
495.23164998929849
 31
0.0
  0
LINE
  5
1E9
100
AcDbEntity
  8
0
  6
DASHDOT
 62
               7
100
AcDbLine
 10
898.74151321503916
 20
489.23164998929843
 30
0.0
 11
898.74151321503916
 21
522.23164998929838
 31
0.0
  0
LINE
  5
1EA
100
AcDbEntity
  8
0
  6
Continuous
 62
               7
100
AcDbLine
 10
894.24151321503916
 20
521.23164998929838
 30
0.0
 11
903.24151321503916
 21
521.23164998929838
 31
0.0
  0
LINE
  5
1EB
100
AcDbEntity
  8
0
  6
Continuous
 62
               7
100
AcDbLine
 10
896.74151321503916
 20
495.23164998929843
 30
0.0
 11
896.74151321503916
 21
519.23164998929838
 31
0.0
  0
LINE
  5
1EC
100
AcDbEntity
  8
0
  6
Continuous
 62
               7
100
AcDbLine
 10
900.74151321503916
 20
495.23164998929843
 30
0.0
 11
900.74151321503916
 21
519.23164998929838
 31
0.0
  0
LINE
  5
1ED
100
AcDbEntity
  8
0
  6
Continuous
 62
               7
100
AcDbLine
 10
896.74151321503916
 20
519.23164998929838
 30
0.0
 11
900.74151321503916
 21
519.23164998929838
 31
0.0
  0
LINE
  5
1EE
100
AcDbEntity
  8
0
  6
Continuous
 62
               7
100
AcDbLine
 10
894.24151321503916
 20
521.23164998929838
 30
0.0
 11
896.74151321503916
 21
519.23164998929838
 31
0.0
  0
LINE
  5
1EF
100
AcDbEntity
  8
0
  6
Continuous
 62
               7
100
AcDbLine
 10
900.74151321503916
 20
519.23164998929838
 30
0.0
 11
903.24151321503916
 21
521.23164998929838
 31
0.0
  0
LINE
  5
1F0
100
AcDbEntity
  8
0
  6
Continuous
 62
               7
100
AcDbLine
 10
896.74151321503916
 20
508.23164998929843
 30
0.0
 11
899.40817988170591
 21
509.23164998929843
 31
0.0
  0
LINE
  5
1F1
100
AcDbEntity
  8
0
  6
Continuous
 62
               7
100
AcDbLine
 10
896.74151321503916
 20
506.73164998929843
 30
0.0
 11
900.74151321503916
 21
508.23164998929843
 31
0.0
  0
LINE
  5
1F2
100
AcDbEntity
  8
0
  6
Continuous
 62
               7
100
AcDbLine
 10
896.74151321503916
 20
505.23164998929843
 30
0.0
 11
900.74151321503916
 21
506.73164998929843
 31
0.0
  0
LINE
  5
1F3
100
AcDbEntity
  8
0
  6
Continuous
 62
               7
100
AcDbLine
 10
896.74151321503916
 20
503.73164998929843
 30
0.0
 11
900.74151321503916
 21
505.23164998929843
 31
0.0
  0
LINE
  5
1F4
100
AcDbEntity
  8
0
  6
Continuous
 62
               7
100
AcDbLine
 10
896.74151321503916
 20
502.23164998929843
 30
0.0
 11
900.74151321503916
 21
503.73164998929843
 31
0.0
  0
LINE
  5
1F5
100
AcDbEntity
  8
0
  6
Continuous
 62
               7
100
AcDbLine
 10
896.74151321503916
 20
500.73164998929843
 30
0.0
 11
900.74151321503916
 21
502.23164998929843
 31
0.0
  0
LINE
  5
1F6
100
AcDbEntity
  8
0
  6
Continuous
 62
               7
100
AcDbLine
 10
896.74151321503916
 20
499.23164998929843
 30
0.0
 11
900.74151321503916
 21
500.73164998929843
 31
0.0
  0
LINE
  5
1F7
100
AcDbEntity
  8
0
  6
Continuous
 62
               7
100
AcDbLine
 10
896.74151321503916
 20
497.73164998929843
 30
0.0
 11
900.74151321503916
 21
499.23164998929843
 31
0.0
  0
LINE
  5
1F8
100
AcDbEntity
  8
0
  6
Continuous
 62
               7
100
AcDbLine
 10
896.74151321503916
 20
496.23164998929843
 30
0.0
 11
900.74151321503916
 21
497.73164998929843
 31
0.0
  0
LINE
  5
1F9
100
AcDbEntity
  8
0
  6
Continuous
 62
               7
100
AcDbLine
 10
896.95203953082864
 20
494.81059735771953
 30
0.0
 11
900.74151321503916
 21
496.23164998929843
 31
0.0
  0
LINE
  5
1FA
100
AcDbEntity
  8
0
  6
Continuous
 62
               7
100
AcDbLine
 10
897.58361847819708
 20
493.54743946298265
 30
0.0
 11
900.4338209073469
 21
494.61626537391379
 31
0.0
  0
LINE
  5
1FB
100
AcDbEntity
  8
0
  6
Continuous
 62
               7
100
AcDbLine
 10
898.21519742556552
 20
492.28428156824583
 30
0.0
 11
899.51074398426999
 21
492.77011152776004
 31
0.0
  0
LINE
  5
1FC
100
AcDbEntity
  8
0
  6
DOT
 62
               7
100
AcDbLine
 10
896.74151321503916
 20
521.23164998929838
 30
0.0
 11
897.74151321503916
 21
519.23164998929838
 31
0.0
  0
LINE
  5
1FD
100
AcDbEntity
  8
0
  6
DOT
 62
               7
100
AcDbLine
 10
899.74151321503916
 20
519.23164998929838
 30
0.0
 11
900.74151321503916
 21
521.23164998929838
 31
0.0
  0
LINE
  5
1FE
100
AcDbEntity
  8
0
  6
Continuous
 62
               7
100
AcDbLine
 10
898.74151321503916
 20
491.23164998929843
 30
0.0
 11
900.74151321503916
 21
495.23164998929843
 31
0.0
  0
LINE
  5
1FF
100
AcDbEntity
  8
0
  6
Continuous
 62
               7
100
AcDbLine
 10
898.74151321503916
 20
491.23164998929843
 30
0.0
 11
896.74151321503916
 21
495.23164998929843
 31
0.0
  0
LINE
  5
200
100
AcDbEntity
  8
0
  6
Continuous
 62
               4
100
AcDbLine
 10
655.74151321503894
 20
521.23164998929849
 30
0.0
 11
706.31739679605039
 21
608.83164998929885
 31
0.0
  0
LINE
  5
201
100
AcDbEntity
  8
0
  6
Continuous
 62
               4
100
AcDbLine
 10
706.31739679605039
 20
608.83164998929885
 30
0.0
 11
825.94214786231123
 21
608.83164998929897
 31
0.0
  0
LINE
  5
202
100
AcDbEntity
  8
0
  6
Continuous
 62
               4
100
AcDbLine
 10
655.74151321503894
 20
521.23164998929849
 30
0.0
 11
658.81969450497002
 21
529.68888357637172
 31
0.0
  0
LINE
  5
203
100
AcDbEntity
  8
0
  6
Continuous
 62
               4
100
AcDbLine
 10
655.74151321503894
 20
521.23164998929849
 30
0.0
 11
661.52660170221782
 21
528.12604997736935
 31
0.0
  0
LINE
  5
204
100
AcDbEntity
  8
0
  6
Continuous
 62
               7
100
AcDbLine
 10
935.74151321503928
 20
348.57883625298484
 30
0.0
 11
911.74151372714255
 21
372.5788357257843
 31
0.0
  0
LINE
  5
205
100
AcDbEntity
  8
0
  6
Continuous
 62
               7
100
AcDbLine
 10
935.74151321503928
 20
341.50776844311991
 30
0.0
 11
911.74151927408059
 21
365.50776237249374
 31
0.0
  0
LINE
  5
206
100
AcDbEntity
  8
0
  6
Continuous
 62
               4
100
AcDbLine
 10
915.74151321503928
 20
505.23164998929849
 30
0.0
 11
978.38401742211397
 21
396.73164998929843
 31
0.0
  0
LINE
  5
207
100
AcDbEntity
  8
0
  6
Continuous
 62
               4
100
AcDbLine
 10
978.38401742211397
 20
396.73164998929843
 30
0.0
 11
1067.8585645209826
 21
396.73164998929843
 31
0.0
  0
LINE
  5
208
100
AcDbEntity
  8
0
  6
Continuous
 62
               4
100
AcDbLine
 10
915.74151321503928
 20
505.23164998929849
 30
0.0
 11
921.52660170221816
 21
498.33725000122769
 31
0.0
  0
LINE
  5
209
100
AcDbEntity
  8
0
  6
Continuous
 62
               4
100
AcDbLine
 10
915.74151321503928
 20
505.23164998929849
 30
0.0
 11
918.81969450497036
 21
496.77441640222531
 31
0.0
  0
LINE
  5
20A
100
AcDbEntity
  8
0
  6
Continuous
 62
               3
100
AcDbLine
 10
866.74151321503916
 20
493.23164998929849
 30
0.0
 11
866.74151321503916
 21
400.23164998929849
 31
0.0
  0
LINE
  5
20B
100
AcDbEntity
  8
0
  6
Continuous
 62
               6
100
AcDbLine
 10
866.74151321503916
 20
493.23164998929849
 30
0.0
 11
911.74151321503916
 21
400.23164998929849
 31
0.0
  0
LINE
  5
20C
100
AcDbEntity
  8
0
  6
Continuous
 62
               7
100
AcDbLine
 10
935.74151321503928
 20
334.43670063125433
 30
0.0
 11
911.74151321503916
 21
358.43670063125444
 31
0.0
  0
LINE
  5
20D
100
AcDbEntity
  8
0
  6
Continuous
 62
               7
100
AcDbLine
 10
935.74151321503928
 20
327.36563282546103
 30
0.0
 11
911.74151372714255
 21
351.36563229826044
 31
0.0
  0
LINE
  5
20E
100
AcDbEntity
  8
0
  6
Continuous
 62
               7
100
AcDbLine
 10
935.74151321503928
 20
320.29456501559605
 30
0.0
 11
911.74151927408059
 21
344.29455894496988
 31
0.0
  0
LINE
  5
20F
100
AcDbEntity
  8
0
  6
Continuous
 62
               7
100
AcDbLine
 10
935.74151321503928
 20
313.22349720373046
 30
0.0
 11
911.74151321503916
 21
337.22349720373057
 31
0.0
  0
LINE
  5
210
100
AcDbEntity
  8
0
  6
Continuous
 62
               7
100
AcDbLine
 10
935.74151321503928
 20
306.15242939793717
 30
0.0
 11
911.74151372714255
 21
330.15242887073657
 31
0.0
  0
LINE
  5
211
100
AcDbEntity
  8
0
  6
Continuous
 62
               7
100
AcDbLine
 10
935.74151321503928
 20
299.08136158807224
 30
0.0
 11
911.74151927408059
 21
323.08135551744601
 31
0.0
  0
LINE
  5
212
100
AcDbEntity
  8
0
  6
Continuous
 62
               7
100
AcDbLine
 10
935.74151321503928
 20
292.01029377620665
 30
0.0
 11
911.74151321503916
 21
316.01029377620671
 31
0.0
  0
LINE
  5
213
100
AcDbEntity
  8
0
  6
Continuous
 62
               7
100
AcDbLine
 10
935.74151321503928
 20
284.9392259704133
 30
0.0
 11
911.74151372714255
 21
308.93922544321276
 31
0.0
  0
LINE
  5
214
100
AcDbEntity
  8
0
  6
Continuous
 62
               7
100
AcDbLine
 10
935.74151321503928
 20
277.86815816054838
 30
0.0
 11
922.94151321503921
 21
290.66815815436985
 31
0.0
  0
LINE
  5
215
100
AcDbEntity
  8
0
  6
Continuous
 62
               7
100
AcDbLine
 10
935.74151321503928
 20
270.79709034868279
 30
0.0
 11
922.94151321503921
 21
283.59709034868285
 31
0.0
  0
LINE
  5
216
100
AcDbEntity
  8
0
  6
Continuous
 62
               7
100
AcDbLine
 10
931.23588576579596
 20
268.23164998929849
 30
0.0
 11
916.23588568341484
 21
283.23165006224377
 31
0.0
  0
LINE
  5
217
100
AcDbEntity
  8
0
  6
Continuous
 62
               7
100
AcDbLine
 10
924.16481795317713
 20
268.23164998929849
 30
0.0
 11
911.74151927408059
 21
280.65494866239834
 31
0.0
  0
LINE
  5
218
100
AcDbEntity
  8
0
  6
Continuous
 62
               7
100
AcDbLine
 10
917.09375014689977
 20
268.23164998929849
 30
0.0
 11
911.74151321503916
 21
273.58388692115903
 31
0.0
  0
LINE
  5
219
100
AcDbEntity
  8
0
  6
Continuous
 62
               7
100
AcDbLine
 10
918.37802137790777
 20
295.23164998929849
 30
0.0
 11
911.74151927408059
 21
301.86815208992221
 31
0.0
  0
CIRCLE
  5
21A
100
AcDbEntity
  8
0
  6
Continuous
 62
               4
100
AcDbCircle
 10
635.74151321503894
 20
643.83164998929885
 30
0.0
 40
1.5
  0
CIRCLE
  5
21B
100
AcDbEntity
  8
0
  6
Continuous
 62
               4
100
AcDbCircle
 10
835.74151321503905
 20
643.83164998929885
 30
0.0
 40
1.5
  0
CIRCLE
  5
21C
100
AcDbEntity
  8
0
  6
Continuous
 62
               4
100
AcDbCircle
 10
835.74151321503905
 20
643.83164998929885
 30
0.0
 40
1.5
  0
CIRCLE
  5
21D
100
AcDbEntity
  8
0
  6
Continuous
 62
               4
100
AcDbCircle
 10
995.74151321503928
 20
643.83164998929885
 30
0.0
 40
1.5
  0
CIRCLE
  5
21E
100
AcDbEntity
  8
0
  6
Continuous
 62
               4
100
AcDbCircle
 10
965.74151321503928
 20
601.83164998929885
 30
0.0
 40
1.5
  0
CIRCLE
  5
21F
100
AcDbEntity
  8
0
  6
Continuous
 62
               4
100
AcDbCircle
 10
995.7415132150395
 20
601.83164998929885
 30
0.0
 40
1.5
  0
CIRCLE
  5
220
100
AcDbEntity
  8
0
  6
Continuous
 62
               4
100
AcDbCircle
 10
635.74151321503894
 20
664.83164998929885
 30
0.0
 40
1.5
  0
CIRCLE
  5
221
100
AcDbEntity
  8
0
  6
Continuous
 62
               4
100
AcDbCircle
 10
995.74151321503928
 20
664.83164998929885
 30
0.0
 40
1.5
  0
CIRCLE
  5
222
100
AcDbEntity
  8
0
  6
Continuous
 62
               4
100
AcDbCircle
 10
1016.7415132150395
 20
518.73164998929838
 30
0.0
 40
1.5
  0
CIRCLE
  5
223
100
AcDbEntity
  8
0
  6
Continuous
 62
               4
100
AcDbCircle
 10
1016.7415132150395
 20
468.73164998929843
 30
0.0
 40
1.5
  0
CIRCLE
  5
224
100
AcDbEntity
  8
0
  6
Continuous
 62
               4
100
AcDbCircle
 10
635.74151321503894
 20
664.83164998929885
 30
0.0
 40
1.5
  0
CIRCLE
  5
225
100
AcDbEntity
  8
0
  6
Continuous
 62
               4
100
AcDbCircle
 10
235.74151321503874
 20
664.83164998929885
 30
0.0
 40
1.5
  0
CIRCLE
  5
226
100
AcDbEntity
  8
0
  6
Continuous
 62
               4
100
AcDbCircle
 10
740.74151321503871
 20
600.63164998929915
 30
0.0
 40
1.5
  0
CIRCLE
  5
227
100
AcDbEntity
  8
0
  6
Continuous
 62
               4
100
AcDbCircle
 10
740.74151321503871
 20
591.63164998929904
 30
0.0
 40
1.5
  0
CIRCLE
  5
228
100
AcDbEntity
  8
0
  6
Continuous
 62
               4
100
AcDbCircle
 10
740.74151321503871
 20
591.63164998929904
 30
0.0
 40
1.5
  0
CIRCLE
  5
229
100
AcDbEntity
  8
0
  6
Continuous
 62
               4
100
AcDbCircle
 10
740.74151321503871
 20
552.23164998929849
 30
0.0
 40
1.5
  0
CIRCLE
  5
22A
100
AcDbEntity
  8
0
  6
Continuous
 62
               4
100
AcDbCircle
 10
761.74151321503871
 20
600.63164998929915
 30
0.0
 40
1.5
  0
CIRCLE
  5
22B
100
AcDbEntity
  8
0
  6
Continuous
 62
               4
100
AcDbCircle
 10
761.74151321503871
 20
552.23164998929849
 30
0.0
 40
1.5
  0
CIRCLE
  5
22C
100
AcDbEntity
  8
0
  6
Continuous
 62
               4
100
AcDbCircle
 10
761.74151321503871
 20
552.23164998929849
 30
0.0
 40
1.5
  0
CIRCLE
  5
22D
100
AcDbEntity
  8
0
  6
Continuous
 62
               4
100
AcDbCircle
 10
761.74151321503871
 20
522.23164998929849
 30
0.0
 40
1.5
  0
CIRCLE
  5
22E
100
AcDbEntity
  8
0
  6
Continuous
 62
               4
100
AcDbCircle
 10
761.74151321503871
 20
517.23164998929849
 30
0.0
 40
1.5
  0
CIRCLE
  5
22F
100
AcDbEntity
  8
0
  6
Continuous
 62
               4
100
AcDbCircle
 10
761.74151321503871
 20
505.23164998929849
 30
0.0
 40
1.5
  0
CIRCLE
  5
230
100
AcDbEntity
  8
0
  6
Continuous
 62
               4
100
AcDbCircle
 10
452.3423661761247
 20
511.23164998929849
 30
0.0
 40
1.5
  0
CIRCLE
  5
231
100
AcDbEntity
  8
0
  6
Continuous
 62
               4
100
AcDbCircle
 10
448.01223915720254
 20
518.73164998929838
 30
0.0
 40
1.5
  0
CIRCLE
  5
232
100
AcDbEntity
  8
0
  6
Continuous
 62
               4
100
AcDbCircle
 10
445.99151321503882
 20
522.23164998929849
 30
0.0
 40
1.5
  0
CIRCLE
  5
233
100
AcDbEntity
  8
0
  6
Continuous
 62
               4
100
AcDbCircle
 10
835.74151321503905
 20
727.83164998929885
 30
0.0
 40
1.5
  0
CIRCLE
  5
234
100
AcDbEntity
  8
0
  6
Continuous
 62
               4
100
AcDbCircle
 10
472.74151321503899
 20
554.63164998929858
 30
0.0
 40
1.5
  0
CIRCLE
  5
235
100
AcDbEntity
  8
0
  6
Continuous
 62
               4
100
AcDbCircle
 10
472.74151321503899
 20
600.63164998929904
 30
0.0
 40
1.5
  0
ARC
  5
236
100
AcDbEntity
  8
0
  6
Continuous
 62
               2
100
AcDbCircle
 10
211.67452591693095
 20
539.72331974010069
 30
0.0
 40
0.500000000000016
100
AcDbArc
 50
150.00000000000108
 51
329.99999999999943
  0
ARC
  5
237
100
AcDbEntity
  8
0
  6
Continuous
 62
               2
100
AcDbCircle
 10
211.65657672449967
 20
539.29030703820854
 30
0.0
 40
2.5000000000000009
100
AcDbArc
 50
149.9999999999998
 51
329.99999999999989
  0
ARC
  5
238
100
AcDbEntity
  8
0
  6
Continuous
 62
               2
100
AcDbCircle
 10
218.1051338830147
 20
545.95953567226854
 30
0.0
 40
0.249999999999996
100
AcDbArc
 50
329.99999999999943
 51
149.99999999999943
  0
ARC
  5
239
100
AcDbEntity
  8
0
  6
Continuous
 62
               2
100
AcDbCircle
 10
611.67452591693109
 20
539.72331974010081
 30
0.0
 40
0.500000000000016
100
AcDbArc
 50
150.00000000000108
 51
329.99999999999943
  0
ARC
  5
23A
100
AcDbEntity
  8
0
  6
Continuous
 62
               2
100
AcDbCircle
 10
611.65657672449981
 20
539.29030703820854
 30
0.0
 40
2.5000000000000009
100
AcDbArc
 50
149.9999999999998
 51
329.99999999999989
  0
ARC
  5
23B
100
AcDbEntity
  8
0
  6
Continuous
 62
               2
100
AcDbCircle
 10
618.1051338830149
 20
545.95953567226866
 30
0.0
 40
0.249999999999996
100
AcDbArc
 50
329.99999999999943
 51
149.99999999999943
  0
ARC
  5
23C
100
AcDbEntity
  8
0
  6
Continuous
 62
               7
100
AcDbCircle
 10
606.2113198617111
 20
535.35689312028433
 30
0.0
 40
3.2000000000000002
100
AcDbArc
 50
178.00000000000222
 51
268.00000000000239
  0
ARC
  5
23D
100
AcDbEntity
  8
0
  6
Continuous
 62
               7
100
AcDbCircle
 10
603.42508327633971
 20
547.26138326855778
 30
0.0
 40
3.2000000000000002
100
AcDbArc
 50
358.00000000000227
 51
88.00000000000216
  0
ARC
  5
23E
100
AcDbEntity
  8
0
  6
Continuous
 62
               7
100
AcDbCircle
 10
595.74151321503894
 20
551.93164979856374
 30
0.0
 40
12.800000190734863
100
AcDbArc
 50
71.790043416587906
 51
108.20995658341215
  0
ARC
  5
23F
100
AcDbEntity
  8
0
  6
Continuous
 62
               7
100
AcDbCircle
 10
601.49151321503905
 20
562.02247436277696
 30
0.0
 40
2.709175626521696
100
AcDbArc
 50
49.762837627546041
 51
130.23716237245384
  0
ARC
  5
240
100
AcDbEntity
  8
0
  6
Continuous
 62
               7
100
AcDbCircle
 10
589.99151321503894
 20
562.02247436277696
 30
0.0
 40
2.709175626521696
100
AcDbArc
 50
49.762837627546155
 51
130.23716237245395
  0
ARC
  5
241
100
AcDbEntity
  8
0
  6
Continuous
 62
               2
100
AcDbCircle
 10
967.99151321503928
 20
469.48164998929843
 30
0.0
 40
0.75
100
AcDbArc
 50
180.0
 51
0.0
  0
ARC
  5
242
100
AcDbEntity
  8
0
  6
Continuous
 62
               2
100
AcDbCircle
 10
994.4915132150395
 20
519.98164998929849
 30
0.0
 40
2.25
100
AcDbArc
 50
269.99999999999994
 51
90.0
  0
ARC
  5
243
100
AcDbEntity
  8
0
  6
Continuous
 62
               2
100
AcDbCircle
 10
994.9915132150395
 20
519.48164998929838
 30
0.0
 40
0.75
100
AcDbArc
 50
269.99999999999994
 51
90.0
  0
ARC
  5
244
100
AcDbEntity
  8
0
  6
Continuous
 62
               2
100
AcDbCircle
 10
634.24151321503882
 20
549.7316499892986
 30
0.0
 40
0.5
100
AcDbArc
 50
0.0
 51
89.999999999999957
  0
ARC
  5
245
100
AcDbEntity
  8
0
  6
Continuous
 62
               2
100
AcDbCircle
 10
634.24151321503894
 20
549.7316499892986
 30
0.0
 40
1.5
100
AcDbArc
 50
0.0
 51
89.999999999999957
  0
ARC
  5
246
100
AcDbEntity
  8
0
  6
Continuous
 62
               2
100
AcDbCircle
 10
618.60753861882336
 20
549.7316499892986
 30
0.0
 40
1.5
100
AcDbArc
 50
89.999999999999957
 51
150.0000000000002
  0
ARC
  5
247
100
AcDbEntity
  8
0
  6
Continuous
 62
               2
100
AcDbCircle
 10
618.60753861882324
 20
549.7316499892986
 30
0.0
 40
0.5
100
AcDbArc
 50
89.999999999999957
 51
150.00000000000043
  0
ARC
  5
248
100
AcDbEntity
  8
0
  6
Continuous
 62
               7
100
AcDbCircle
 10
206.21131986171119
 20
535.35689312028433
 30
0.0
 40
3.2000000000000002
100
AcDbArc
 50
178.00000000000222
 51
268.00000000000239
  0
ARC
  5
249
100
AcDbEntity
  8
0
  6
Continuous
 62
               7
100
AcDbCircle
 10
203.42508327633979
 20
547.26138326855778
 30
0.0
 40
3.2000000000000002
100
AcDbArc
 50
358.00000000000227
 51
88.00000000000216
  0
ARC
  5
24A
100
AcDbEntity
  8
0
  6
Continuous
 62
               7
100
AcDbCircle
 10
195.74151321503896
 20
551.93164979856374
 30
0.0
 40
12.800000190734863
100
AcDbArc
 50
71.790043416587906
 51
108.20995658341215
  0
ARC
  5
24B
100
AcDbEntity
  8
0
  6
Continuous
 62
               7
100
AcDbCircle
 10
201.49151321503908
 20
562.02247436277696
 30
0.0
 40
2.709175626521696
100
AcDbArc
 50
49.762837627546041
 51
130.23716237245384
  0
ARC
  5
24C
100
AcDbEntity
  8
0
  6
Continuous
 62
               7
100
AcDbCircle
 10
189.99151321503896
 20
562.02247436277696
 30
0.0
 40
2.709175626521696
100
AcDbArc
 50
49.762837627546155
 51
130.23716237245395
  0
ARC
  5
24D
100
AcDbEntity
  8
0
  6
Continuous
 62
               2
100
AcDbCircle
 10
234.24151321503868
 20
549.73164998929849
 30
0.0
 40
0.5
100
AcDbArc
 50
0.0
 51
89.999999999999957
  0
ARC
  5
24E
100
AcDbEntity
  8
0
  6
Continuous
 62
               2
100
AcDbCircle
 10
234.24151321503874
 20
549.73164998929849
 30
0.0
 40
1.5
100
AcDbArc
 50
0.0
 51
89.999999999999957
  0
ARC
  5
24F
100
AcDbEntity
  8
0
  6
Continuous
 62
               2
100
AcDbCircle
 10
235.24151321503868
 20
550.2316499892986
 30
0.0
 40
2.0
100
AcDbArc
 50
0.0
 51
90.000000000000028
  0
ARC
  5
250
100
AcDbEntity
  8
0
  6
Continuous
 62
               2
100
AcDbCircle
 10
635.24151321503882
 20
550.2316499892986
 30
0.0
 40
2.0
100
AcDbArc
 50
0.0
 51
90.000000000000028
  0
ARC
  5
251
100
AcDbEntity
  8
0
  6
Continuous
 62
               2
100
AcDbCircle
 10
617.39621375341801
 20
550.2316499892986
 30
0.0
 40
2.0
100
AcDbArc
 50
90.000000000000028
 51
149.99999999999974
  0
ARC
  5
252
100
AcDbEntity
  8
0
  6
Continuous
 62
               2
100
AcDbCircle
 10
217.39621375341787
 20
550.23164998929849
 30
0.0
 40
2.0
100
AcDbArc
 50
90.000000000000028
 51
149.99999999999974
  0
ARC
  5
253
100
AcDbEntity
  8
0
  6
Continuous
 62
               2
100
AcDbCircle
 10
218.6075386188231
 20
549.73164998929849
 30
0.0
 40
0.5
100
AcDbArc
 50
89.999999999999957
 51
150.00000000000048
  0
ARC
  5
254
100
AcDbEntity
  8
0
  6
Continuous
 62
               2
100
AcDbCircle
 10
218.60753861882313
 20
549.73164998929849
 30
0.0
 40
1.5
100
AcDbArc
 50
89.999999999999957
 51
150.0000000000002
  0
ARC
  5
255
100
AcDbEntity
  8
0
  6
Continuous
 62
               7
100
AcDbCircle
 10
246.45316148257783
 20
572.34397682949907
 30
0.0
 40
20.0
100
AcDbArc
 50
297.67253576764398
 51
15.330332880451939
  0
ARC
  5
256
100
AcDbEntity
  8
0
  6
Continuous
 62
               7
100
AcDbCircle
 10
285.02986494750002
 20
582.91932314909855
 30
0.0
 40
20.0
100
AcDbArc
 50
117.67253576764359
 51
195.33033288045334
  0
ARC
  5
257
100
AcDbEntity
  8
0
  6
Continuous
 62
               7
100
AcDbCircle
 10
516.45316148257768
 20
572.34397682949907
 30
0.0
 40
20.0
100
AcDbArc
 50
297.67253576764398
 51
15.330332880451939
  0
ARC
  5
258
100
AcDbEntity
  8
0
  6
Continuous
 62
               7
100
AcDbCircle
 10
555.02986494749996
 20
582.91932314909855
 30
0.0
 40
20.0
100
AcDbArc
 50
117.67253576764359
 51
195.33033288045334
  0
TEXT
  5
259
100
AcDbEntity
  8
0
 62
               7
100
AcDbText
 10
728.991455078125
 20
645.33135986328125
 30
0.0
 40
9.0000000000000089
  1
200
 41
0.7695
  7
FontTableH_0
 72
               5
 11
742.491455078125
 21
645.33135986328125
 31
0.0
100
AcDbText
  0
TEXT
  5
25A
100
AcDbEntity
  8
0
 62
               7
100
AcDbText
 10
976.2418212890625
 20
603.33135986328125
 30
0.0
 40
9.0000000000000089
  1
30
 41
0.7695
  7
FontTableH_0
 72
               5
 11
985.2418212890625
 21
603.33135986328125
 31
0.0
100
AcDbText
  0
TEXT
  5
25B
100
AcDbEntity
  8
0
 62
               7
100
AcDbText
 10
1015.241943359375
 20
489.23165893554687
 30
0.0
 40
9.0000000000000089
  1
50
 50
90.000002504478189
 41
0.7695
  7
FontTableH_0
 72
               5
 11
1015.2419429659725
 21
498.23165893554687
 31
0.0
100
AcDbText
  0
TEXT
  5
25C
100
AcDbEntity
  8
0
 62
               7
100
AcDbText
 10
428.991455078125
 20
666.33135986328125
 30
0.0
 40
9.0000000000000089
  1
400
 41
0.7695
  7
FontTableH_0
 72
               5
 11
442.491455078125
 21
666.33135986328125
 31
0.0
100
AcDbText
  0
TEXT
  5
25D
100
AcDbEntity
  8
0
 62
               7
100
AcDbText
 10
149.49163818359375
 20
666.33135986328125
 30
0.0
 40
9.0000000000000089
  1
＠400
 41
0.7695
  7
FontTableH_0
 72
               5
 11
171.99163818359378
 21
666.33135986328125
 31
0.0
100
AcDbText
  0
TEXT
  5
25E
100
AcDbEntity
  8
0
 62
               7
100
AcDbText
 10
1015.599365234375
 20
440.23159790039062
 30
0.0
 40
9.0000000000000089
  1
ケラバ唐草：高級化粧鋼板 t0.4, L=2000
 41
0.7695
  7
FontTableH_0
 72
               5
 11
1182.0993652343752
 21
440.23159790039062
 31
0.0
100
AcDbText
  0
TEXT
  5
25F
100
AcDbEntity
  8
0
 62
               7
100
AcDbText
 10
971.8260498046875
 20
357.23162841796875
 30
0.0
 40
9.0000000000000089
  1
破風板（別途工事）
 41
0.7695
  7
FontTableH_0
 72
               5
 11
1052.8260498046875
 21
357.23162841796875
 31
0.0
100
AcDbText
  0
TEXT
  5
260
100
AcDbEntity
  8
0
 62
               7
100
AcDbText
 10
453.5682373046875
 20
357.23153686523437
 30
0.0
 40
9.0000000000000089
  1
垂木（別途工事）
 41
0.7695
  7
FontTableH_0
 72
               5
 11
525.56823730468761
 21
357.23153686523437
 31
0.0
100
AcDbText
  0
TEXT
  5
261
100
AcDbEntity
  8
0
 62
               7
100
AcDbText
 10
493.94091796875
 20
610.33306884765625
 30
0.0
 40
9.0000000000000089
  1
取付金具
 41
0.7695
  7
FontTableH_0
 72
               5
 11
529.94091796875
 21
610.33306884765625
 31
0.0
100
AcDbText
  0
TEXT
  5
262
100
AcDbEntity
  8
0
 62
               7
100
AcDbText
 10
483.15655517578125
 20
631.33306884765625
 30
0.0
 40
9.0000000000000089
  1
Ｍ8 六角ボルト
 41
0.7695
  7
FontTableH_0
 72
               5
 11
546.15655517578136
 21
631.33306884765625
 31
0.0
100
AcDbText
  0
TEXT
  5
263
100
AcDbEntity
  8
0
 62
               7
100
AcDbText
 10
102.29876708984375
 20
624.331787109375
 30
0.0
 40
9.0000000000000089
  1
アルミ架台
 41
0.7695
  7
FontTableH_0
 72
               5
 11
147.29876708984381
 21
624.331787109375
 31
0.0
100
AcDbText
  0
TEXT
  5
264
100
AcDbEntity
  8
0
 62
               7
100
AcDbText
 10
739.241455078125
 20
593.8818359375
 30
0.0
 40
9.0000000000000089
  1
9
 50
90.000002504478189
 41
0.7695
  7
FontTableH_0
 72
               5
 11
739.24145488142369
 21
598.3818359375
 31
0.0
100
AcDbText
  0
TEXT
  5
265
100
AcDbEntity
  8
0
 62
               7
100
AcDbText
 10
739.241455078125
 20
562.93182373046875
 30
0.0
 40
9.0000000000000089
  1
39.4
 50
90.000002504478189
 41
0.7695
  7
FontTableH_0
 72
               5
 11
739.24145429132
 21
580.93182373046875
 31
0.0
100
AcDbText
  0
TEXT
  5
266
100
AcDbEntity
  8
0
 62
               7
100
AcDbText
 10
760.241455078125
 20
567.43182373046875
 30
0.0
 40
9.0000000000000089
  1
48.4
 50
90.000002504478189
 41
0.7695
  7
FontTableH_0
 72
               5
 11
760.24145429132
 21
585.43182373046875
 31
0.0
100
AcDbText
  0
TEXT
  5
267
100
AcDbEntity
  8
0
 62
               7
100
AcDbText
 10
760.241455078125
 20
532.73187255859375
 30
0.0
 40
9.0000000000000089
  1
30
 50
90.000002504478189
 41
0.7695
  7
FontTableH_0
 72
               5
 11
760.2414546847225
 21
541.73187255859375
 31
0.0
100
AcDbText
  0
TEXT
  5
268
100
AcDbEntity
  8
0
 62
               7
100
AcDbText
 10
760.241455078125
 20
506.73165893554687
 30
0.0
 40
9.0000000000000089
  1
12
 50
90.000002504478189
 41
0.7695
  7
FontTableH_0
 72
               5
 11
760.2414546847225
 21
515.73165893554687
 31
0.0
100
AcDbText
  0
TEXT
  5
269
100
AcDbEntity
  8
0
 62
               7
100
AcDbText
 10
76.710845947265625
 20
730.33197021484375
 30
0.0
 40
9.0000000000000089
  1
屋根材：ＳＦル－フパネル，高級化粧鋼板 t0.5
 41
0.7695
  7
FontTableH_0
 72
               5
 11
270.2108459472658
 21
730.33197021484375
 31
0.0
100
AcDbText
  0
TEXT
  5
26A
100
AcDbEntity
  8
0
 62
               7
100
AcDbText
 10
76.710845947265625
 20
712.33197021484375
 30
0.0
 40
9.0000000000000089
  1
下葺材：ゴムアスファルトル－フィング t1.0（別途工事）
 41
0.7695
  7
FontTableH_0
 72
               5
 11
315.21084594726585
 21
712.33197021484375
 31
0.0
100
AcDbText
  0
TEXT
  5
26B
100
AcDbEntity
  8
0
 62
               7
100
AcDbText
 10
76.710845947265625
 20
694.33197021484375
 30
0.0
 40
9.0000000000000089
  1
野地板：耐水合板 t12（別途工事）
 41
0.7695
  7
FontTableH_0
 72
               5
 11
220.71084594726577
 21
694.33197021484375
 31
0.0
100
AcDbText
  0
TEXT
  5
26C
100
AcDbEntity
  8
0
 62
               7
100
AcDbText
 10
681.49169921875
 20
729.33184814453125
 30
0.0
 40
9.0000000000000089
  1
縦置き ＠ 802
 41
0.7695
  7
FontTableH_0
 72
               5
 11
739.99169921875011
 21
729.33184814453125
 31
0.0
100
AcDbText
  0
TEXT
  5
26D
100
AcDbEntity
  8
0
 62
               7
100
AcDbText
 10
681.49169921875
 20
744.33184814453125
 30
0.0
 40
9.0000000000000089
  1
横置き ＠1200
 41
0.7695
  7
FontTableH_0
 72
               5
 11
739.99169921875011
 21
744.33184814453125
 31
0.0
100
AcDbText
  0
TEXT
  5
26E
100
AcDbEntity
  8
0
 62
               7
100
AcDbText
 10
102.24163818359375
 20
651.33135986328125
 30
0.0
 40
9.0000000000000089
  1
（ＳＦル－フパネル割付幅）
 41
0.7695
  7
FontTableH_0
 72
               5
 11
219.24163818359386
 21
651.33135986328125
 31
0.0
100
AcDbText
  0
TEXT
  5
26F
100
AcDbEntity
  8
0
 62
               7
100
AcDbText
 10
377.241455078125
 20
651.33135986328125
 30
0.0
 40
9.0000000000000089
  1
（ＳＦル－フパネル割付幅）
 41
0.7695
  7
FontTableH_0
 72
               5
 11
494.24145507812511
 21
651.33135986328125
 31
0.0
100
AcDbText
  0
TEXT
  5
270
100
AcDbEntity
  8
0
 62
               7
100
AcDbText
 10
647.74169921875
 20
714.33184814453125
 30
0.0
 40
9.0000000000000089
  1
（太陽電池モジュ－ル割付幅）
 41
0.7695
  7
FontTableH_0
 72
               5
 11
773.74169921875011
 21
714.33184814453125
 31
0.0
100
AcDbText
  0
TEXT
  5
271
100
AcDbEntity
  8
0
 62
               7
100
AcDbText
 10
257.17520141601562
 20
624.33184814453125
 30
0.0
 40
9.0000000000000089
  1
太陽電池モジュ－ル
 41
0.7695
  7
FontTableH_0
 72
               5
 11
338.17520141601568
 21
624.33184814453125
 31
0.0
100
AcDbText
  0
TEXT
  5
272
100
AcDbEntity
  8
0
 62
               7
100
AcDbText
 10
471.24169921875
 20
573.1318359375
 30
0.0
 40
9.0000000000000089
  1
46
 50
90.000002504478189
 41
0.7695
  7
FontTableH_0
 72
               5
 11
471.2416988253475
 21
582.1318359375
 31
0.0
100
AcDbText
  0
TEXT
  5
273
100
AcDbEntity
  8
0
 62
               7
100
AcDbText
 10
718.31683349609375
 20
610.33203125
 30
0.0
 40
9.0000000000000089
  1
木ビス SUS,4φ×30 ＠200
 41
0.7695
  7
FontTableH_0
 72
               5
 11
826.31683349609386
 21
610.33203125
 31
0.0
100
AcDbText
  0
TEXT
  5
274
100
AcDbEntity
  8
0
 62
               7
100
AcDbText
 10
990.38427734375
 20
398.23175048828125
 30
0.0
 40
9.0000000000000089
  1
登小舞（別途工事）
 41
0.7695
  7
FontTableH_0
 72
               5
 11
1071.38427734375
 21
398.23175048828125
 31
0.0
100
AcDbText
  0
TEXT
  5
275
100
AcDbEntity
  8
0
 62
               7
100
AcDbText
 10
866.24151321503916
 20
645.33184814453125
 30
0.0
 40
9.0000000000000089
  1
割付による（MAX≦170）
 41
0.7695
  7
FontTableH_0
 72
               5
 11
965.24151321503928
 21
645.33184814453125
 31
0.0
100
AcDbText
  0
TEXT
  5
276
100
AcDbEntity
  8
0
 62
               7
100
AcDbText
 10
766.24151321503916
 20
666.33135986328125
 30
0.0
 40
9.0000000000000089
  1
割付による（MAX≦370）
 41
0.7695
  7
FontTableH_0
 72
               5
 11
865.24151321503928
 21
666.33135986328125
 31
0.0
100
AcDbText
  0
LINE
  5
277
100
AcDbEntity
  8
Layer00001
  6
Continuous
 62
               7
100
AcDbLine
 10
705.0000000000008
 20
30.000000000000032
 30
0.0
 11
555.00000000000057
 21
30.000000000000032
 31
0.0
  0
LINE
  5
278
100
AcDbEntity
  8
Layer00001
  6
Continuous
 62
               7
100
AcDbLine
 10
705.0000000000008
 20
45.00000000000005
 30
0.0
 11
555.00000000000057
 21
45.00000000000005
 31
0.0
  0
LINE
  5
279
100
AcDbEntity
  8
Layer00001
  6
Continuous
 62
               7
100
AcDbLine
 10
555.00000000000057
 20
45.00000000000005
 30
0.0
 11
555.00000000000057
 21
30.000000000000032
 31
0.0
  0
LINE
  5
27A
100
AcDbEntity
  8
Layer00001
  6
Continuous
 62
               7
100
AcDbLine
 10
705.0000000000008
 20
45.00000000000005
 30
0.0
 11
705.0000000000008
 21
30.000000000000032
 31
0.0
  0
LINE
  5
27B
100
AcDbEntity
  8
Layer00001
  6
Continuous
 62
               7
100
AcDbLine
 10
30.000000000000053
 20
846.00000000000091
 30
0.0
 11
30.000000000000036
 21
861.00000000000091
 31
0.0
  0
LINE
  5
27C
100
AcDbEntity
  8
Layer00001
  6
Continuous
 62
               7
100
AcDbLine
 10
120.0000000000001
 20
861.00000000000091
 30
0.0
 11
30.000000000000032
 21
861.00000000000091
 31
0.0
  0
LINE
  5
27D
100
AcDbEntity
  8
Layer00001
  6
Continuous
 62
               7
100
AcDbLine
 10
120.00000000000013
 20
846.00000000000091
 30
0.0
 11
30.000000000000046
 21
846.00000000000091
 31
0.0
  0
LINE
  5
27E
100
AcDbEntity
  8
Layer00001
  6
Continuous
 62
               7
100
AcDbLine
 10
120.00000000000013
 20
846.00000000000091
 30
0.0
 11
120.00000000000013
 21
861.00000000000091
 31
0.0
  0
TEXT
  5
27F
100
AcDbEntity
  8
Layer00001
 62
               7
100
AcDbText
 10
569.25000000000057
 20
33.000000000000036
 30
0.0
 40
9.0000000000000089
  1
ケラバ断面詳細図　［S=1/3］
 41
0.7695
  7
FontTableH_0
 72
               5
 11
690.75000000000068
 21
33.000000000000036
 31
0.0
100
AcDbText
  0
TEXT
  5
280
100
AcDbEntity
  8
Layer00001
 62
               7
100
AcDbText
 10
52.500000000000064
 20
849.00000000000091
 30
0.0
 40
9.0000000000000089
  1
ＳＦルーフ
 41
0.7695
  7
FontTableH_0
 72
               5
 11
97.500000000000114
 21
849.00000000000091
 31
0.0
100
AcDbText
  0
ENDSEC
  0
SECTION
  2
OBJECTS
  0
DICTIONARY
  5
19
100
AcDbDictionary
  3
ACAD_GROUP
350
1A
  3
ACAD_MLINESTYLE
350
1B
  3
DWGPROPS
350
281
  0
DICTIONARY
  5
1A
102
{ACAD_REACTORS
330
19
102
}
100
AcDbDictionary
  0
DICTIONARY
  5
1B
102
{ACAD_REACTORS
330
19
102
}
100
AcDbDictionary
  3
STANDARD
350
1C
  0
MLINESTYLE
  5
1C
102
{ACAD_REACTORS
330
1B
102
}
100
AcDbMlineStyle
  2
Standard
 70
               0
  3

 62
               0
 51
90.0
 52
90.0
 71
               2
 49
0.5
 62
             256
  6
ByLayer
 49
-0.5
 62
             256
  6
ByLayer
  0
XRECORD
  5
281
100
AcDbXrecord
  1
DWGPROPS COOKIE
  2

  3

  4

  6

  7

  0
ENDSEC
  0
EOF
