  0
SECTION
  2
HEADER
  9
$ACADVER
  1
AC1014
  9
$ACADMAINTVER
 70
               0
  9
$DWGCODEPAGE
  3
ANSI_932
  9
$INSBASE
 10
0.0
 20
0.0
 30
0.0
  9
$EXTMIN
 10
0.0
 20
0.0
 30
0.0
  9
$EXTMAX
 10
891.00000000000091
 20
630.00000000000068
 30
0.0
  9
$LIMMIN
 10
0.0
 20
0.0
  9
$LIMMAX
 10
891.00000000000091
 20
630.00000000000068
  9
$ORTHOMODE
 70
               0
  9
$REGENMODE
 70
               1
  9
$FILLMODE
 70
               1
  9
$QTEXTMODE
 70
               0
  9
$MIRRTEXT
 70
               1
  9
$DRAGMODE
 70
               2
  9
$LTSCALE
 40
3.0000000000000031
  9
$OSMODE
 70
               0
  9
$ATTMODE
 70
               1
  9
$TEXTSIZE
 40
0.2
  9
$TRACEWID
 40
0.05
  9
$TEXTSTYLE
  7
Standard
  9
$CLAYER
  8
0
  9
$CELTYPE
  6
Continuous
  9
$CECOLOR
 62
             256
  9
$CELTSCALE
 40
1.0
  9
$DELOBJ
 70
               1
  9
$DISPSILH
 70
               0
  9
$DIMSCALE
 40
1.0
  9
$DIMASZ
 40
0.18
  9
$DIMEXO
 40
0.0625
  9
$DIMDLI
 40
0.38
  9
$DIMRND
 40
0.0
  9
$DIMDLE
 40
0.0
  9
$DIMEXE
 40
0.18
  9
$DIMTP
 40
0.0
  9
$DIMTM
 40
0.0
  9
$DIMTXT
 40
0.18
  9
$DIMCEN
 40
0.09
  9
$DIMTSZ
 40
0.0
  9
$DIMTOL
 70
               0
  9
$DIMLIM
 70
               0
  9
$DIMTIH
 70
               1
  9
$DIMTOH
 70
               1
  9
$DIMSE1
 70
               0
  9
$DIMSE2
 70
               0
  9
$DIMTAD
 70
               0
  9
$DIMZIN
 70
               0
  9
$DIMBLK
  1

  9
$DIMASO
 70
               1
  9
$DIMSHO
 70
               1
  9
$DIMPOST
  1

  9
$DIMAPOST
  1

  9
$DIMALT
 70
               0
  9
$DIMALTD
 70
               2
  9
$DIMALTF
 40
25.399999999999999
  9
$DIMLFAC
 40
1.0
  9
$DIMTOFL
 70
               0
  9
$DIMTVP
 40
0.0
  9
$DIMTIX
 70
               0
  9
$DIMSOXD
 70
               0
  9
$DIMSAH
 70
               0
  9
$DIMBLK1
  1

  9
$DIMBLK2
  1

  9
$DIMSTYLE
  2
Standard
  9
$DIMCLRD
 70
               0
  9
$DIMCLRE
 70
               0
  9
$DIMCLRT
 70
               0
  9
$DIMTFAC
 40
1.0
  9
$DIMGAP
 40
0.09
  9
$DIMJUST
 70
               0
  9
$DIMSD1
 70
               0
  9
$DIMSD2
 70
               0
  9
$DIMTOLJ
 70
               1
  9
$DIMTZIN
 70
               0
  9
$DIMALTZ
 70
               0
  9
$DIMALTTZ
 70
               0
  9
$DIMFIT
 70
               3
  9
$DIMUPT
 70
               0
  9
$DIMUNIT
 70
               2
  9
$DIMDEC
 70
               4
  9
$DIMTDEC
 70
               4
  9
$DIMALTU
 70
               2
  9
$DIMALTTD
 70
               2
  9
$DIMTXSTY
  7
Standard
  9
$DIMAUNIT
 70
               0
  9
$LUNITS
 70
               2
  9
$LUPREC
 70
               4
  9
$SKETCHINC
 40
0.1
  9
$FILLETRAD
 40
0.0
  9
$AUNITS
 70
               0
  9
$AUPREC
 70
               0
  9
$MENU
  1
acad
  9
$ELEVATION
 40
0.0
  9
$PELEVATION
 40
0.0
  9
$THICKNESS
 40
0.0
  9
$LIMCHECK
 70
               0
  9
$BLIPMODE
 70
               1
  9
$CHAMFERA
 40
0.0
  9
$CHAMFERB
 40
0.0
  9
$CHAMFERC
 40
0.0
  9
$CHAMFERD
 40
0.0
  9
$SKPOLY
 70
               0
  9
$TDCREATE
 40
0.000000000
  9
$TDUPDATE
 40
0.000000000
  9
$TDINDWG
 40
0.0000000000
  9
$TDUSRTIMER
 40
0.0000000000
  9
$USRTIMER
 70
               1
  9
$ANGBASE
 50
0.0
  9
$ANGDIR
 70
               0
  9
$PDMODE
 70
               0
  9
$PDSIZE
 40
0.0
  9
$PLINEWID
 40
0.0
  9
$COORDS
 70
               0
  9
$SPLFRAME
 70
               0
  9
$SPLINETYPE
 70
               6
  9
$SPLINESEGS
 70
               8
  9
$ATTDIA
 70
               0
  9
$ATTREQ
 70
               1
  9
$HANDLING
 70
               1
  9
$HANDSEED
  5
600
  9
$SURFTAB1
 70
               6
  9
$SURFTAB2
 70
               6
  9
$SURFTYPE
 70
               6
  9
$SURFU
 70
               6
  9
$SURFV
 70
               6
  9
$UCSNAME
  2

  9
$UCSORG
 10
0.0
 20
0.0
 30
0.0
  9
$UCSXDIR
 10
1.0
 20
0.0
 30
0.0
  9
$UCSYDIR
 10
0.0
 20
1.0
 30
0.0
  9
$PUCSNAME
  2

  9
$PUCSORG
 10
0.0
 20
0.0
 30
0.0
  9
$PUCSXDIR
 10
1.0
 20
0.0
 30
0.0
  9
$PUCSYDIR
 10
0.0
 20
1.0
 30
0.0
  9
$USERI1
 70
               0
  9
$USERI2
 70
               0
  9
$USERI3
 70
               0
  9
$USERI4
 70
               0
  9
$USERI5
 70
               0
  9
$USERR1
 40
0.0
  9
$USERR2
 40
0.0
  9
$USERR3
 40
0.0
  9
$USERR4
 40
0.0
  9
$USERR5
 40
0.0
  9
$WORLDVIEW
 70
               1
  9
$SHADEDGE
 70
               3
  9
$SHADEDIF
 70
              70
  9
$TILEMODE
 70
               1
  9
$MAXACTVP
 70
              16
  9
$PINSBASE
 10
0.0
 20
0.0
 30
0.0
  9
$PLIMCHECK
 70
               0
  9
$PEXTMIN
 10
1.0000000000000000E+20
 20
1.0000000000000000E+20
 30
1.0000000000000000E+20
  9
$PEXTMAX
 10
-1.0000000000000000E+20
 20
-1.0000000000000000E+20
 30
-1.0000000000000000E+20
  9
$PLIMMIN
 10
0.0
 20
0.0
  9
$PLIMMAX
 10
12.0
 20
9.0
  9
$UNITMODE
 70
               0
  9
$VISRETAIN
 70
               0
  9
$PLINEGEN
 70
               1
  9
$PSLTSCALE
 70
               0
  9
$TREEDEPTH
 70
            3020
  9
$PICKSTYLE
 70
               1
  9
$CMLSTYLE
  2
Standard
  9
$CMLJUST
 70
               0
  9
$CMLSCALE
 40
1.0
  9
$PROXYGRAPHICS
 70
               0
  9
$MEASUREMENT
 70
               0
  0
ENDSEC
  0
SECTION
  2
CLASSES
  0
CLASS
  1
LWPOLYLINE
  2
AcDbPolyline
  3
"AutoCAD"
 90
        0
280
               0
281
               1
  0
CLASS
  1
IMAGE
  2
AcDbRasterImage
  3
ISM
 90
      127
280
               0
281
               1
  0
CLASS
  1
OLE2FRAME
  2
AcDbOle2Frame
  3
""
 90
        0
280
               0
281
               1
  0
CLASS
  1
HATCH
  2
AcDbHatch
  3
"ACAD_SEDONA"
 90
        0
280
               0
281
               1
  0
CLASS
  1
DICTIONARYVAR
  2
AcDbDictionaryVar
  3
"AutoCAD"
 90
        0
280
               0
281
               0
  0
CLASS
  1
RASTERVARIABLES
  2
AcDbRasterVariables
  3
ISM
 90
        0
280
               0
281
               0
  0
CLASS
  1
IMAGEDEF
  2
AcDbRasterImageDef
  3
ISM
 90
        0
280
               0
281
               0
  0
CLASS
  1
IMAGEDEF_REACTOR
  2
AcDbRasterImageDefReactor
  3
ISM
 90
        1
280
               0
281
               0
  0
CLASS
  1
IDBUFFER
  2
AcDbIdBuffer
  3
"Acad"
 90
        0
280
               0
281
               0
  0
CLASS
  1
SPATIAL_FILTER
  2
AcDbSpatialFilter
  3
"Acad"
 90
        0
280
               0
281
               0
  0
CLASS
  1
XRECORD
  2
AcDbXrecord
  3
"<Built In>"
 90
        0
280
               0
281
               0
  0
CLASS
  1
SORTENTSTABLE
  2
AcDbSortentsTable
  3
"AutoCAD"
 90
        0
280
               0
281
               0
  0
CLASS
  1
LAYER_INDEX
  2
AcDbLayerIndex
  3
"Acad"
 90
        0
280
               0
281
               0
  0
CLASS
  1
SPATIAL_INDEX
  2
AcDbSpatialIndex
  3
"Acad"
 90
        0
280
               0
281
               0
  0
CLASS
  1
OBJECT_PTR
  2
CAseDLPNTableRecord
  3
"ASE-LPNTableRecord"
 90
        1
280
               0
281
               0
  0
CLASS
  1
LAYOUT
  2
AcDbLayout
  3
"AutoCAD 2000"
 90
        0
280
               0
281
               0
  0
CLASS
  1
PLOTSETTINGS
  2
AcDbPlotSettings
  3
"AutoCAD 2000"
 90
        0
280
               0
281
               0
  0
CLASS
  1
ACDBDICTIONARYWDFLT
  2
AcDbDictionaryWithDefault
  3
"AutoCAD 2000"
 90
        0
280
               0
281
               0
  0
CLASS
  1
ACDBPLACEHOLDER
  2
AcDbPlaceHolder
  3
"AutoCAD 2000"
 90
        0
280
               0
281
               0
  0
CLASS
  1
VBA_PROJECT
  2
AcDbVbaProject
  3
"acadvba"
 90
        0
280
               0
281
               0
  0
CLASS
  1
WIPEOUT
  2
AcDbWipeout
  3
WipeOut|AutoCAD Express Tool|expresstools@autodesk.com
 90
      127
280
               0
281
               1
  0
CLASS
  1
WIPEOUTVARIABLES
  2
AcDbWipeoutVariables
  3
WipeOut|AutoCAD Express Tool|expresstools@autodesk.com
 90
        0
280
               0
281
               0
  0
CLASS
  1
RTEXT
  2
RText
  3
RText|AutoCAD Express Tool|expresstools@autodesk.com
 90
        0
280
               0
281
               1
  0
CLASS
  1
ARCALIGNEDTEXT
  2
AcDbArcAlignedText
  3
ATEXT|AutoCAD Express Tool|expresstools@autodesk.com
 90
        0
280
               0
281
               1
  0
ENDSEC
  0
SECTION
  2
TABLES
  0
TABLE
  2
VPORT
  5
7
100
AcDbSymbolTable
 70
               1
  0
VPORT
  5
15
100
AcDbSymbolTableRecord
100
AcDbViewportTableRecord
  2
*ACTIVE
 70
               0
 10
0.0
 20
0.0
 11
1.0
 21
1.0
 12
445.50000000000045
 22
315.00000000000034
 13
0.0
 23
0.0
 14
10.0
 24
10.0
 15
10.0
 25
10.0
 16
0.0
 26
0.0
 36
1.0
 17
0.0
 27
0.0
 37
0.0
 40
630.00000000000068
 41
1.4142857142857141
 42
50.0
 43
0.0
 44
0.0
 50
0.0
 51
0.0
 71
               0
 72
             100
 73
               1
 74
               1
 75
               0
 76
               0
 77
               0
 78
               0
  0
ENDTAB
  0
TABLE
  2
LTYPE
  5
4
100
AcDbSymbolTable
 70
              24
  0
LTYPE
  5
11
100
AcDbSymbolTableRecord
100
AcDbLinetypeTableRecord
  2
ByBlock
 70
              64
  3

 72
              65
 73
               0
 40
0.0
  0
LTYPE
  5
12
100
AcDbSymbolTableRecord
100
AcDbLinetypeTableRecord
  2
ByLayer
 70
              64
  3

 72
              65
 73
               0
 40
0.0
  0
LTYPE
  5
13
100
AcDbSymbolTableRecord
100
AcDbLinetypeTableRecord
  2
Continuous
 70
              64
  3
Solid line
 72
              65
 73
               0
 40
0.0
  0
LTYPE
  5
1D
100
AcDbSymbolTableRecord
100
AcDbLinetypeTableRecord
  2
DOT
 70
              64
  3
Dot . . . . . . . . . . . . . . . . . . . . . .
 72
              65
 73
               2
 40
6.3499999999999996
 49
0.35
 74
               0
 49
-6.0
 74
               0
  0
LTYPE
  5
1E
100
AcDbSymbolTableRecord
100
AcDbLinetypeTableRecord
  2
DASHED
 70
              64
  3
Dashed __ __ __ __ __ __ __ __ __ __ __ __ __ _
 72
              65
 73
               2
 40
12.699999999999999
 49
6.3499999999999996
 74
               0
 49
-6.3499999999999996
 74
               0
  0
LTYPE
  5
1F
100
AcDbSymbolTableRecord
100
AcDbLinetypeTableRecord
  2
DASHDOT
 70
              64
  3
Dash dot __ . __ . __ . __ . __ . __ . __ . __
 72
              65
 73
               4
 40
25.399999999999999
 49
12.699999999999999
 74
               0
 49
-6.0
 74
               0
 49
0.7
 74
               0
 49
-6.0
 74
               0
  0
LTYPE
  5
20
100
AcDbSymbolTableRecord
100
AcDbLinetypeTableRecord
  2
DIVIDE
 70
              64
  3
Divide ____ . . ____ . . ____ . . ____ . . ____
 72
              65
 73
               6
 40
31.75
 49
12.699999999999999
 74
               0
 49
-6.0
 74
               0
 49
0.875
 74
               0
 49
-6.0
 74
               0
 49
0.875
 74
               0
 49
-6.0
 74
               0
  0
LTYPE
  5
21
100
AcDbSymbolTableRecord
100
AcDbLinetypeTableRecord
  2
HIDDEN
 70
              64
  3
Hidden __ __ __ __ __ __ __ __ __ __ __ __ __ _
 72
              65
 73
               2
 40
9.5250000000000004
 49
6.3499999999999996
 74
               0
 49
-3.1749999999999998
 74
               0
  0
LTYPE
  5
22
100
AcDbSymbolTableRecord
100
AcDbLinetypeTableRecord
  2
CENTER
 70
              64
  3
Center ____ _ ____ _ ____ _ ____ _ ____ _ ____
 72
              65
 73
               4
 40
50.799999999999997
 49
31.75
 74
               0
 49
-6.3499999999999996
 74
               0
 49
6.3499999999999996
 74
               0
 49
-6.3499999999999996
 74
               0
  0
LTYPE
  5
23
100
AcDbSymbolTableRecord
100
AcDbLinetypeTableRecord
  2
PHANTOM
 70
              64
  3
Phantom ______  __  __  ______  __  __  ______
 72
              65
 73
               6
 40
63.5
 49
31.75
 74
               0
 49
-6.3499999999999996
 74
               0
 49
6.3499999999999996
 74
               0
 49
-6.3499999999999996
 74
               0
 49
6.3499999999999996
 74
               0
 49
-6.3499999999999996
 74
               0
  0
LTYPE
  5
24
100
AcDbSymbolTableRecord
100
AcDbLinetypeTableRecord
  2
ACAD_ISO02W100
 70
              64
  3
ISO dash __ __ __ __ __ __ __ __ __ __ __ __ __
 72
              65
 73
               2
 40
15.0
 49
12.0
 74
               0
 49
-3.0
 74
               0
  0
LTYPE
  5
25
100
AcDbSymbolTableRecord
100
AcDbLinetypeTableRecord
  2
ACAD_ISO03W100
 70
              64
  3
ISO dash space __ __ __ __ __ __ __ __ __ __ __ __ __ __
 72
              65
 73
               2
 40
30.0
 49
12.0
 74
               0
 49
-18.0
 74
               0
  0
LTYPE
  5
26
100
AcDbSymbolTableRecord
100
AcDbLinetypeTableRecord
  2
ACAD_ISO04W100
 70
              64
  3
ISO long-dash dot ____ . ____ . ____ . ____ . _
 72
              65
 73
               4
 40
30.0
 49
24.0
 74
               0
 49
-3.0
 74
               0
 49
0.0
 74
               0
 49
-3.0
 74
               0
  0
LTYPE
  5
27
100
AcDbSymbolTableRecord
100
AcDbLinetypeTableRecord
  2
ACAD_ISO05W100
 70
              64
  3
ISO long-dash double-dot ____ .. ____ .. ____ .
 72
              65
 73
               6
 40
33.0
 49
24.0
 74
               0
 49
-3.0
 74
               0
 49
0.0
 74
               0
 49
-3.0
 74
               0
 49
0.0
 74
               0
 49
-3.0
 74
               0
  0
LTYPE
  5
28
100
AcDbSymbolTableRecord
100
AcDbLinetypeTableRecord
  2
ACAD_ISO06W100
 70
              64
  3
ISO long-dash triple-dot ____ ... ____ ... ____
 72
              65
 73
               8
 40
36.0
 49
24.0
 74
               0
 49
-3.0
 74
               0
 49
0.0
 74
               0
 49
-3.0
 74
               0
 49
0.0
 74
               0
 49
-3.0
 74
               0
 49
0.0
 74
               0
 49
-3.0
 74
               0
  0
LTYPE
  5
29
100
AcDbSymbolTableRecord
100
AcDbLinetypeTableRecord
  2
ACAD_ISO07W100
 70
              64
  3
ISO dot . . . . . . . . . . . . . . . . . . . .
 72
              65
 73
               2
 40
3.0
 49
0.0
 74
               0
 49
-3.0
 74
               0
  0
LTYPE
  5
2A
100
AcDbSymbolTableRecord
100
AcDbLinetypeTableRecord
  2
ACAD_ISO08W100
 70
              64
  3
ISO long-dash short-dash ____ __ ____ __ ____ _
 72
              65
 73
               4
 40
36.0
 49
24.0
 74
               0
 49
-3.0
 74
               0
 49
6.0
 74
               0
 49
-3.0
 74
               0
  0
LTYPE
  5
2B
100
AcDbSymbolTableRecord
100
AcDbLinetypeTableRecord
  2
ACAD_ISO09W100
 70
              64
  3
ISO long-dash double-short-dash ____ __ __ ____
 72
              65
 73
               6
 40
45.0
 49
24.0
 74
               0
 49
-3.0
 74
               0
 49
6.0
 74
               0
 49
-3.0
 74
               0
 49
6.0
 74
               0
 49
-3.0
 74
               0
  0
LTYPE
  5
2C
100
AcDbSymbolTableRecord
100
AcDbLinetypeTableRecord
  2
ACAD_ISO10W100
 70
              64
  3
ISO dash dot __ . __ . __ . __ . __ . __ . __ .
 72
              65
 73
               4
 40
18.0
 49
12.0
 74
               0
 49
-3.0
 74
               0
 49
0.0
 74
               0
 49
-3.0
 74
               0
  0
LTYPE
  5
2D
100
AcDbSymbolTableRecord
100
AcDbLinetypeTableRecord
  2
ACAD_ISO11W100
 70
              64
  3
ISO double-dash dot __ __ . __ __ . __ __ . __ 
 72
              65
 73
               6
 40
33.0
 49
12.0
 74
               0
 49
-3.0
 74
               0
 49
12.0
 74
               0
 49
-3.0
 74
               0
 49
0.0
 74
               0
 49
-3.0
 74
               0
  0
LTYPE
  5
2E
100
AcDbSymbolTableRecord
100
AcDbLinetypeTableRecord
  2
ACAD_ISO12W100
 70
              64
  3
ISO dash double-dot __ . . __ . . __ . . __ . .
 72
              65
 73
               6
 40
21.0
 49
12.0
 74
               0
 49
-3.0
 74
               0
 49
0.0
 74
               0
 49
-3.0
 74
               0
 49
0.0
 74
               0
 49
-3.0
 74
               0
  0
LTYPE
  5
2F
100
AcDbSymbolTableRecord
100
AcDbLinetypeTableRecord
  2
ACAD_ISO13W100
 70
              64
  3
ISO double-dash double-dot __ __ . . __ __ . . 
 72
              65
 73
               8
 40
36.0
 49
12.0
 74
               0
 49
-3.0
 74
               0
 49
12.0
 74
               0
 49
-3.0
 74
               0
 49
0.0
 74
               0
 49
-3.0
 74
               0
 49
0.0
 74
               0
 49
-3.0
 74
               0
  0
LTYPE
  5
30
100
AcDbSymbolTableRecord
100
AcDbLinetypeTableRecord
  2
ACAD_ISO14W100
 70
              64
  3
ISO dash triple-dot __ . . . __ . . . __ . . . 
 72
              65
 73
               8
 40
24.0
 49
12.0
 74
               0
 49
-3.0
 74
               0
 49
0.0
 74
               0
 49
-3.0
 74
               0
 49
0.0
 74
               0
 49
-3.0
 74
               0
 49
0.0
 74
               0
 49
-3.0
 74
               0
  0
LTYPE
  5
31
100
AcDbSymbolTableRecord
100
AcDbLinetypeTableRecord
  2
ACAD_ISO15W100
 70
              64
  3
ISO double-dash double-dot __ __ . . __ __ . . 
 72
              65
 73
              10
 40
39.0
 49
12.0
 74
               0
 49
-3.0
 74
               0
 49
12.0
 74
               0
 49
-3.0
 74
               0
 49
0.0
 74
               0
 49
-3.0
 74
               0
 49
0.0
 74
               0
 49
-3.0
 74
               0
 49
0.0
 74
               0
 49
-3.0
 74
               0
  0
ENDTAB
  0
TABLE
  2
LAYER
  5
2
100
AcDbSymbolTable
 70
             256
  0
LAYER
  5
14
100
AcDbSymbolTableRecord
100
AcDbLayerTableRecord
  2
0
 70
               0
 62
               7
  6
Continuous
  0
LAYER
  5
35
100
AcDbSymbolTableRecord
100
AcDbLayerTableRecord
  2
Layer00001
 70
               0
 62
              -7
  6
Continuous
  0
LAYER
  5
36
100
AcDbSymbolTableRecord
100
AcDbLayerTableRecord
  2
Layer00002
 70
               0
 62
              -7
  6
Continuous
  0
LAYER
  5
37
100
AcDbSymbolTableRecord
100
AcDbLayerTableRecord
  2
Layer00003
 70
               0
 62
              -7
  6
Continuous
  0
LAYER
  5
38
100
AcDbSymbolTableRecord
100
AcDbLayerTableRecord
  2
Layer00004
 70
               0
 62
              -7
  6
Continuous
  0
LAYER
  5
39
100
AcDbSymbolTableRecord
100
AcDbLayerTableRecord
  2
Layer00005
 70
               0
 62
              -7
  6
Continuous
  0
LAYER
  5
3A
100
AcDbSymbolTableRecord
100
AcDbLayerTableRecord
  2
Layer00006
 70
               0
 62
              -7
  6
Continuous
  0
LAYER
  5
3B
100
AcDbSymbolTableRecord
100
AcDbLayerTableRecord
  2
Layer00007
 70
               0
 62
              -7
  6
Continuous
  0
LAYER
  5
3C
100
AcDbSymbolTableRecord
100
AcDbLayerTableRecord
  2
Layer00008
 70
               0
 62
              -7
  6
Continuous
  0
LAYER
  5
3D
100
AcDbSymbolTableRecord
100
AcDbLayerTableRecord
  2
Layer00009
 70
               0
 62
              -7
  6
Continuous
  0
LAYER
  5
3E
100
AcDbSymbolTableRecord
100
AcDbLayerTableRecord
  2
Layer00010
 70
               0
 62
              -7
  6
Continuous
  0
LAYER
  5
3F
100
AcDbSymbolTableRecord
100
AcDbLayerTableRecord
  2
Layer00011
 70
               0
 62
              -7
  6
Continuous
  0
LAYER
  5
40
100
AcDbSymbolTableRecord
100
AcDbLayerTableRecord
  2
Layer00012
 70
               0
 62
              -7
  6
Continuous
  0
LAYER
  5
41
100
AcDbSymbolTableRecord
100
AcDbLayerTableRecord
  2
Layer00013
 70
               0
 62
              -7
  6
Continuous
  0
LAYER
  5
42
100
AcDbSymbolTableRecord
100
AcDbLayerTableRecord
  2
Layer00014
 70
               0
 62
              -7
  6
Continuous
  0
LAYER
  5
43
100
AcDbSymbolTableRecord
100
AcDbLayerTableRecord
  2
Layer00015
 70
               0
 62
              -7
  6
Continuous
  0
LAYER
  5
44
100
AcDbSymbolTableRecord
100
AcDbLayerTableRecord
  2
Layer00016
 70
               0
 62
              -7
  6
Continuous
  0
LAYER
  5
45
100
AcDbSymbolTableRecord
100
AcDbLayerTableRecord
  2
Layer00017
 70
               0
 62
              -7
  6
Continuous
  0
LAYER
  5
46
100
AcDbSymbolTableRecord
100
AcDbLayerTableRecord
  2
Layer00018
 70
               0
 62
              -7
  6
Continuous
  0
LAYER
  5
47
100
AcDbSymbolTableRecord
100
AcDbLayerTableRecord
  2
Layer00019
 70
               0
 62
              -7
  6
Continuous
  0
LAYER
  5
48
100
AcDbSymbolTableRecord
100
AcDbLayerTableRecord
  2
Layer00020
 70
               0
 62
              -7
  6
Continuous
  0
LAYER
  5
49
100
AcDbSymbolTableRecord
100
AcDbLayerTableRecord
  2
Layer00021
 70
               0
 62
              -7
  6
Continuous
  0
LAYER
  5
4A
100
AcDbSymbolTableRecord
100
AcDbLayerTableRecord
  2
Layer00022
 70
               0
 62
              -7
  6
Continuous
  0
LAYER
  5
4B
100
AcDbSymbolTableRecord
100
AcDbLayerTableRecord
  2
Layer00023
 70
               0
 62
              -7
  6
Continuous
  0
LAYER
  5
4C
100
AcDbSymbolTableRecord
100
AcDbLayerTableRecord
  2
Layer00024
 70
               0
 62
              -7
  6
Continuous
  0
LAYER
  5
4D
100
AcDbSymbolTableRecord
100
AcDbLayerTableRecord
  2
Layer00025
 70
               0
 62
              -7
  6
Continuous
  0
LAYER
  5
4E
100
AcDbSymbolTableRecord
100
AcDbLayerTableRecord
  2
Layer00026
 70
               0
 62
              -7
  6
Continuous
  0
LAYER
  5
4F
100
AcDbSymbolTableRecord
100
AcDbLayerTableRecord
  2
Layer00027
 70
               0
 62
              -7
  6
Continuous
  0
LAYER
  5
50
100
AcDbSymbolTableRecord
100
AcDbLayerTableRecord
  2
Layer00028
 70
               0
 62
              -7
  6
Continuous
  0
LAYER
  5
51
100
AcDbSymbolTableRecord
100
AcDbLayerTableRecord
  2
Layer00029
 70
               0
 62
              -7
  6
Continuous
  0
LAYER
  5
52
100
AcDbSymbolTableRecord
100
AcDbLayerTableRecord
  2
Layer00030
 70
               0
 62
              -7
  6
Continuous
  0
LAYER
  5
53
100
AcDbSymbolTableRecord
100
AcDbLayerTableRecord
  2
Layer00031
 70
               0
 62
              -7
  6
Continuous
  0
LAYER
  5
54
100
AcDbSymbolTableRecord
100
AcDbLayerTableRecord
  2
Layer00032
 70
               0
 62
               7
  6
Continuous
  0
LAYER
  5
55
100
AcDbSymbolTableRecord
100
AcDbLayerTableRecord
  2
Layer00033
 70
               0
 62
              -7
  6
Continuous
  0
LAYER
  5
56
100
AcDbSymbolTableRecord
100
AcDbLayerTableRecord
  2
Layer00034
 70
               0
 62
              -7
  6
Continuous
  0
LAYER
  5
57
100
AcDbSymbolTableRecord
100
AcDbLayerTableRecord
  2
Layer00035
 70
               0
 62
              -7
  6
Continuous
  0
LAYER
  5
58
100
AcDbSymbolTableRecord
100
AcDbLayerTableRecord
  2
Layer00036
 70
               0
 62
              -7
  6
Continuous
  0
LAYER
  5
59
100
AcDbSymbolTableRecord
100
AcDbLayerTableRecord
  2
Layer00037
 70
               0
 62
              -7
  6
Continuous
  0
LAYER
  5
5A
100
AcDbSymbolTableRecord
100
AcDbLayerTableRecord
  2
Layer00038
 70
               0
 62
              -7
  6
Continuous
  0
LAYER
  5
5B
100
AcDbSymbolTableRecord
100
AcDbLayerTableRecord
  2
Layer00039
 70
               0
 62
              -7
  6
Continuous
  0
LAYER
  5
5C
100
AcDbSymbolTableRecord
100
AcDbLayerTableRecord
  2
Layer00040
 70
               0
 62
              -7
  6
Continuous
  0
LAYER
  5
5D
100
AcDbSymbolTableRecord
100
AcDbLayerTableRecord
  2
Layer00041
 70
               0
 62
              -7
  6
Continuous
  0
LAYER
  5
5E
100
AcDbSymbolTableRecord
100
AcDbLayerTableRecord
  2
Layer00042
 70
               0
 62
              -7
  6
Continuous
  0
LAYER
  5
5F
100
AcDbSymbolTableRecord
100
AcDbLayerTableRecord
  2
Layer00043
 70
               0
 62
              -7
  6
Continuous
  0
LAYER
  5
60
100
AcDbSymbolTableRecord
100
AcDbLayerTableRecord
  2
Layer00044
 70
               0
 62
              -7
  6
Continuous
  0
LAYER
  5
61
100
AcDbSymbolTableRecord
100
AcDbLayerTableRecord
  2
Layer00045
 70
               0
 62
              -7
  6
Continuous
  0
LAYER
  5
62
100
AcDbSymbolTableRecord
100
AcDbLayerTableRecord
  2
Layer00046
 70
               0
 62
              -7
  6
Continuous
  0
LAYER
  5
63
100
AcDbSymbolTableRecord
100
AcDbLayerTableRecord
  2
Layer00047
 70
               0
 62
              -7
  6
Continuous
  0
LAYER
  5
64
100
AcDbSymbolTableRecord
100
AcDbLayerTableRecord
  2
Layer00048
 70
               0
 62
               7
  6
Continuous
  0
LAYER
  5
65
100
AcDbSymbolTableRecord
100
AcDbLayerTableRecord
  2
Layer00049
 70
               0
 62
              -7
  6
Continuous
  0
LAYER
  5
66
100
AcDbSymbolTableRecord
100
AcDbLayerTableRecord
  2
Layer00050
 70
               0
 62
              -7
  6
Continuous
  0
LAYER
  5
67
100
AcDbSymbolTableRecord
100
AcDbLayerTableRecord
  2
Layer00051
 70
               0
 62
              -7
  6
Continuous
  0
LAYER
  5
68
100
AcDbSymbolTableRecord
100
AcDbLayerTableRecord
  2
Layer00052
 70
               0
 62
              -7
  6
Continuous
  0
LAYER
  5
69
100
AcDbSymbolTableRecord
100
AcDbLayerTableRecord
  2
Layer00053
 70
               0
 62
              -7
  6
Continuous
  0
LAYER
  5
6A
100
AcDbSymbolTableRecord
100
AcDbLayerTableRecord
  2
Layer00054
 70
               0
 62
              -7
  6
Continuous
  0
LAYER
  5
6B
100
AcDbSymbolTableRecord
100
AcDbLayerTableRecord
  2
Layer00055
 70
               0
 62
              -7
  6
Continuous
  0
LAYER
  5
6C
100
AcDbSymbolTableRecord
100
AcDbLayerTableRecord
  2
Layer00056
 70
               0
 62
              -7
  6
Continuous
  0
LAYER
  5
6D
100
AcDbSymbolTableRecord
100
AcDbLayerTableRecord
  2
Layer00057
 70
               0
 62
              -7
  6
Continuous
  0
LAYER
  5
6E
100
AcDbSymbolTableRecord
100
AcDbLayerTableRecord
  2
Layer00058
 70
               0
 62
              -7
  6
Continuous
  0
LAYER
  5
6F
100
AcDbSymbolTableRecord
100
AcDbLayerTableRecord
  2
Layer00059
 70
               0
 62
              -7
  6
Continuous
  0
LAYER
  5
70
100
AcDbSymbolTableRecord
100
AcDbLayerTableRecord
  2
Layer00060
 70
               0
 62
              -7
  6
Continuous
  0
LAYER
  5
71
100
AcDbSymbolTableRecord
100
AcDbLayerTableRecord
  2
Layer00061
 70
               0
 62
              -7
  6
Continuous
  0
LAYER
  5
72
100
AcDbSymbolTableRecord
100
AcDbLayerTableRecord
  2
Layer00062
 70
               0
 62
              -7
  6
Continuous
  0
LAYER
  5
73
100
AcDbSymbolTableRecord
100
AcDbLayerTableRecord
  2
Layer00063
 70
               0
 62
              -7
  6
Continuous
  0
LAYER
  5
74
100
AcDbSymbolTableRecord
100
AcDbLayerTableRecord
  2
Layer00064
 70
               0
 62
               7
  6
Continuous
  0
LAYER
  5
75
100
AcDbSymbolTableRecord
100
AcDbLayerTableRecord
  2
Layer00065
 70
               0
 62
              -7
  6
Continuous
  0
LAYER
  5
76
100
AcDbSymbolTableRecord
100
AcDbLayerTableRecord
  2
Layer00066
 70
               0
 62
              -7
  6
Continuous
  0
LAYER
  5
77
100
AcDbSymbolTableRecord
100
AcDbLayerTableRecord
  2
Layer00067
 70
               0
 62
              -7
  6
Continuous
  0
LAYER
  5
78
100
AcDbSymbolTableRecord
100
AcDbLayerTableRecord
  2
Layer00068
 70
               0
 62
              -7
  6
Continuous
  0
LAYER
  5
79
100
AcDbSymbolTableRecord
100
AcDbLayerTableRecord
  2
Layer00069
 70
               0
 62
              -7
  6
Continuous
  0
LAYER
  5
7A
100
AcDbSymbolTableRecord
100
AcDbLayerTableRecord
  2
Layer00070
 70
               0
 62
              -7
  6
Continuous
  0
LAYER
  5
7B
100
AcDbSymbolTableRecord
100
AcDbLayerTableRecord
  2
Layer00071
 70
               0
 62
              -7
  6
Continuous
  0
LAYER
  5
7C
100
AcDbSymbolTableRecord
100
AcDbLayerTableRecord
  2
Layer00072
 70
               0
 62
              -7
  6
Continuous
  0
LAYER
  5
7D
100
AcDbSymbolTableRecord
100
AcDbLayerTableRecord
  2
Layer00073
 70
               0
 62
              -7
  6
Continuous
  0
LAYER
  5
7E
100
AcDbSymbolTableRecord
100
AcDbLayerTableRecord
  2
Layer00074
 70
               0
 62
              -7
  6
Continuous
  0
LAYER
  5
7F
100
AcDbSymbolTableRecord
100
AcDbLayerTableRecord
  2
Layer00075
 70
               0
 62
              -7
  6
Continuous
  0
LAYER
  5
80
100
AcDbSymbolTableRecord
100
AcDbLayerTableRecord
  2
Layer00076
 70
               0
 62
              -7
  6
Continuous
  0
LAYER
  5
81
100
AcDbSymbolTableRecord
100
AcDbLayerTableRecord
  2
Layer00077
 70
               0
 62
              -7
  6
Continuous
  0
LAYER
  5
82
100
AcDbSymbolTableRecord
100
AcDbLayerTableRecord
  2
Layer00078
 70
               0
 62
              -7
  6
Continuous
  0
LAYER
  5
83
100
AcDbSymbolTableRecord
100
AcDbLayerTableRecord
  2
Layer00079
 70
               0
 62
              -7
  6
Continuous
  0
LAYER
  5
84
100
AcDbSymbolTableRecord
100
AcDbLayerTableRecord
  2
Layer00080
 70
               0
 62
               7
  6
Continuous
  0
LAYER
  5
85
100
AcDbSymbolTableRecord
100
AcDbLayerTableRecord
  2
Layer00081
 70
               0
 62
              -7
  6
Continuous
  0
LAYER
  5
86
100
AcDbSymbolTableRecord
100
AcDbLayerTableRecord
  2
Layer00082
 70
               0
 62
              -7
  6
Continuous
  0
LAYER
  5
87
100
AcDbSymbolTableRecord
100
AcDbLayerTableRecord
  2
Layer00083
 70
               0
 62
              -7
  6
Continuous
  0
LAYER
  5
88
100
AcDbSymbolTableRecord
100
AcDbLayerTableRecord
  2
Layer00084
 70
               0
 62
              -7
  6
Continuous
  0
LAYER
  5
89
100
AcDbSymbolTableRecord
100
AcDbLayerTableRecord
  2
Layer00085
 70
               0
 62
              -7
  6
Continuous
  0
LAYER
  5
8A
100
AcDbSymbolTableRecord
100
AcDbLayerTableRecord
  2
Layer00086
 70
               0
 62
              -7
  6
Continuous
  0
LAYER
  5
8B
100
AcDbSymbolTableRecord
100
AcDbLayerTableRecord
  2
Layer00087
 70
               0
 62
              -7
  6
Continuous
  0
LAYER
  5
8C
100
AcDbSymbolTableRecord
100
AcDbLayerTableRecord
  2
Layer00088
 70
               0
 62
              -7
  6
Continuous
  0
LAYER
  5
8D
100
AcDbSymbolTableRecord
100
AcDbLayerTableRecord
  2
Layer00089
 70
               0
 62
              -7
  6
Continuous
  0
LAYER
  5
8E
100
AcDbSymbolTableRecord
100
AcDbLayerTableRecord
  2
Layer00090
 70
               0
 62
              -7
  6
Continuous
  0
LAYER
  5
8F
100
AcDbSymbolTableRecord
100
AcDbLayerTableRecord
  2
Layer00091
 70
               0
 62
              -7
  6
Continuous
  0
LAYER
  5
90
100
AcDbSymbolTableRecord
100
AcDbLayerTableRecord
  2
Layer00092
 70
               0
 62
              -7
  6
Continuous
  0
LAYER
  5
91
100
AcDbSymbolTableRecord
100
AcDbLayerTableRecord
  2
Layer00093
 70
               0
 62
              -7
  6
Continuous
  0
LAYER
  5
92
100
AcDbSymbolTableRecord
100
AcDbLayerTableRecord
  2
Layer00094
 70
               0
 62
              -7
  6
Continuous
  0
LAYER
  5
93
100
AcDbSymbolTableRecord
100
AcDbLayerTableRecord
  2
Layer00095
 70
               0
 62
              -7
  6
Continuous
  0
LAYER
  5
94
100
AcDbSymbolTableRecord
100
AcDbLayerTableRecord
  2
Layer00096
 70
               0
 62
               7
  6
Continuous
  0
LAYER
  5
95
100
AcDbSymbolTableRecord
100
AcDbLayerTableRecord
  2
Layer00097
 70
               0
 62
              -7
  6
Continuous
  0
LAYER
  5
96
100
AcDbSymbolTableRecord
100
AcDbLayerTableRecord
  2
Layer00098
 70
               0
 62
              -7
  6
Continuous
  0
LAYER
  5
97
100
AcDbSymbolTableRecord
100
AcDbLayerTableRecord
  2
Layer00099
 70
               0
 62
              -7
  6
Continuous
  0
LAYER
  5
98
100
AcDbSymbolTableRecord
100
AcDbLayerTableRecord
  2
Layer00100
 70
               0
 62
              -7
  6
Continuous
  0
LAYER
  5
99
100
AcDbSymbolTableRecord
100
AcDbLayerTableRecord
  2
Layer00101
 70
               0
 62
              -7
  6
Continuous
  0
LAYER
  5
9A
100
AcDbSymbolTableRecord
100
AcDbLayerTableRecord
  2
Layer00102
 70
               0
 62
              -7
  6
Continuous
  0
LAYER
  5
9B
100
AcDbSymbolTableRecord
100
AcDbLayerTableRecord
  2
Layer00103
 70
               0
 62
              -7
  6
Continuous
  0
LAYER
  5
9C
100
AcDbSymbolTableRecord
100
AcDbLayerTableRecord
  2
Layer00104
 70
               0
 62
              -7
  6
Continuous
  0
LAYER
  5
9D
100
AcDbSymbolTableRecord
100
AcDbLayerTableRecord
  2
Layer00105
 70
               0
 62
              -7
  6
Continuous
  0
LAYER
  5
9E
100
AcDbSymbolTableRecord
100
AcDbLayerTableRecord
  2
Layer00106
 70
               0
 62
              -7
  6
Continuous
  0
LAYER
  5
9F
100
AcDbSymbolTableRecord
100
AcDbLayerTableRecord
  2
Layer00107
 70
               0
 62
              -7
  6
Continuous
  0
LAYER
  5
A0
100
AcDbSymbolTableRecord
100
AcDbLayerTableRecord
  2
Layer00108
 70
               0
 62
              -7
  6
Continuous
  0
LAYER
  5
A1
100
AcDbSymbolTableRecord
100
AcDbLayerTableRecord
  2
Layer00109
 70
               0
 62
              -7
  6
Continuous
  0
LAYER
  5
A2
100
AcDbSymbolTableRecord
100
AcDbLayerTableRecord
  2
Layer00110
 70
               0
 62
              -7
  6
Continuous
  0
LAYER
  5
A3
100
AcDbSymbolTableRecord
100
AcDbLayerTableRecord
  2
Layer00111
 70
               0
 62
              -7
  6
Continuous
  0
LAYER
  5
A4
100
AcDbSymbolTableRecord
100
AcDbLayerTableRecord
  2
Layer00112
 70
               0
 62
               7
  6
Continuous
  0
LAYER
  5
A5
100
AcDbSymbolTableRecord
100
AcDbLayerTableRecord
  2
Layer00113
 70
               0
 62
              -7
  6
Continuous
  0
LAYER
  5
A6
100
AcDbSymbolTableRecord
100
AcDbLayerTableRecord
  2
Layer00114
 70
               0
 62
              -7
  6
Continuous
  0
LAYER
  5
A7
100
AcDbSymbolTableRecord
100
AcDbLayerTableRecord
  2
Layer00115
 70
               0
 62
              -7
  6
Continuous
  0
LAYER
  5
A8
100
AcDbSymbolTableRecord
100
AcDbLayerTableRecord
  2
Layer00116
 70
               0
 62
              -7
  6
Continuous
  0
LAYER
  5
A9
100
AcDbSymbolTableRecord
100
AcDbLayerTableRecord
  2
Layer00117
 70
               0
 62
              -7
  6
Continuous
  0
LAYER
  5
AA
100
AcDbSymbolTableRecord
100
AcDbLayerTableRecord
  2
Layer00118
 70
               0
 62
              -7
  6
Continuous
  0
LAYER
  5
AB
100
AcDbSymbolTableRecord
100
AcDbLayerTableRecord
  2
Layer00119
 70
               0
 62
              -7
  6
Continuous
  0
LAYER
  5
AC
100
AcDbSymbolTableRecord
100
AcDbLayerTableRecord
  2
Layer00120
 70
               0
 62
              -7
  6
Continuous
  0
LAYER
  5
AD
100
AcDbSymbolTableRecord
100
AcDbLayerTableRecord
  2
Layer00121
 70
               0
 62
              -7
  6
Continuous
  0
LAYER
  5
AE
100
AcDbSymbolTableRecord
100
AcDbLayerTableRecord
  2
Layer00122
 70
               0
 62
              -7
  6
Continuous
  0
LAYER
  5
AF
100
AcDbSymbolTableRecord
100
AcDbLayerTableRecord
  2
Layer00123
 70
               0
 62
              -7
  6
Continuous
  0
LAYER
  5
B0
100
AcDbSymbolTableRecord
100
AcDbLayerTableRecord
  2
Layer00124
 70
               0
 62
              -7
  6
Continuous
  0
LAYER
  5
B1
100
AcDbSymbolTableRecord
100
AcDbLayerTableRecord
  2
Layer00125
 70
               0
 62
              -7
  6
Continuous
  0
LAYER
  5
B2
100
AcDbSymbolTableRecord
100
AcDbLayerTableRecord
  2
Layer00126
 70
               0
 62
              -7
  6
Continuous
  0
LAYER
  5
B3
100
AcDbSymbolTableRecord
100
AcDbLayerTableRecord
  2
Layer00127
 70
               0
 62
              -7
  6
Continuous
  0
LAYER
  5
B4
100
AcDbSymbolTableRecord
100
AcDbLayerTableRecord
  2
Layer00128
 70
               0
 62
               7
  6
Continuous
  0
LAYER
  5
B5
100
AcDbSymbolTableRecord
100
AcDbLayerTableRecord
  2
Layer00129
 70
               0
 62
              -7
  6
Continuous
  0
LAYER
  5
B6
100
AcDbSymbolTableRecord
100
AcDbLayerTableRecord
  2
Layer00130
 70
               0
 62
              -7
  6
Continuous
  0
LAYER
  5
B7
100
AcDbSymbolTableRecord
100
AcDbLayerTableRecord
  2
Layer00131
 70
               0
 62
              -7
  6
Continuous
  0
LAYER
  5
B8
100
AcDbSymbolTableRecord
100
AcDbLayerTableRecord
  2
Layer00132
 70
               0
 62
              -7
  6
Continuous
  0
LAYER
  5
B9
100
AcDbSymbolTableRecord
100
AcDbLayerTableRecord
  2
Layer00133
 70
               0
 62
              -7
  6
Continuous
  0
LAYER
  5
BA
100
AcDbSymbolTableRecord
100
AcDbLayerTableRecord
  2
Layer00134
 70
               0
 62
              -7
  6
Continuous
  0
LAYER
  5
BB
100
AcDbSymbolTableRecord
100
AcDbLayerTableRecord
  2
Layer00135
 70
               0
 62
              -7
  6
Continuous
  0
LAYER
  5
BC
100
AcDbSymbolTableRecord
100
AcDbLayerTableRecord
  2
Layer00136
 70
               0
 62
              -7
  6
Continuous
  0
LAYER
  5
BD
100
AcDbSymbolTableRecord
100
AcDbLayerTableRecord
  2
Layer00137
 70
               0
 62
              -7
  6
Continuous
  0
LAYER
  5
BE
100
AcDbSymbolTableRecord
100
AcDbLayerTableRecord
  2
Layer00138
 70
               0
 62
              -7
  6
Continuous
  0
LAYER
  5
BF
100
AcDbSymbolTableRecord
100
AcDbLayerTableRecord
  2
Layer00139
 70
               0
 62
              -7
  6
Continuous
  0
LAYER
  5
C0
100
AcDbSymbolTableRecord
100
AcDbLayerTableRecord
  2
Layer00140
 70
               0
 62
              -7
  6
Continuous
  0
LAYER
  5
C1
100
AcDbSymbolTableRecord
100
AcDbLayerTableRecord
  2
Layer00141
 70
               0
 62
              -7
  6
Continuous
  0
LAYER
  5
C2
100
AcDbSymbolTableRecord
100
AcDbLayerTableRecord
  2
Layer00142
 70
               0
 62
              -7
  6
Continuous
  0
LAYER
  5
C3
100
AcDbSymbolTableRecord
100
AcDbLayerTableRecord
  2
Layer00143
 70
               0
 62
              -7
  6
Continuous
  0
LAYER
  5
C4
100
AcDbSymbolTableRecord
100
AcDbLayerTableRecord
  2
Layer00144
 70
               0
 62
               7
  6
Continuous
  0
LAYER
  5
C5
100
AcDbSymbolTableRecord
100
AcDbLayerTableRecord
  2
Layer00145
 70
               0
 62
              -7
  6
Continuous
  0
LAYER
  5
C6
100
AcDbSymbolTableRecord
100
AcDbLayerTableRecord
  2
Layer00146
 70
               0
 62
              -7
  6
Continuous
  0
LAYER
  5
C7
100
AcDbSymbolTableRecord
100
AcDbLayerTableRecord
  2
Layer00147
 70
               0
 62
              -7
  6
Continuous
  0
LAYER
  5
C8
100
AcDbSymbolTableRecord
100
AcDbLayerTableRecord
  2
Layer00148
 70
               0
 62
              -7
  6
Continuous
  0
LAYER
  5
C9
100
AcDbSymbolTableRecord
100
AcDbLayerTableRecord
  2
Layer00149
 70
               0
 62
              -7
  6
Continuous
  0
LAYER
  5
CA
100
AcDbSymbolTableRecord
100
AcDbLayerTableRecord
  2
Layer00150
 70
               0
 62
              -7
  6
Continuous
  0
LAYER
  5
CB
100
AcDbSymbolTableRecord
100
AcDbLayerTableRecord
  2
Layer00151
 70
               0
 62
              -7
  6
Continuous
  0
LAYER
  5
CC
100
AcDbSymbolTableRecord
100
AcDbLayerTableRecord
  2
Layer00152
 70
               0
 62
              -7
  6
Continuous
  0
LAYER
  5
CD
100
AcDbSymbolTableRecord
100
AcDbLayerTableRecord
  2
Layer00153
 70
               0
 62
              -7
  6
Continuous
  0
LAYER
  5
CE
100
AcDbSymbolTableRecord
100
AcDbLayerTableRecord
  2
Layer00154
 70
               0
 62
              -7
  6
Continuous
  0
LAYER
  5
CF
100
AcDbSymbolTableRecord
100
AcDbLayerTableRecord
  2
Layer00155
 70
               0
 62
              -7
  6
Continuous
  0
LAYER
  5
D0
100
AcDbSymbolTableRecord
100
AcDbLayerTableRecord
  2
Layer00156
 70
               0
 62
              -7
  6
Continuous
  0
LAYER
  5
D1
100
AcDbSymbolTableRecord
100
AcDbLayerTableRecord
  2
Layer00157
 70
               0
 62
              -7
  6
Continuous
  0
LAYER
  5
D2
100
AcDbSymbolTableRecord
100
AcDbLayerTableRecord
  2
Layer00158
 70
               0
 62
              -7
  6
Continuous
  0
LAYER
  5
D3
100
AcDbSymbolTableRecord
100
AcDbLayerTableRecord
  2
Layer00159
 70
               0
 62
              -7
  6
Continuous
  0
LAYER
  5
D4
100
AcDbSymbolTableRecord
100
AcDbLayerTableRecord
  2
Layer00160
 70
               0
 62
               7
  6
Continuous
  0
LAYER
  5
D5
100
AcDbSymbolTableRecord
100
AcDbLayerTableRecord
  2
Layer00161
 70
               0
 62
              -7
  6
Continuous
  0
LAYER
  5
D6
100
AcDbSymbolTableRecord
100
AcDbLayerTableRecord
  2
Layer00162
 70
               0
 62
              -7
  6
Continuous
  0
LAYER
  5
D7
100
AcDbSymbolTableRecord
100
AcDbLayerTableRecord
  2
Layer00163
 70
               0
 62
              -7
  6
Continuous
  0
LAYER
  5
D8
100
AcDbSymbolTableRecord
100
AcDbLayerTableRecord
  2
Layer00164
 70
               0
 62
              -7
  6
Continuous
  0
LAYER
  5
D9
100
AcDbSymbolTableRecord
100
AcDbLayerTableRecord
  2
Layer00165
 70
               0
 62
              -7
  6
Continuous
  0
LAYER
  5
DA
100
AcDbSymbolTableRecord
100
AcDbLayerTableRecord
  2
Layer00166
 70
               0
 62
              -7
  6
Continuous
  0
LAYER
  5
DB
100
AcDbSymbolTableRecord
100
AcDbLayerTableRecord
  2
Layer00167
 70
               0
 62
              -7
  6
Continuous
  0
LAYER
  5
DC
100
AcDbSymbolTableRecord
100
AcDbLayerTableRecord
  2
Layer00168
 70
               0
 62
              -7
  6
Continuous
  0
LAYER
  5
DD
100
AcDbSymbolTableRecord
100
AcDbLayerTableRecord
  2
Layer00169
 70
               0
 62
              -7
  6
Continuous
  0
LAYER
  5
DE
100
AcDbSymbolTableRecord
100
AcDbLayerTableRecord
  2
Layer00170
 70
               0
 62
              -7
  6
Continuous
  0
LAYER
  5
DF
100
AcDbSymbolTableRecord
100
AcDbLayerTableRecord
  2
Layer00171
 70
               0
 62
              -7
  6
Continuous
  0
LAYER
  5
E0
100
AcDbSymbolTableRecord
100
AcDbLayerTableRecord
  2
Layer00172
 70
               0
 62
              -7
  6
Continuous
  0
LAYER
  5
E1
100
AcDbSymbolTableRecord
100
AcDbLayerTableRecord
  2
Layer00173
 70
               0
 62
              -7
  6
Continuous
  0
LAYER
  5
E2
100
AcDbSymbolTableRecord
100
AcDbLayerTableRecord
  2
Layer00174
 70
               0
 62
              -7
  6
Continuous
  0
LAYER
  5
E3
100
AcDbSymbolTableRecord
100
AcDbLayerTableRecord
  2
Layer00175
 70
               0
 62
              -7
  6
Continuous
  0
LAYER
  5
E4
100
AcDbSymbolTableRecord
100
AcDbLayerTableRecord
  2
Layer00176
 70
               0
 62
               7
  6
Continuous
  0
LAYER
  5
E5
100
AcDbSymbolTableRecord
100
AcDbLayerTableRecord
  2
Layer00177
 70
               0
 62
              -7
  6
Continuous
  0
LAYER
  5
E6
100
AcDbSymbolTableRecord
100
AcDbLayerTableRecord
  2
Layer00178
 70
               0
 62
              -7
  6
Continuous
  0
LAYER
  5
E7
100
AcDbSymbolTableRecord
100
AcDbLayerTableRecord
  2
Layer00179
 70
               0
 62
              -7
  6
Continuous
  0
LAYER
  5
E8
100
AcDbSymbolTableRecord
100
AcDbLayerTableRecord
  2
Layer00180
 70
               0
 62
              -7
  6
Continuous
  0
LAYER
  5
E9
100
AcDbSymbolTableRecord
100
AcDbLayerTableRecord
  2
Layer00181
 70
               0
 62
              -7
  6
Continuous
  0
LAYER
  5
EA
100
AcDbSymbolTableRecord
100
AcDbLayerTableRecord
  2
Layer00182
 70
               0
 62
              -7
  6
Continuous
  0
LAYER
  5
EB
100
AcDbSymbolTableRecord
100
AcDbLayerTableRecord
  2
Layer00183
 70
               0
 62
              -7
  6
Continuous
  0
LAYER
  5
EC
100
AcDbSymbolTableRecord
100
AcDbLayerTableRecord
  2
Layer00184
 70
               0
 62
              -7
  6
Continuous
  0
LAYER
  5
ED
100
AcDbSymbolTableRecord
100
AcDbLayerTableRecord
  2
Layer00185
 70
               0
 62
              -7
  6
Continuous
  0
LAYER
  5
EE
100
AcDbSymbolTableRecord
100
AcDbLayerTableRecord
  2
Layer00186
 70
               0
 62
              -7
  6
Continuous
  0
LAYER
  5
EF
100
AcDbSymbolTableRecord
100
AcDbLayerTableRecord
  2
Layer00187
 70
               0
 62
              -7
  6
Continuous
  0
LAYER
  5
F0
100
AcDbSymbolTableRecord
100
AcDbLayerTableRecord
  2
Layer00188
 70
               0
 62
              -7
  6
Continuous
  0
LAYER
  5
F1
100
AcDbSymbolTableRecord
100
AcDbLayerTableRecord
  2
Layer00189
 70
               0
 62
              -7
  6
Continuous
  0
LAYER
  5
F2
100
AcDbSymbolTableRecord
100
AcDbLayerTableRecord
  2
Layer00190
 70
               0
 62
              -7
  6
Continuous
  0
LAYER
  5
F3
100
AcDbSymbolTableRecord
100
AcDbLayerTableRecord
  2
Layer00191
 70
               0
 62
              -7
  6
Continuous
  0
LAYER
  5
F4
100
AcDbSymbolTableRecord
100
AcDbLayerTableRecord
  2
Layer00192
 70
               0
 62
               7
  6
Continuous
  0
LAYER
  5
F5
100
AcDbSymbolTableRecord
100
AcDbLayerTableRecord
  2
Layer00193
 70
               0
 62
              -7
  6
Continuous
  0
LAYER
  5
F6
100
AcDbSymbolTableRecord
100
AcDbLayerTableRecord
  2
Layer00194
 70
               0
 62
              -7
  6
Continuous
  0
LAYER
  5
F7
100
AcDbSymbolTableRecord
100
AcDbLayerTableRecord
  2
Layer00195
 70
               0
 62
              -7
  6
Continuous
  0
LAYER
  5
F8
100
AcDbSymbolTableRecord
100
AcDbLayerTableRecord
  2
Layer00196
 70
               0
 62
              -7
  6
Continuous
  0
LAYER
  5
F9
100
AcDbSymbolTableRecord
100
AcDbLayerTableRecord
  2
Layer00197
 70
               0
 62
              -7
  6
Continuous
  0
LAYER
  5
FA
100
AcDbSymbolTableRecord
100
AcDbLayerTableRecord
  2
Layer00198
 70
               0
 62
              -7
  6
Continuous
  0
LAYER
  5
FB
100
AcDbSymbolTableRecord
100
AcDbLayerTableRecord
  2
Layer00199
 70
               0
 62
              -7
  6
Continuous
  0
LAYER
  5
FC
100
AcDbSymbolTableRecord
100
AcDbLayerTableRecord
  2
Layer00200
 70
               0
 62
              -7
  6
Continuous
  0
LAYER
  5
FD
100
AcDbSymbolTableRecord
100
AcDbLayerTableRecord
  2
Layer00201
 70
               0
 62
              -7
  6
Continuous
  0
LAYER
  5
FE
100
AcDbSymbolTableRecord
100
AcDbLayerTableRecord
  2
Layer00202
 70
               0
 62
              -7
  6
Continuous
  0
LAYER
  5
FF
100
AcDbSymbolTableRecord
100
AcDbLayerTableRecord
  2
Layer00203
 70
               0
 62
              -7
  6
Continuous
  0
LAYER
  5
100
100
AcDbSymbolTableRecord
100
AcDbLayerTableRecord
  2
Layer00204
 70
               0
 62
              -7
  6
Continuous
  0
LAYER
  5
101
100
AcDbSymbolTableRecord
100
AcDbLayerTableRecord
  2
Layer00205
 70
               0
 62
              -7
  6
Continuous
  0
LAYER
  5
102
100
AcDbSymbolTableRecord
100
AcDbLayerTableRecord
  2
Layer00206
 70
               0
 62
              -7
  6
Continuous
  0
LAYER
  5
103
100
AcDbSymbolTableRecord
100
AcDbLayerTableRecord
  2
Layer00207
 70
               0
 62
              -7
  6
Continuous
  0
LAYER
  5
104
100
AcDbSymbolTableRecord
100
AcDbLayerTableRecord
  2
Layer00208
 70
               0
 62
               7
  6
Continuous
  0
LAYER
  5
105
100
AcDbSymbolTableRecord
100
AcDbLayerTableRecord
  2
Layer00209
 70
               0
 62
              -7
  6
Continuous
  0
LAYER
  5
106
100
AcDbSymbolTableRecord
100
AcDbLayerTableRecord
  2
Layer00210
 70
               0
 62
              -7
  6
Continuous
  0
LAYER
  5
107
100
AcDbSymbolTableRecord
100
AcDbLayerTableRecord
  2
Layer00211
 70
               0
 62
              -7
  6
Continuous
  0
LAYER
  5
108
100
AcDbSymbolTableRecord
100
AcDbLayerTableRecord
  2
Layer00212
 70
               0
 62
              -7
  6
Continuous
  0
LAYER
  5
109
100
AcDbSymbolTableRecord
100
AcDbLayerTableRecord
  2
Layer00213
 70
               0
 62
              -7
  6
Continuous
  0
LAYER
  5
10A
100
AcDbSymbolTableRecord
100
AcDbLayerTableRecord
  2
Layer00214
 70
               0
 62
              -7
  6
Continuous
  0
LAYER
  5
10B
100
AcDbSymbolTableRecord
100
AcDbLayerTableRecord
  2
Layer00215
 70
               0
 62
              -7
  6
Continuous
  0
LAYER
  5
10C
100
AcDbSymbolTableRecord
100
AcDbLayerTableRecord
  2
Layer00216
 70
               0
 62
              -7
  6
Continuous
  0
LAYER
  5
10D
100
AcDbSymbolTableRecord
100
AcDbLayerTableRecord
  2
Layer00217
 70
               0
 62
              -7
  6
Continuous
  0
LAYER
  5
10E
100
AcDbSymbolTableRecord
100
AcDbLayerTableRecord
  2
Layer00218
 70
               0
 62
              -7
  6
Continuous
  0
LAYER
  5
10F
100
AcDbSymbolTableRecord
100
AcDbLayerTableRecord
  2
Layer00219
 70
               0
 62
              -7
  6
Continuous
  0
LAYER
  5
110
100
AcDbSymbolTableRecord
100
AcDbLayerTableRecord
  2
Layer00220
 70
               0
 62
              -7
  6
Continuous
  0
LAYER
  5
111
100
AcDbSymbolTableRecord
100
AcDbLayerTableRecord
  2
Layer00221
 70
               0
 62
              -7
  6
Continuous
  0
LAYER
  5
112
100
AcDbSymbolTableRecord
100
AcDbLayerTableRecord
  2
Layer00222
 70
               0
 62
              -7
  6
Continuous
  0
LAYER
  5
113
100
AcDbSymbolTableRecord
100
AcDbLayerTableRecord
  2
Layer00223
 70
               0
 62
              -7
  6
Continuous
  0
LAYER
  5
114
100
AcDbSymbolTableRecord
100
AcDbLayerTableRecord
  2
Layer00224
 70
               0
 62
               7
  6
Continuous
  0
LAYER
  5
115
100
AcDbSymbolTableRecord
100
AcDbLayerTableRecord
  2
Layer00225
 70
               0
 62
              -7
  6
Continuous
  0
LAYER
  5
116
100
AcDbSymbolTableRecord
100
AcDbLayerTableRecord
  2
Layer00226
 70
               0
 62
              -7
  6
Continuous
  0
LAYER
  5
117
100
AcDbSymbolTableRecord
100
AcDbLayerTableRecord
  2
Layer00227
 70
               0
 62
              -7
  6
Continuous
  0
LAYER
  5
118
100
AcDbSymbolTableRecord
100
AcDbLayerTableRecord
  2
Layer00228
 70
               0
 62
              -7
  6
Continuous
  0
LAYER
  5
119
100
AcDbSymbolTableRecord
100
AcDbLayerTableRecord
  2
Layer00229
 70
               0
 62
              -7
  6
Continuous
  0
LAYER
  5
11A
100
AcDbSymbolTableRecord
100
AcDbLayerTableRecord
  2
Layer00230
 70
               0
 62
              -7
  6
Continuous
  0
LAYER
  5
11B
100
AcDbSymbolTableRecord
100
AcDbLayerTableRecord
  2
Layer00231
 70
               0
 62
              -7
  6
Continuous
  0
LAYER
  5
11C
100
AcDbSymbolTableRecord
100
AcDbLayerTableRecord
  2
Layer00232
 70
               0
 62
              -7
  6
Continuous
  0
LAYER
  5
11D
100
AcDbSymbolTableRecord
100
AcDbLayerTableRecord
  2
Layer00233
 70
               0
 62
              -7
  6
Continuous
  0
LAYER
  5
11E
100
AcDbSymbolTableRecord
100
AcDbLayerTableRecord
  2
Layer00234
 70
               0
 62
              -7
  6
Continuous
  0
LAYER
  5
11F
100
AcDbSymbolTableRecord
100
AcDbLayerTableRecord
  2
Layer00235
 70
               0
 62
              -7
  6
Continuous
  0
LAYER
  5
120
100
AcDbSymbolTableRecord
100
AcDbLayerTableRecord
  2
Layer00236
 70
               0
 62
              -7
  6
Continuous
  0
LAYER
  5
121
100
AcDbSymbolTableRecord
100
AcDbLayerTableRecord
  2
Layer00237
 70
               0
 62
              -7
  6
Continuous
  0
LAYER
  5
122
100
AcDbSymbolTableRecord
100
AcDbLayerTableRecord
  2
Layer00238
 70
               0
 62
              -7
  6
Continuous
  0
LAYER
  5
123
100
AcDbSymbolTableRecord
100
AcDbLayerTableRecord
  2
Layer00239
 70
               0
 62
              -7
  6
Continuous
  0
LAYER
  5
124
100
AcDbSymbolTableRecord
100
AcDbLayerTableRecord
  2
Layer00240
 70
               0
 62
               7
  6
Continuous
  0
LAYER
  5
125
100
AcDbSymbolTableRecord
100
AcDbLayerTableRecord
  2
Layer00241
 70
               0
 62
              -7
  6
Continuous
  0
LAYER
  5
126
100
AcDbSymbolTableRecord
100
AcDbLayerTableRecord
  2
Layer00242
 70
               0
 62
              -7
  6
Continuous
  0
LAYER
  5
127
100
AcDbSymbolTableRecord
100
AcDbLayerTableRecord
  2
Layer00243
 70
               0
 62
              -7
  6
Continuous
  0
LAYER
  5
128
100
AcDbSymbolTableRecord
100
AcDbLayerTableRecord
  2
Layer00244
 70
               0
 62
              -7
  6
Continuous
  0
LAYER
  5
129
100
AcDbSymbolTableRecord
100
AcDbLayerTableRecord
  2
Layer00245
 70
               0
 62
              -7
  6
Continuous
  0
LAYER
  5
12A
100
AcDbSymbolTableRecord
100
AcDbLayerTableRecord
  2
Layer00246
 70
               0
 62
              -7
  6
Continuous
  0
LAYER
  5
12B
100
AcDbSymbolTableRecord
100
AcDbLayerTableRecord
  2
Layer00247
 70
               0
 62
              -7
  6
Continuous
  0
LAYER
  5
12C
100
AcDbSymbolTableRecord
100
AcDbLayerTableRecord
  2
Layer00248
 70
               0
 62
              -7
  6
Continuous
  0
LAYER
  5
12D
100
AcDbSymbolTableRecord
100
AcDbLayerTableRecord
  2
Layer00249
 70
               0
 62
              -7
  6
Continuous
  0
LAYER
  5
12E
100
AcDbSymbolTableRecord
100
AcDbLayerTableRecord
  2
Layer00250
 70
               0
 62
              -7
  6
Continuous
  0
LAYER
  5
12F
100
AcDbSymbolTableRecord
100
AcDbLayerTableRecord
  2
Layer00251
 70
               0
 62
              -7
  6
Continuous
  0
LAYER
  5
130
100
AcDbSymbolTableRecord
100
AcDbLayerTableRecord
  2
Layer00252
 70
               0
 62
              -7
  6
Continuous
  0
LAYER
  5
131
100
AcDbSymbolTableRecord
100
AcDbLayerTableRecord
  2
Layer00253
 70
               0
 62
              -7
  6
Continuous
  0
LAYER
  5
132
100
AcDbSymbolTableRecord
100
AcDbLayerTableRecord
  2
Layer00254
 70
               0
 62
              -7
  6
Continuous
  0
LAYER
  5
133
100
AcDbSymbolTableRecord
100
AcDbLayerTableRecord
  2
Layer00255
 70
               0
 62
              -7
  6
Continuous
  0
ENDTAB
  0
TABLE
  2
STYLE
  5
3
100
AcDbSymbolTable
 70
               4
  0
STYLE
  5
17
100
AcDbSymbolTableRecord
100
AcDbTextStyleTableRecord
  2
Standard
 70
               0
 40
0.0
 41
1.0
 50
0.0
 71
               0
 42
0.0
  3
txt.shx
  4
bigfont.shx
  0
STYLE
  5
32
100
AcDbSymbolTableRecord
100
AcDbTextStyleTableRecord
  2
STANDARD_T
 70
               4
 40
0.0
 41
1.0
 50
0.0
 71
               0
 42
0.0
  3
txt.shx
  4
bigfont.shx
  0
STYLE
  5
33
100
AcDbSymbolTableRecord
100
AcDbTextStyleTableRecord
  2
FontTableH_0
 70
               0
 40
0.0
 41
1.0
 50
0.0
 71
               0
 42
0.0
  3
MS Gothic.ttf
  4

1001
ACAD
1000
MS Gothic
1071
    32817
  0
STYLE
  5
34
100
AcDbSymbolTableRecord
100
AcDbTextStyleTableRecord
  2
FontTableV_0
 70
               0
 40
0.0
 41
1.0
 50
0.0
 71
               0
 42
0.0
  3
@MS Gothic.ttf
  4

1001
ACAD
1000
@MS Gothic
1071
    32817
  0
ENDTAB
  0
TABLE
  2
VIEW
  5
5
100
AcDbSymbolTable
 70
               0
  0
ENDTAB
  0
TABLE
  2
UCS
  5
6
100
AcDbSymbolTable
 70
               0
  0
ENDTAB
  0
TABLE
  2
APPID
  5
8
100
AcDbSymbolTable
 70
               1
  0
APPID
  5
16
100
AcDbSymbolTableRecord
100
AcDbRegAppTableRecord
  2
ACAD
 70
               0
  0
ENDTAB
  0
TABLE
  2
DIMSTYLE
  5
9
100
AcDbSymbolTable
 70
               1
  0
DIMSTYLE
105
18
100
AcDbSymbolTableRecord
100
AcDbDimStyleTableRecord
  2
Standard
 70
               0
  3

  4

  5

  6

  7

 40
1.0
 41
0.18
 42
0.0625
 43
0.38
 44
0.18
 45
0.0
 46
0.0
 47
0.0
 48
0.0
 71
               0
 72
               0
 73
               1
 74
               1
 75
               0
 76
               0
 77
               0
 78
               0
140
0.18
141
0.09
142
0.0
143
25.399999999999999
144
1.0
145
0.0
146
1.0
147
0.09
170
               0
171
               2
172
               0
173
               0
174
               0
175
               0
176
               0
177
               0
178
               0
270
               2
271
               4
272
               4
273
               2
274
               2
275
               0
280
               0
281
               0
282
               0
283
               1
284
               0
285
               0
286
               0
287
               0
288
               0
340
17
  0
ENDTAB
  0
TABLE
  2
BLOCK_RECORD
  5
1
100
AcDbSymbolTable
 70
               0
  0
BLOCK_RECORD
  5
A
100
AcDbSymbolTableRecord
100
AcDbBlockTableRecord
  2
*MODEL_SPACE
  0
BLOCK_RECORD
  5
B
100
AcDbSymbolTableRecord
100
AcDbBlockTableRecord
  2
*PAPER_SPACE
  0
ENDTAB
  0
ENDSEC
  0
SECTION
  2
BLOCKS
  0
BLOCK
  5
D
100
AcDbEntity
  8
0
100
AcDbBlockBegin
  2
*MODEL_SPACE
 70
               0
 10
0.0
 20
0.0
 30
0.0
  3
*MODEL_SPACE
  1

  0
ENDBLK
  5
E
100
AcDbEntity
  8
0
100
AcDbBlockEnd
  0
BLOCK
  5
F
100
AcDbEntity
 67
               1
  8
0
100
AcDbBlockBegin
  2
*PAPER_SPACE
 70
               0
 10
0.0
 20
0.0
 30
0.0
  3
*PAPER_SPACE
  1

  0
ENDBLK
  5
10
100
AcDbEntity
 67
               1
  8
0
100
AcDbBlockEnd
  0
ENDSEC
  0
SECTION
  2
ENTITIES
  0
LINE
  5
134
100
AcDbEntity
  8
0
  6
Continuous
 62
               4
100
AcDbLine
 10
364.14985935285682
 20
300.59956628802183
 30
0.0
 11
331.14985935285682
 21
300.59956628802183
 31
0.0
  0
LINE
  5
135
100
AcDbEntity
  8
0
  6
Continuous
 62
               4
100
AcDbLine
 10
334.14985935285682
 20
300.59956628802183
 30
0.0
 11
334.14985935285682
 21
180.59956628802175
 31
0.0
  0
LINE
  5
136
100
AcDbEntity
  8
0
  6
Continuous
 62
               4
100
AcDbLine
 10
220.14985935285677
 20
198.59956628802175
 30
0.0
 11
370.14985935285682
 21
198.59956628802175
 31
0.0
  0
LINE
  5
137
100
AcDbEntity
  8
0
  6
Continuous
 62
               4
100
AcDbLine
 10
280.3769685665402
 20
180.59956628802175
 30
0.0
 11
260.72862610718266
 21
214.63149371214192
 31
0.0
  0
LINE
  5
138
100
AcDbEntity
  8
0
  6
Continuous
 62
               4
100
AcDbLine
 10
260.72862610718266
 20
214.63149371214192
 30
0.0
 11
235.76935543425611
 21
214.63149371214081
 31
0.0
  0
LINE
  5
139
100
AcDbEntity
  8
0
  6
Continuous
 62
               4
100
AcDbLine
 10
280.3769685665402
 20
180.59956628802175
 30
0.0
 11
274.59188007936137
 21
187.49396627609258
 31
0.0
  0
LINE
  5
13A
100
AcDbEntity
  8
0
  6
Continuous
 62
               4
100
AcDbLine
 10
280.3769685665402
 20
180.59956628802175
 30
0.0
 11
277.29878727660923
 21
189.05679987509495
 31
0.0
  0
LINE
  5
13B
100
AcDbEntity
  8
0
  6
Continuous
 62
               4
100
AcDbLine
 10
343.55855168640016
 20
173.64272473474168
 30
0.0
 11
307.68327205241974
 21
235.78053179653699
 31
0.0
  0
LINE
  5
13C
100
AcDbEntity
  8
0
  6
Continuous
 62
               4
100
AcDbLine
 10
307.68327205241974
 20
235.78053179653699
 30
0.0
 11
234.83891925352438
 21
235.78053179653335
 31
0.0
  0
LINE
  5
13D
100
AcDbEntity
  8
0
  6
Continuous
 62
               4
100
AcDbLine
 10
343.55855168640016
 20
173.64272473474168
 30
0.0
 11
337.77346319922134
 21
180.53712472281251
 31
0.0
  0
LINE
  5
13E
100
AcDbEntity
  8
0
  6
Continuous
 62
               4
100
AcDbLine
 10
343.55855168640016
 20
173.64272473474168
 30
0.0
 11
340.48037039646914
 21
182.09995832181488
 31
0.0
  0
LINE
  5
13F
100
AcDbEntity
  8
0
  6
Continuous
 62
               4
100
AcDbLine
 10
348.71872725991767
 20
288.45155906703042
 30
0.0
 11
331.48820919800647
 21
258.60742634306706
 31
0.0
  0
LINE
  5
140
100
AcDbEntity
  8
0
  6
Continuous
 62
               4
100
AcDbLine
 10
331.48820919800647
 20
258.60742634306706
 30
0.0
 11
305.66581380005448
 21
258.60742634306706
 31
0.0
  0
LINE
  5
141
100
AcDbEntity
  8
0
  6
Continuous
 62
               4
100
AcDbLine
 10
348.71872725991767
 20
288.45155906703042
 30
0.0
 11
345.64054596998665
 21
279.99432547995724
 31
0.0
  0
LINE
  5
142
100
AcDbEntity
  8
0
  6
Continuous
 62
               4
100
AcDbLine
 10
348.71872725991767
 20
288.45155906703042
 30
0.0
 11
342.93363877273879
 21
281.55715907895961
 31
0.0
  0
LINE
  5
143
100
AcDbEntity
  8
0
  6
Continuous
 62
               4
100
AcDbLine
 10
318.62281441543013
 20
309.71016666811244
 30
0.0
 11
364.41827540637047
 21
389.03023186045959
 31
0.0
  0
LINE
  5
144
100
AcDbEntity
  8
0
  6
Continuous
 62
               4
100
AcDbLine
 10
364.41827540637047
 20
389.03023186045959
 30
0.0
 11
486.18206222583717
 21
389.03023186045959
 31
0.0
  0
LINE
  5
145
100
AcDbEntity
  8
0
  6
Continuous
 62
               4
100
AcDbLine
 10
318.62281441543013
 20
309.71016666811244
 30
0.0
 11
321.70099570536115
 21
318.16740025518561
 31
0.0
  0
LINE
  5
146
100
AcDbEntity
  8
0
  6
Continuous
 62
               4
100
AcDbLine
 10
318.62281441543013
 20
309.71016666811244
 30
0.0
 11
324.40790290260901
 21
316.60456665618324
 31
0.0
  0
LINE
  5
147
100
AcDbEntity
  8
0
  6
Continuous
 62
               4
100
AcDbLine
 10
254.84985935285678
 20
291.21016666811227
 30
0.0
 11
340.37228372739469
 21
439.33935087127878
 31
0.0
  0
LINE
  5
148
100
AcDbEntity
  8
0
  6
Continuous
 62
               4
100
AcDbLine
 10
340.37228372739469
 20
439.33935087127878
 30
0.0
 11
378.65037752722822
 21
439.33935087127878
 31
0.0
  0
LINE
  5
149
100
AcDbEntity
  8
0
  6
Continuous
 62
               4
100
AcDbLine
 10
254.84985935285678
 20
291.21016666811227
 30
0.0
 11
257.92804064278778
 21
299.66740025518544
 31
0.0
  0
LINE
  5
14A
100
AcDbEntity
  8
0
  6
Continuous
 62
               4
100
AcDbLine
 10
254.84985935285678
 20
291.21016666811227
 30
0.0
 11
260.63494784003569
 21
298.10456665618307
 31
0.0
  0
LINE
  5
14B
100
AcDbEntity
  8
0
  6
Continuous
 62
               4
100
AcDbLine
 10
233.84106130860377
 20
451.75425038639872
 30
0.0
 11
262.73088351109857
 21
501.79289026275114
 31
0.0
  0
LINE
  5
14C
100
AcDbEntity
  8
0
  6
Continuous
 62
               4
100
AcDbLine
 10
262.73088351109857
 20
501.79289026275114
 30
0.0
 11
325.62235960844924
 21
501.79289026275114
 31
0.0
  0
LINE
  5
14D
100
AcDbEntity
  8
0
  6
Continuous
 62
               4
100
AcDbLine
 10
233.84106130860377
 20
451.75425038639872
 30
0.0
 11
236.91924259853479
 21
460.21148397347184
 31
0.0
  0
LINE
  5
14E
100
AcDbEntity
  8
0
  6
Continuous
 62
               4
100
AcDbLine
 10
233.84106130860377
 20
451.75425038639872
 30
0.0
 11
239.62614979578262
 21
458.64865037446953
 31
0.0
  0
LINE
  5
14F
100
AcDbEntity
  8
0
  6
Continuous
 62
               4
100
AcDbLine
 10
753.65315836318655
 20
306.22347071575177
 30
0.0
 11
753.89306240157134
 21
294.22826879651899
 31
0.0
  0
LINE
  5
150
100
AcDbEntity
  8
0
  6
Continuous
 62
               4
100
AcDbLine
 10
753.89306240157134
 20
294.22826879651899
 30
0.0
 11
754.1330144159665
 21
282.2306680767594
 31
0.0
  0
LINE
  5
151
100
AcDbEntity
  8
0
  6
Continuous
 62
               4
100
AcDbLine
 10
361.85151885502279
 20
288.38543812554826
 30
0.0
 11
360.88931944302391
 21
284.01029231867687
 31
0.0
  0
LINE
  5
152
100
AcDbEntity
  8
0
  6
Continuous
 62
               2
100
AcDbLine
 10
346.4873552124796
 20
275.21659705346383
 30
0.0
 11
346.4873552124796
 21
306.44363524970527
 31
0.0
  0
LINE
  5
153
100
AcDbEntity
  8
0
  6
Continuous
 62
               4
100
AcDbLine
 10
348.71872725991767
 20
274.08115455275765
 30
0.0
 11
349.21872725991767
 21
274.08115455275765
 31
0.0
  0
LINE
  5
154
100
AcDbEntity
  8
0
  6
Continuous
 62
               4
100
AcDbLine
 10
349.21872725991767
 20
284.08115455275765
 30
0.0
 11
349.21872725991767
 21
274.08115455275765
 31
0.0
  0
LINE
  5
155
100
AcDbEntity
  8
0
  6
Continuous
 62
               4
100
AcDbLine
 10
348.71872725991767
 20
302.82196358130318
 30
0.0
 11
490.25918810484023
 21
305.65277279819884
 31
0.0
  0
LINE
  5
156
100
AcDbEntity
  8
0
  6
Continuous
 62
               4
100
AcDbLine
 10
483.63775852414716
 20
302.86932427143938
 30
0.0
 11
370.14985935285682
 21
300.59956628802183
 31
0.0
  0
LINE
  5
157
100
AcDbEntity
  8
0
  6
Continuous
 62
               4
100
AcDbLine
 10
348.71872725991767
 20
302.82196358130318
 30
0.0
 11
348.71872725991767
 21
274.08115455275765
 31
0.0
  0
LINE
  5
158
100
AcDbEntity
  8
0
  6
Continuous
 62
               2
100
AcDbLine
 10
350.02243491519158
 20
275.02080617580214
 30
0.0
 11
351.39391952927286
 21
287.3641677025339
 31
0.0
  0
LINE
  5
159
100
AcDbEntity
  8
0
  6
Continuous
 62
               4
100
AcDbLine
 10
361.85151885502279
 20
288.38543812554826
 30
0.0
 11
371.84951945482277
 21
288.58539813754396
 31
0.0
  0
LINE
  5
15A
100
AcDbEntity
  8
0
  6
Continuous
 62
               4
100
AcDbLine
 10
361.65155884302663
 20
298.38343872534801
 30
0.0
 11
371.64955944282661
 21
298.5833987373444
 31
0.0
  0
LINE
  5
15B
100
AcDbEntity
  8
0
  6
Continuous
 62
               3
100
AcDbLine
 10
371.64955944282661
 20
298.58339873734531
 30
0.0
 11
372.12941549560657
 21
274.59059609835163
 31
0.0
  0
LINE
  5
15C
100
AcDbEntity
  8
0
  6
Continuous
 62
               2
100
AcDbLine
 10
254.84985935285681
 20
306.21016666811238
 30
0.0
 11
254.84985935285681
 21
276.21016666811215
 31
0.0
  0
LINE
  5
15D
100
AcDbEntity
  8
0
  6
Continuous
 62
               2
100
AcDbLine
 10
253.84985935285681
 20
276.21016666811215
 30
0.0
 11
250.76858691814175
 21
285.72361820701576
 31
0.0
  0
LINE
  5
15E
100
AcDbEntity
  8
0
  6
Continuous
 62
               6
100
AcDbLine
 10
220.64985935285677
 20
330.21016666811261
 30
0.0
 11
220.64985935285677
 21
300.21016666811238
 31
0.0
  0
LINE
  5
15F
100
AcDbEntity
  8
0
  6
Continuous
 62
               6
100
AcDbLine
 10
220.64985935285677
 20
300.21016666811238
 30
0.0
 11
250.64985935285688
 21
300.21016666811238
 31
0.0
  0
LINE
  5
160
100
AcDbEntity
  8
0
  6
Continuous
 62
               6
100
AcDbLine
 10
226.64985935285677
 20
303.21016666811238
 30
0.0
 11
248.64985935285688
 21
303.21016666811238
 31
0.0
  0
LINE
  5
161
100
AcDbEntity
  8
0
  6
Continuous
 62
               6
100
AcDbLine
 10
223.64985935285682
 20
328.21016666811261
 30
0.0
 11
223.64985935285682
 21
306.21016666811238
 31
0.0
  0
LINE
  5
162
100
AcDbEntity
  8
0
  6
Continuous
 62
               6
100
AcDbLine
 10
221.64985935285682
 20
330.21016666811261
 30
0.0
 11
220.64985935285677
 21
330.21016666811261
 31
0.0
  0
LINE
  5
163
100
AcDbEntity
  8
0
  6
Continuous
 62
               6
100
AcDbLine
 10
250.64985935285688
 20
301.21016666811238
 30
0.0
 11
250.64985935285688
 21
300.21016666811238
 31
0.0
  0
LINE
  5
164
100
AcDbEntity
  8
0
  6
Continuous
 62
               2
100
AcDbLine
 10
222.14985935285682
 20
375.21016666811261
 30
0.0
 11
222.14985935285682
 21
425.21016666811261
 31
0.0
  0
LINE
  5
165
100
AcDbEntity
  8
0
  6
Continuous
 62
               2
100
AcDbLine
 10
252.14985935285677
 20
372.21016666811261
 30
0.0
 11
222.14985935285682
 21
375.21016666811261
 31
0.0
  0
LINE
  5
166
100
AcDbEntity
  8
0
  6
Continuous
 62
               2
100
AcDbLine
 10
252.14985935285677
 20
372.21016666811261
 30
0.0
 11
252.14985935285677
 21
342.21016666811261
 31
0.0
  0
LINE
  5
167
100
AcDbEntity
  8
0
  6
Continuous
 62
               2
100
AcDbLine
 10
251.14985935285677
 20
342.21016666811261
 30
0.0
 11
248.0685869181417
 21
351.72361820701599
 31
0.0
  0
LINE
  5
168
100
AcDbEntity
  8
0
  6
Continuous
 62
               2
100
AcDbLine
 10
224.84985935285681
 20
306.21016666811238
 30
0.0
 11
254.84985935285681
 21
306.21016666811238
 31
0.0
  0
LINE
  5
169
100
AcDbEntity
  8
0
  6
Continuous
 62
               2
100
AcDbLine
 10
224.84985935285681
 20
306.21016666811238
 30
0.0
 11
224.84985935285681
 21
340.21016666811238
 31
0.0
  0
LINE
  5
16A
100
AcDbEntity
  8
0
  6
Continuous
 62
               2
100
AcDbLine
 10
220.64985935285677
 20
360.21016666811261
 30
0.0
 11
220.64985935285677
 21
406.21016666811238
 31
0.0
  0
LINE
  5
16B
100
AcDbEntity
  8
0
  6
Continuous
 62
               2
100
AcDbLine
 10
224.84985935285681
 20
340.21016666811238
 30
0.0
 11
220.64985935285677
 21
360.21016666811261
 31
0.0
  0
LINE
  5
16C
100
AcDbEntity
  8
0
  6
Continuous
 62
               4
100
AcDbLine
 10
223.64985935285677
 20
380.21016666811261
 30
0.0
 11
243.64985935285677
 21
380.21016666811261
 31
0.0
  0
LINE
  5
16D
100
AcDbEntity
  8
0
  6
Continuous
 62
               4
100
AcDbLine
 10
223.64985935285677
 20
380.21016666811261
 30
0.0
 11
223.64985935285677
 21
425.21016666811261
 31
0.0
  0
LINE
  5
16E
100
AcDbEntity
  8
0
  6
Continuous
 62
               4
100
AcDbLine
 10
223.64985935285677
 20
425.21016666811261
 30
0.0
 11
218.64985935285677
 21
435.21016666811261
 31
0.0
  0
LINE
  5
16F
100
AcDbEntity
  8
0
  6
Continuous
 62
               4
100
AcDbLine
 10
361.65155884302663
 20
298.38343872534801
 30
0.0
 11
361.85151885502279
 21
288.38543812554826
 31
0.0
  0
LINE
  5
170
100
AcDbEntity
  8
0
  6
DIVIDE
 62
               4
100
AcDbLine
 10
229.84985935285681
 20
307.41016666811242
 30
0.0
 11
392.12941549560657
 21
307.41016666811242
 31
0.0
  0
LINE
  5
171
100
AcDbEntity
  8
0
  6
DIVIDE
 62
               4
100
AcDbLine
 10
229.84985935285681
 20
307.41016666811242
 30
0.0
 11
229.84985935285681
 21
309.71016666811238
 31
0.0
  0
LINE
  5
172
100
AcDbEntity
  8
0
  6
DIVIDE
 62
               4
100
AcDbLine
 10
229.84985935285681
 20
309.71016666811238
 30
0.0
 11
392.12941549560657
 21
309.71016666811238
 31
0.0
  0
LINE
  5
173
100
AcDbEntity
  8
0
  6
DIVIDE
 62
               4
100
AcDbLine
 10
392.12941549560657
 20
307.41016666811242
 30
0.0
 11
392.12941549560657
 21
309.71016666811238
 31
0.0
  0
LINE
  5
174
100
AcDbEntity
  8
0
  6
DIVIDE
 62
               3
100
AcDbLine
 10
222.76300059279538
 20
397.9694012479024
 30
0.0
 11
164.55268937246313
 21
397.9694012479024
 31
0.0
  0
LINE
  5
175
100
AcDbEntity
  8
0
  6
DIVIDE
 62
               3
100
AcDbLine
 10
455.24636604983203
 20
307.33515610442964
 30
0.0
 11
455.84645622951035
 21
277.33064712052123
 31
0.0
  0
LINE
  5
176
100
AcDbEntity
  8
0
  6
DASHED
 62
               6
100
AcDbLine
 10
480.11196545247782
 20
306.91000943876702
 30
0.0
 11
522.47404662968279
 21
304.69706489965938
 31
0.0
  0
LINE
  5
177
100
AcDbEntity
  8
0
  6
DASHED
 62
               6
100
AcDbLine
 10
387.77735980098765
 20
305.53598256895384
 30
0.0
 11
480.11196545247782
 21
306.91000943876702
 31
0.0
  0
LINE
  5
178
100
AcDbEntity
  8
0
  6
Continuous
 62
               2
100
AcDbLine
 10
370.14985935285682
 20
180.59956628802175
 30
0.0
 11
220.14985935285677
 21
180.59956628802175
 31
0.0
  0
LINE
  5
179
100
AcDbEntity
  8
0
  6
Continuous
 62
               3
100
AcDbLine
 10
218.64985935285677
 20
167.68259040718198
 30
0.0
 11
372.12941549560657
 21
167.68259040718198
 31
0.0
  0
LINE
  5
17A
100
AcDbEntity
  8
0
  6
Continuous
 62
               4
100
AcDbLine
 10
370.14985935285682
 20
178.59956628802175
 30
0.0
 11
220.14985935285677
 21
178.59956628802175
 31
0.0
  0
LINE
  5
17B
100
AcDbEntity
  8
0
  6
Continuous
 62
               4
100
AcDbLine
 10
370.14985935285682
 20
168.59956628802155
 30
0.0
 11
220.14985935285677
 21
168.59956628802155
 31
0.0
  0
LINE
  5
17C
100
AcDbEntity
  8
0
  6
Continuous
 62
               4
100
AcDbLine
 10
370.14985935285682
 20
178.59956628802175
 30
0.0
 11
370.14985935285682
 21
168.59956628802155
 31
0.0
  0
LINE
  5
17D
100
AcDbEntity
  8
0
  6
DASHED
 62
               4
100
AcDbLine
 10
370.14985935285682
 20
171.11428491378314
 30
0.0
 11
367.63514072709523
 21
168.59956628802155
 31
0.0
  0
LINE
  5
17E
100
AcDbEntity
  8
0
  6
DASHED
 62
               4
100
AcDbLine
 10
370.14985935285682
 20
175.35692560090243
 30
0.0
 11
363.39250003997614
 21
168.59956628802155
 31
0.0
  0
LINE
  5
17F
100
AcDbEntity
  8
0
  6
DASHED
 62
               4
100
AcDbLine
 10
369.14985935285682
 20
178.59956628802175
 30
0.0
 11
359.14985935285682
 21
168.59956628802155
 31
0.0
  0
LINE
  5
180
100
AcDbEntity
  8
0
  6
DASHED
 62
               4
100
AcDbLine
 10
364.9072186657375
 20
178.59956628802175
 30
0.0
 11
354.9072186657375
 21
168.59956628802155
 31
0.0
  0
LINE
  5
181
100
AcDbEntity
  8
0
  6
DASHED
 62
               4
100
AcDbLine
 10
360.66457797861818
 20
178.59956628802175
 30
0.0
 11
350.66457797861818
 21
168.59956628802155
 31
0.0
  0
LINE
  5
182
100
AcDbEntity
  8
0
  6
DASHED
 62
               4
100
AcDbLine
 10
356.42193729149886
 20
178.59956628802175
 30
0.0
 11
346.42193729149886
 21
168.59956628802155
 31
0.0
  0
LINE
  5
183
100
AcDbEntity
  8
0
  6
DASHED
 62
               4
100
AcDbLine
 10
352.17929660437954
 20
178.59956628802175
 30
0.0
 11
342.1792966043796
 21
168.59956628802155
 31
0.0
  0
LINE
  5
184
100
AcDbEntity
  8
0
  6
DASHED
 62
               4
100
AcDbLine
 10
347.93665591726023
 20
178.59956628802175
 30
0.0
 11
337.93665591726028
 21
168.59956628802155
 31
0.0
  0
LINE
  5
185
100
AcDbEntity
  8
0
  6
DASHED
 62
               4
100
AcDbLine
 10
343.69401523014096
 20
178.59956628802175
 30
0.0
 11
333.69401523014096
 21
168.59956628802155
 31
0.0
  0
LINE
  5
186
100
AcDbEntity
  8
0
  6
DASHED
 62
               4
100
AcDbLine
 10
339.45137454302176
 20
178.59956628802175
 30
0.0
 11
329.45137454302176
 21
168.59956628802155
 31
0.0
  0
LINE
  5
187
100
AcDbEntity
  8
0
  6
DASHED
 62
               4
100
AcDbLine
 10
335.20873385590244
 20
178.59956628802175
 30
0.0
 11
325.20873385590244
 21
168.59956628802155
 31
0.0
  0
LINE
  5
188
100
AcDbEntity
  8
0
  6
DASHED
 62
               4
100
AcDbLine
 10
330.96609316878312
 20
178.59956628802175
 30
0.0
 11
320.96609316878312
 21
168.59956628802155
 31
0.0
  0
LINE
  5
189
100
AcDbEntity
  8
0
  6
DASHED
 62
               4
100
AcDbLine
 10
326.72345248166391
 20
178.59956628802175
 30
0.0
 11
316.72345248166391
 21
168.59956628802155
 31
0.0
  0
LINE
  5
18A
100
AcDbEntity
  8
0
  6
DASHED
 62
               4
100
AcDbLine
 10
322.48081179454459
 20
178.59956628802175
 30
0.0
 11
312.48081179454459
 21
168.59956628802155
 31
0.0
  0
LINE
  5
18B
100
AcDbEntity
  8
0
  6
DASHED
 62
               4
100
AcDbLine
 10
318.23817110742527
 20
178.59956628802175
 30
0.0
 11
308.23817110742527
 21
168.59956628802155
 31
0.0
  0
LINE
  5
18C
100
AcDbEntity
  8
0
  6
DASHED
 62
               4
100
AcDbLine
 10
313.99553042030607
 20
178.59956628802175
 30
0.0
 11
303.99553042030607
 21
168.59956628802155
 31
0.0
  0
LINE
  5
18D
100
AcDbEntity
  8
0
  6
DASHED
 62
               4
100
AcDbLine
 10
309.75288973318675
 20
178.59956628802175
 30
0.0
 11
299.75288973318675
 21
168.59956628802155
 31
0.0
  0
LINE
  5
18E
100
AcDbEntity
  8
0
  6
DASHED
 62
               4
100
AcDbLine
 10
305.51024904606743
 20
178.59956628802175
 30
0.0
 11
295.51024904606743
 21
168.59956628802155
 31
0.0
  0
LINE
  5
18F
100
AcDbEntity
  8
0
  6
DASHED
 62
               4
100
AcDbLine
 10
301.26760835894811
 20
178.59956628802175
 30
0.0
 11
291.26760835894811
 21
168.59956628802155
 31
0.0
  0
LINE
  5
190
100
AcDbEntity
  8
0
  6
DASHED
 62
               4
100
AcDbLine
 10
297.0249676718289
 20
178.59956628802175
 30
0.0
 11
287.0249676718289
 21
168.59956628802155
 31
0.0
  0
LINE
  5
191
100
AcDbEntity
  8
0
  6
DASHED
 62
               4
100
AcDbLine
 10
292.78232698470958
 20
178.59956628802175
 30
0.0
 11
282.78232698470958
 21
168.59956628802155
 31
0.0
  0
LINE
  5
192
100
AcDbEntity
  8
0
  6
DASHED
 62
               4
100
AcDbLine
 10
288.53968629759026
 20
178.59956628802175
 30
0.0
 11
278.53968629759026
 21
168.59956628802155
 31
0.0
  0
LINE
  5
193
100
AcDbEntity
  8
0
  6
DASHED
 62
               4
100
AcDbLine
 10
284.29704561047106
 20
178.59956628802175
 30
0.0
 11
274.29704561047106
 21
168.59956628802155
 31
0.0
  0
LINE
  5
194
100
AcDbEntity
  8
0
  6
DASHED
 62
               4
100
AcDbLine
 10
280.05440492335174
 20
178.59956628802175
 30
0.0
 11
270.05440492335174
 21
168.59956628802155
 31
0.0
  0
LINE
  5
195
100
AcDbEntity
  8
0
  6
DASHED
 62
               4
100
AcDbLine
 10
275.81176423623242
 20
178.59956628802175
 30
0.0
 11
265.81176423623242
 21
168.59956628802155
 31
0.0
  0
LINE
  5
196
100
AcDbEntity
  8
0
  6
DASHED
 62
               4
100
AcDbLine
 10
271.56912354911321
 20
178.59956628802175
 30
0.0
 11
261.56912354911321
 21
168.59956628802155
 31
0.0
  0
LINE
  5
197
100
AcDbEntity
  8
0
  6
DASHED
 62
               4
100
AcDbLine
 10
267.3264828619939
 20
178.59956628802175
 30
0.0
 11
257.3264828619939
 21
168.59956628802155
 31
0.0
  0
LINE
  5
198
100
AcDbEntity
  8
0
  6
DASHED
 62
               4
100
AcDbLine
 10
263.08384217487458
 20
178.59956628802175
 30
0.0
 11
253.08384217487458
 21
168.59956628802155
 31
0.0
  0
LINE
  5
199
100
AcDbEntity
  8
0
  6
DASHED
 62
               4
100
AcDbLine
 10
258.84120148775537
 20
178.59956628802175
 30
0.0
 11
248.84120148775537
 21
168.59956628802155
 31
0.0
  0
LINE
  5
19A
100
AcDbEntity
  8
0
  6
DASHED
 62
               4
100
AcDbLine
 10
254.59856080063605
 20
178.59956628802175
 30
0.0
 11
244.59856080063605
 21
168.59956628802155
 31
0.0
  0
LINE
  5
19B
100
AcDbEntity
  8
0
  6
DASHED
 62
               4
100
AcDbLine
 10
250.35592011351673
 20
178.59956628802175
 30
0.0
 11
240.35592011351673
 21
168.59956628802155
 31
0.0
  0
LINE
  5
19C
100
AcDbEntity
  8
0
  6
DASHED
 62
               4
100
AcDbLine
 10
246.11327942639741
 20
178.59956628802175
 30
0.0
 11
236.11327942639741
 21
168.59956628802155
 31
0.0
  0
LINE
  5
19D
100
AcDbEntity
  8
0
  6
DASHED
 62
               4
100
AcDbLine
 10
241.87063873927821
 20
178.59956628802175
 30
0.0
 11
231.87063873927821
 21
168.59956628802155
 31
0.0
  0
LINE
  5
19E
100
AcDbEntity
  8
0
  6
DASHED
 62
               4
100
AcDbLine
 10
237.62799805215889
 20
178.59956628802175
 30
0.0
 11
227.62799805215889
 21
168.59956628802155
 31
0.0
  0
LINE
  5
19F
100
AcDbEntity
  8
0
  6
DASHED
 62
               4
100
AcDbLine
 10
233.38535736503957
 20
178.59956628802175
 30
0.0
 11
223.38535736503962
 21
168.59956628802155
 31
0.0
  0
LINE
  5
1A0
100
AcDbEntity
  8
0
  6
DASHED
 62
               4
100
AcDbLine
 10
229.14271667792036
 20
178.59956628802175
 30
0.0
 11
220.14985935285677
 21
169.60670896295818
 31
0.0
  0
LINE
  5
1A1
100
AcDbEntity
  8
0
  6
DASHED
 62
               4
100
AcDbLine
 10
224.90007599080104
 20
178.59956628802175
 30
0.0
 11
220.14985935285677
 21
173.84934965007724
 31
0.0
  0
LINE
  5
1A2
100
AcDbEntity
  8
0
  6
Continuous
 62
               4
100
AcDbLine
 10
220.14985935285677
 20
178.59956628802175
 30
0.0
 11
220.14985935285677
 21
168.59956628802155
 31
0.0
  0
LINE
  5
1A3
100
AcDbEntity
  8
0
  6
Continuous
 62
               3
100
AcDbLine
 10
372.12941549560657
 20
202.68259040718172
 30
0.0
 11
477.12941549560657
 21
202.68259040718172
 31
0.0
  0
LINE
  5
1A4
100
AcDbEntity
  8
0
  6
Continuous
 62
               6
100
AcDbLine
 10
372.12941549560679
 20
152.68259040718186
 30
0.0
 11
477.12941549560657
 21
202.68259040718172
 31
0.0
  0
LINE
  5
1A5
100
AcDbEntity
  8
0
  6
Continuous
 62
               3
100
AcDbLine
 10
342.12941549560662
 20
102.68259040718186
 30
0.0
 11
372.12941549560657
 21
102.68259040718186
 31
0.0
  0
LINE
  5
1A6
100
AcDbEntity
  8
0
  6
Continuous
 62
               3
100
AcDbLine
 10
342.12941549560662
 20
152.68259040718186
 30
0.0
 11
342.12941549560662
 21
102.68259040718186
 31
0.0
  0
LINE
  5
1A7
100
AcDbEntity
  8
0
  6
Continuous
 62
               3
100
AcDbLine
 10
248.64985935285677
 20
102.68259040718186
 30
0.0
 11
218.64985935285677
 21
102.68259040718186
 31
0.0
  0
LINE
  5
1A8
100
AcDbEntity
  8
0
  6
Continuous
 62
               3
100
AcDbLine
 10
248.64985935285677
 20
152.68259040718186
 30
0.0
 11
248.64985935285677
 21
102.68259040718186
 31
0.0
  0
LINE
  5
1A9
100
AcDbEntity
  8
0
  6
Continuous
 62
               6
100
AcDbLine
 10
342.12941549560662
 20
102.68259040718186
 30
0.0
 11
372.12941549560679
 21
152.68259040718186
 31
0.0
  0
LINE
  5
1AA
100
AcDbEntity
  8
0
  6
Continuous
 62
               7
100
AcDbLine
 10
218.64985935285677
 20
164.68259040718198
 30
0.0
 11
372.12941549560657
 21
164.68259040718198
 31
0.0
  0
LINE
  5
1AB
100
AcDbEntity
  8
0
  6
Continuous
 62
               7
100
AcDbLine
 10
218.64985935285677
 20
161.68259040718186
 30
0.0
 11
372.12941549560657
 21
161.68259040718186
 31
0.0
  0
LINE
  5
1AC
100
AcDbEntity
  8
0
  6
Continuous
 62
               7
100
AcDbLine
 10
218.64985935285677
 20
158.68259040718186
 30
0.0
 11
372.12941549560657
 21
158.68259040718186
 31
0.0
  0
LINE
  5
1AD
100
AcDbEntity
  8
0
  6
Continuous
 62
               7
100
AcDbLine
 10
218.64985935285677
 20
155.68259040718186
 30
0.0
 11
372.12941549560657
 21
155.68259040718186
 31
0.0
  0
LINE
  5
1AE
100
AcDbEntity
  8
0
  6
Continuous
 62
               3
100
AcDbLine
 10
104.64985935285677
 20
152.68259040718186
 30
0.0
 11
209.64985935285677
 21
152.68259040718186
 31
0.0
  0
LINE
  5
1AF
100
AcDbEntity
  8
0
  6
Continuous
 62
               2
100
AcDbLine
 10
220.14985935285677
 20
180.59956628802175
 30
0.0
 11
220.14985935285677
 21
340.21016666811238
 31
0.0
  0
LINE
  5
1B0
100
AcDbEntity
  8
0
  6
Continuous
 62
               2
100
AcDbLine
 10
370.14985935285682
 20
180.59956628802172
 30
0.0
 11
370.14985935285682
 21
300.59956628802183
 31
0.0
  0
LINE
  5
1B1
100
AcDbEntity
  8
0
  6
Continuous
 62
               4
100
AcDbLine
 10
252.14985935285677
 20
357.21016666811261
 30
0.0
 11
340.37228372739469
 21
439.33935087127878
 31
0.0
  0
LINE
  5
1B2
100
AcDbEntity
  8
0
  6
Continuous
 62
               4
100
AcDbLine
 10
252.14985935285677
 20
357.21016666811261
 30
0.0
 11
257.57227905132174
 21
364.39329722614224
 31
0.0
  0
LINE
  5
1B3
100
AcDbEntity
  8
0
  6
Continuous
 62
               4
100
AcDbLine
 10
252.14985935285677
 20
357.21016666811261
 30
0.0
 11
259.70204247329275
 21
362.10552468519387
 31
0.0
  0
LINE
  5
1B4
100
AcDbEntity
  8
0
  6
Continuous
 62
               3
100
AcDbLine
 10
372.12941549560685
 20
102.68259040718186
 30
0.0
 11
372.12941549560679
 21
274.59059609835208
 31
0.0
  0
LINE
  5
1B5
100
AcDbEntity
  8
0
  6
Continuous
 62
               3
100
AcDbLine
 10
477.12941549560674
 20
102.68259040718186
 30
0.0
 11
477.12941549560674
 21
202.68259040718195
 31
0.0
  0
LINE
  5
1B6
100
AcDbEntity
  8
0
  6
Continuous
 62
               6
100
AcDbLine
 10
450.87941549560685
 20
102.68259040718186
 30
0.0
 11
477.12941549560674
 21
152.68259040718192
 31
0.0
  0
LINE
  5
1B7
100
AcDbEntity
  8
0
  6
Continuous
 62
               6
100
AcDbLine
 10
398.37941549560691
 20
102.68259040718186
 30
0.0
 11
372.12941549560679
 21
152.68259040718192
 31
0.0
  0
LINE
  5
1B8
100
AcDbEntity
  8
0
  6
Continuous
 62
               6
100
AcDbLine
 10
248.64985935285677
 20
152.68259040718186
 30
0.0
 11
218.64985935285677
 21
102.68259040718186
 31
0.0
  0
LINE
  5
1B9
100
AcDbEntity
  8
0
  6
Continuous
 62
               6
100
AcDbLine
 10
130.89985935285665
 20
102.68259040718186
 30
0.0
 11
104.64985935285677
 21
152.68259040718186
 31
0.0
  0
LINE
  5
1BA
100
AcDbEntity
  8
0
  6
Continuous
 62
               6
100
AcDbLine
 10
183.39985935285682
 20
102.68259040718186
 30
0.0
 11
209.64985935285677
 21
152.68259040718186
 31
0.0
  0
LINE
  5
1BB
100
AcDbEntity
  8
0
  6
Continuous
 62
               3
100
AcDbLine
 10
772.12941549560674
 20
152.68259040718192
 30
0.0
 11
218.64985935285671
 21
152.68259040718175
 31
0.0
  0
LINE
  5
1BC
100
AcDbEntity
  8
0
  6
Continuous
 62
               4
100
AcDbLine
 10
684.44968922957469
 20
286.83820400249988
 30
0.0
 11
636.26125276548146
 21
466.67989722380128
 31
0.0
  0
LINE
  5
1BD
100
AcDbEntity
  8
0
  6
Continuous
 62
               4
100
AcDbLine
 10
636.26125276548157
 20
466.67989722380128
 30
0.0
 11
555.89461229363644
 21
466.67989722380128
 31
0.0
  0
LINE
  5
1BE
100
AcDbEntity
  8
0
  6
Continuous
 62
               4
100
AcDbLine
 10
648.31896642488186
 20
421.67989722380128
 30
0.0
 11
555.89461229363644
 21
421.67989722380128
 31
0.0
  0
LINE
  5
1BF
100
AcDbEntity
  8
0
  6
Continuous
 62
               4
100
AcDbLine
 10
644.29972853841525
 20
436.67989722380128
 30
0.0
 11
555.89461229363644
 21
436.67989722380128
 31
0.0
  0
LINE
  5
1C0
100
AcDbEntity
  8
0
  6
Continuous
 62
               4
100
AcDbLine
 10
640.28049065194841
 20
451.67989722380128
 30
0.0
 11
555.89461229363644
 21
451.67989722380128
 31
0.0
  0
LINE
  5
1C1
100
AcDbEntity
  8
0
  6
Continuous
 62
               3
100
AcDbLine
 10
372.12941549560657
 20
274.59059609835208
 30
0.0
 11
772.12941549560674
 21
282.59059609835225
 31
0.0
  0
LINE
  5
1C2
100
AcDbEntity
  8
0
  6
Continuous
 62
               3
100
AcDbLine
 10
771.6495594428269
 20
306.58339873734462
 30
0.0
 11
371.64955944282661
 21
298.58339873734462
 31
0.0
  0
LINE
  5
1C3
100
AcDbEntity
  8
0
  6
Continuous
 62
               3
100
AcDbLine
 10
771.88946348121158
 20
294.5881968181119
 30
0.0
 11
371.88946348121118
 21
286.58819681811315
 31
0.0
  0
LINE
  5
1C4
100
AcDbEntity
  8
0
  6
Continuous
 62
               2
100
AcDbLine
 10
771.48235579999232
 20
314.94358087906568
 30
0.0
 11
346.48735047821793
 21
306.44371137786152
 31
0.0
  0
LINE
  5
1C5
100
AcDbEntity
  8
0
  6
DASHED
 62
               6
100
AcDbLine
 10
771.58764068195956
 20
309.6793367807112
 30
0.0
 11
522.47404662968279
 21
304.69706489965961
 31
0.0
  0
LINE
  5
1C6
100
AcDbEntity
  8
0
  6
Continuous
 62
               4
100
AcDbLine
 10
714.78679656440374
 20
21.213203435595801
 30
0.0
 11
714.78679656440374
 21
41.213203435595801
 31
0.0
  0
LINE
  5
1C7
100
AcDbEntity
  8
0
  6
Continuous
 62
               4
100
AcDbLine
 10
864.78679656440374
 20
21.213203435595801
 30
0.0
 11
714.78679656440374
 21
21.213203435595801
 31
0.0
  0
LINE
  5
1C8
100
AcDbEntity
  8
0
  6
Continuous
 62
               4
100
AcDbLine
 10
864.78679656440374
 20
41.213203435595801
 30
0.0
 11
864.78679656440374
 21
21.213203435595801
 31
0.0
  0
LINE
  5
1C9
100
AcDbEntity
  8
0
  6
Continuous
 62
               4
100
AcDbLine
 10
864.78679656440374
 20
41.213203435595801
 30
0.0
 11
714.78679656440374
 21
41.213203435595801
 31
0.0
  0
LINE
  5
1CA
100
AcDbEntity
  8
0
  6
Continuous
 62
               4
100
AcDbLine
 10
14.142135623730949
 20
595.85786437626837
 30
0.0
 11
14.142135623730949
 21
615.85786437626837
 31
0.0
  0
LINE
  5
1CB
100
AcDbEntity
  8
0
  6
Continuous
 62
               4
100
AcDbLine
 10
164.14213562373095
 20
595.85786437626837
 30
0.0
 11
14.142135623730949
 21
595.85786437626837
 31
0.0
  0
LINE
  5
1CC
100
AcDbEntity
  8
0
  6
Continuous
 62
               4
100
AcDbLine
 10
164.14213562373095
 20
615.85786437626837
 30
0.0
 11
164.14213562373095
 21
595.85786437626837
 31
0.0
  0
LINE
  5
1CD
100
AcDbEntity
  8
0
  6
Continuous
 62
               4
100
AcDbLine
 10
164.14213562373095
 20
615.85786437626837
 30
0.0
 11
14.142135623730949
 21
615.85786437626837
 31
0.0
  0
LINE
  5
1CE
100
AcDbEntity
  8
0
  6
Continuous
 62
               7
100
AcDbLine
 10
752.33337430800168
 20
297.19767497465978
 30
0.0
 11
371.82947547761256
 21
289.58759699805319
 31
0.0
  0
LINE
  5
1CF
100
AcDbEntity
  8
0
  6
Continuous
 62
               7
100
AcDbLine
 10
752.27338630440306
 20
300.19707515459987
 30
0.0
 11
371.76948747401372
 21
292.58699717799323
 31
0.0
  0
LINE
  5
1D0
100
AcDbEntity
  8
0
  6
Continuous
 62
               7
100
AcDbLine
 10
752.21339830080456
 20
303.1964753345402
 30
0.0
 11
371.7094994704151
 21
295.58639735793327
 31
0.0
  0
LINE
  5
1D1
100
AcDbEntity
  8
0
  6
Continuous
 62
               7
100
AcDbLine
 10
752.57332632239581
 20
285.20007425490007
 30
0.0
 11
372.06942749200795
 21
277.58999627829212
 31
0.0
  0
LINE
  5
1D2
100
AcDbEntity
  8
0
  6
Continuous
 62
               7
100
AcDbLine
 10
752.51333831879731
 20
288.19947443483977
 30
0.0
 11
372.0094394884091
 21
280.58939645823216
 31
0.0
  0
LINE
  5
1D3
100
AcDbEntity
  8
0
  6
Continuous
 62
               7
100
AcDbLine
 10
752.4533503151988
 20
291.19887461477992
 30
0.0
 11
371.94945148481025
 21
283.5887966381722
 31
0.0
  0
LINE
  5
1D4
100
AcDbEntity
  8
0
  6
Continuous
 62
               4
100
AcDbLine
 10
243.64985935285677
 20
530.21016666811261
 30
0.0
 11
243.64985935285677
 21
380.21016666811261
 31
0.0
  0
LINE
  5
1D5
100
AcDbEntity
  8
0
  6
Continuous
 62
               3
100
AcDbLine
 10
218.64985935285677
 20
530.21016666811261
 30
0.0
 11
218.64985935285677
 21
102.68259040718186
 31
0.0
  0
LINE
  5
1D6
100
AcDbEntity
  8
0
  6
Continuous
 62
               3
100
AcDbLine
 10
209.64985935285674
 20
530.21016666811261
 30
0.0
 11
209.64985935285677
 21
102.68259040718186
 31
0.0
  0
LINE
  5
1D7
100
AcDbEntity
  8
0
  6
Continuous
 62
               3
100
AcDbLine
 10
104.64985935285677
 20
530.21016666811261
 30
0.0
 11
104.64985935285675
 21
102.68259040718186
 31
0.0
  0
CIRCLE
  5
1D8
100
AcDbEntity
  8
0
  6
Continuous
 62
               4
100
AcDbCircle
 10
334.14985935285682
 20
300.59956628802183
 30
0.0
 40
1.5
  0
CIRCLE
  5
1D9
100
AcDbEntity
  8
0
  6
Continuous
 62
               4
100
AcDbCircle
 10
334.14985935285682
 20
180.59956628802175
 30
0.0
 40
1.5
  0
CIRCLE
  5
1DA
100
AcDbEntity
  8
0
  6
Continuous
 62
               4
100
AcDbCircle
 10
220.14985935285677
 20
198.59956628802175
 30
0.0
 40
1.5
  0
CIRCLE
  5
1DB
100
AcDbEntity
  8
0
  6
Continuous
 62
               4
100
AcDbCircle
 10
370.14985935285682
 20
198.59956628802175
 30
0.0
 40
1.5
  0
CIRCLE
  5
1DC
100
AcDbEntity
  8
0
  6
Continuous
 62
               4
100
AcDbCircle
 10
753.65315836318655
 20
306.22347071575177
 30
0.0
 40
1.5
  0
CIRCLE
  5
1DD
100
AcDbEntity
  8
0
  6
Continuous
 62
               4
100
AcDbCircle
 10
753.89306240157134
 20
294.22826879651899
 30
0.0
 40
1.5
  0
CIRCLE
  5
1DE
100
AcDbEntity
  8
0
  6
Continuous
 62
               4
100
AcDbCircle
 10
753.89306240157134
 20
294.22826879651899
 30
0.0
 40
1.5
  0
CIRCLE
  5
1DF
100
AcDbEntity
  8
0
  6
Continuous
 62
               4
100
AcDbCircle
 10
754.1330144159665
 20
282.2306680767594
 30
0.0
 40
1.5
  0
CIRCLE
  5
1E0
100
AcDbEntity
  8
0
  6
Continuous
 62
               4
100
AcDbCircle
 10
684.44968922957469
 20
286.83820400249988
 30
0.0
 40
1.5
  0
CIRCLE
  5
1E1
100
AcDbEntity
  8
0
  6
Continuous
 62
               4
100
AcDbCircle
 10
681.25079870926618
 20
298.77662595214179
 30
0.0
 40
1.5
  0
CIRCLE
  5
1E2
100
AcDbEntity
  8
0
  6
Continuous
 62
               4
100
AcDbCircle
 10
678.82653075420296
 20
307.82411713159922
 30
0.0
 40
1.5
  0
CIRCLE
  5
1E3
100
AcDbEntity
  8
0
  6
Continuous
 62
               4
100
AcDbCircle
 10
677.42293728221625
 20
313.06239928222567
 30
0.0
 40
1.5
  0
ARC
  5
1E4
100
AcDbEntity
  8
0
  6
Continuous
 62
               2
100
AcDbCircle
 10
348.26031701623816
 20
275.21659705346383
 30
0.0
 40
1.772961803758633
100
AcDbArc
 50
180.0
 51
353.65980825408997
  0
ARC
  5
1E5
100
AcDbEntity
  8
0
  6
Continuous
 62
               2
100
AcDbCircle
 10
254.34985935285681
 20
276.21016666811215
 30
0.0
 40
0.5
100
AcDbArc
 50
180.0
 51
0.0
  0
ARC
  5
1E6
100
AcDbEntity
  8
0
  6
Continuous
 62
               6
100
AcDbCircle
 10
248.64985935285688
 20
301.21016666811238
 30
0.0
 40
2.0
100
AcDbArc
 50
0.0
 51
89.999999999999957
  0
ARC
  5
1E7
100
AcDbEntity
  8
0
  6
Continuous
 62
               6
100
AcDbCircle
 10
226.64985935285677
 20
306.21016666811238
 30
0.0
 40
3.0
100
AcDbArc
 50
180.0
 51
269.99999999999994
  0
ARC
  5
1E8
100
AcDbEntity
  8
0
  6
Continuous
 62
               6
100
AcDbCircle
 10
221.64985935285682
 20
328.21016666811261
 30
0.0
 40
2.0
100
AcDbArc
 50
0.0
 51
89.999999999999957
  0
ARC
  5
1E9
100
AcDbEntity
  8
0
  6
Continuous
 62
               2
100
AcDbCircle
 10
251.64985935285677
 20
342.21016666811261
 30
0.0
 40
0.5
100
AcDbArc
 50
180.0
 51
0.0
  0
TEXT
  5
1EA
100
AcDbEntity
  8
0
 62
               7
100
AcDbText
 10
334.14985935285682
 20
231.59956628802183
 30
0.0
 40
12.000000000000012
  1
120
 50
90.000000000000028
 41
0.7695
  7
FontTableH_0
 72
               5
 11
334.14985935285682
 21
249.59956628802183
 31
0.0
100
AcDbText
  0
TEXT
  5
1EB
100
AcDbEntity
  8
0
 62
               7
100
AcDbText
 10
286.14985935285682
 20
198.59956628802175
 30
0.0
 40
12.000000000000012
  1
150
 41
0.7695
  7
FontTableH_0
 72
               5
 11
304.14985935285682
 21
198.59956628802175
 31
0.0
100
AcDbText
  0
TEXT
  5
1EC
100
AcDbEntity
  8
0
 62
               7
100
AcDbText
 10
235.76935543425611
 20
214.63149371214081
 30
0.0
 40
12.000000000000012
  1
箱樋
 41
0.7695
  7
FontTableH_0
 72
               5
 11
259.76935543425611
 21
214.63149371214183
 31
0.0
100
AcDbText
  0
TEXT
  5
1ED
100
AcDbEntity
  8
0
 62
               7
100
AcDbText
 10
234.83891925352438
 20
235.7805317965333
 30
0.0
 40
12.000000000000012
  1
樋下地(別途)
 41
0.7695
  7
FontTableH_0
 72
               5
 11
306.83891925352452
 21
235.78053179653691
 31
0.0
100
AcDbText
  0
TEXT
  5
1EE
100
AcDbEntity
  8
0
 62
               7
100
AcDbText
 10
305.66581380005448
 20
258.60742634306706
 30
0.0
 40
12.000000000000012
  1
唐草
 41
0.7695
  7
FontTableH_0
 72
               5
 11
329.66581380005448
 21
258.60742634306706
 31
0.0
100
AcDbText
  0
TEXT
  5
1EF
100
AcDbEntity
  8
0
 62
               7
100
AcDbText
 10
366.18206222583717
 20
389.03023186045959
 30
0.0
 40
12.000000000000012
  1
グレーチングプレート
 41
0.7695
  7
FontTableH_0
 72
               5
 11
486.18206222583729
 21
389.03023186045959
 31
0.0
100
AcDbText
  0
TEXT
  5
1F0
100
AcDbEntity
  8
0
 62
               7
100
AcDbText
 10
342.65037752722822
 20
439.33935087127878
 30
0.0
 40
12.000000000000012
  1
水切り
 41
0.7695
  7
FontTableH_0
 72
               5
 11
378.65037752722827
 21
439.33935087127878
 31
0.0
100
AcDbText
  0
TEXT
  5
1F1
100
AcDbEntity
  8
0
 62
               7
100
AcDbText
 10
265.62235960844919
 20
501.79289026275114
 30
0.0
 40
12.000000000000183
  1
外壁(別途)
 41
0.7695
  7
FontTableH_0
 72
               5
 11
325.62235960844924
 21
501.79289026275114
 31
0.0
100
AcDbText
  0
TEXT
  5
1F2
100
AcDbEntity
  8
0
 62
               7
100
AcDbText
 10
753.65313437518125
 20
306.22467011601543
 30
0.0
 40
12.000000000000012
  1
12
 50
271.14576283817559
 41
0.7695
  7
FontTableH_0
 72
               5
 11
753.89308638957652
 21
294.22706939625539
 31
0.0
100
AcDbText
  0
TEXT
  5
1F3
100
AcDbEntity
  8
0
 62
               7
100
AcDbText
 10
753.89306240157134
 20
294.22826879651922
 30
0.0
 40
12.000000000000012
  1
12
 50
271.14576283817519
 41
0.7695
  7
FontTableH_0
 72
               5
 11
754.13301441596661
 21
282.23066807675917
 31
0.0
100
AcDbText
  0
TEXT
  5
1F4
100
AcDbEntity
  8
0
 62
               7
100
AcDbText
 10
555.89461229363644
 20
466.67989722380128
 30
0.0
 40
12.000000000000012
  1
屋根本体
 41
0.7695
  7
FontTableH_0
 72
               5
 11
603.89461229363644
 21
466.67989722380128
 31
0.0
100
AcDbText
  0
TEXT
  5
1F5
100
AcDbEntity
  8
0
 62
               7
100
AcDbText
 10
555.89461229363644
 20
451.67989722380128
 30
0.0
 40
11.99999999999967
  1
ルーフィング
 41
0.7695
  7
FontTableH_0
 72
               5
 11
627.89461229363656
 21
451.67989722380128
 31
0.0
100
AcDbText
  0
TEXT
  5
1F6
100
AcDbEntity
  8
0
 62
               7
100
AcDbText
 10
555.89461229363644
 20
436.67989722380128
 30
0.0
 40
12.000000000000012
  1
野地板
 41
0.7695
  7
FontTableH_0
 72
               5
 11
591.89461229363644
 21
436.67989722380128
 31
0.0
100
AcDbText
  0
TEXT
  5
1F7
100
AcDbEntity
  8
0
 62
               7
100
AcDbText
 10
555.89461229363644
 20
421.67989722380128
 30
0.0
 40
11.99999999999967
  1
野地板
 41
0.7695
  7
FontTableH_0
 72
               5
 11
591.89461229363644
 21
421.67989722380128
 31
0.0
100
AcDbText
  0
TEXT
  5
1F8
100
AcDbEntity
  8
0
 62
               7
100
AcDbText
 10
32.892137113846992
 20
601.35786449547766
 30
0.0
 40
8.9999997615814333
  1
プロムナールーフ エクセル
 41
0.7695
  7
FontTableH_0
 72
               5
 11
145.39213413361492
 21
601.35786449547766
 31
0.0
100
AcDbText
  0
TEXT
  5
1F9
100
AcDbEntity
  8
0
 62
               7
100
AcDbText
 10
744.7867977564963
 20
26.713203554805084
 30
0.0
 40
8.9999997615814333
  1
軒先詳細図 【S=1/3】
 41
0.7695
  7
FontTableH_0
 72
               5
 11
834.78679537231062
 21
26.713203554805084
 31
0.0
100
AcDbText
  0
LINE
  5
1FA
100
AcDbEntity
  8
Layer00016
  6
DASHDOT
 62
               4
100
AcDbLine
 10
335.44955658560622
 20
165.16224512203399
 30
0.0
 11
335.44955658560622
 21
615.13627421991248
 31
0.0
  0
LINE
  5
1FB
100
AcDbEntity
  8
Layer00016
  6
Continuous
 62
               3
100
AcDbLine
 10
396.94955658560622
 20
759.39289187181407
 30
0.0
 11
273.94955658560622
 21
759.39289187181407
 31
0.0
  0
LINE
  5
1FC
100
AcDbEntity
  8
Layer00016
  6
Continuous
 62
               3
100
AcDbLine
 10
387.94955658560627
 20
714.39289187181407
 30
0.0
 11
282.94955658560622
 21
714.39289187181407
 31
0.0
  0
LINE
  5
1FD
100
AcDbEntity
  8
Layer00016
  6
Continuous
 62
               6
100
AcDbLine
 10
282.94955658560622
 20
714.39289187181407
 30
0.0
 11
387.94955658560627
 21
759.39289187181407
 31
0.0
  0
LINE
  5
1FE
100
AcDbEntity
  8
Layer00016
  6
Continuous
 62
               3
100
AcDbLine
 10
340.44955658560622
 20
459.39289187181407
 30
0.0
 11
340.44955658560622
 21
474.39289187181407
 31
0.0
  0
LINE
  5
1FF
100
AcDbEntity
  8
Layer00016
  6
Continuous
 62
               3
100
AcDbLine
 10
396.94955658560622
 20
570.89289187181407
 30
0.0
 11
396.94955658560622
 21
759.39289187181407
 31
0.0
  0
LINE
  5
200
100
AcDbEntity
  8
Layer00016
  6
Continuous
 62
               3
100
AcDbLine
 10
255.94955658560625
 20
759.39289187181407
 30
0.0
 11
255.94955658560625
 21
562.18937175077417
 31
0.0
  0
LINE
  5
201
100
AcDbEntity
  8
Layer00016
  6
Continuous
 62
               3
100
AcDbLine
 10
230.94955658560625
 20
759.39289187181407
 30
0.0
 11
230.94955658560625
 21
562.18937175077417
 31
0.0
  0
LINE
  5
202
100
AcDbEntity
  8
Layer00016
  6
Continuous
 62
               3
100
AcDbLine
 10
255.94955658560625
 20
759.39289187181407
 30
0.0
 11
230.94955658560625
 21
759.39289187181407
 31
0.0
  0
LINE
  5
203
100
AcDbEntity
  8
Layer00016
  6
Continuous
 62
               3
100
AcDbLine
 10
387.94955658560622
 20
264.39289187181402
 30
0.0
 11
282.94955658560622
 21
264.39289187181402
 31
0.0
  0
LINE
  5
204
100
AcDbEntity
  8
Layer00016
  6
Continuous
 62
               3
100
AcDbLine
 10
387.94955658560622
 20
459.39289187181407
 30
0.0
 11
387.94955658560622
 21
165.16224512203399
 31
0.0
  0
LINE
  5
205
100
AcDbEntity
  8
Layer00016
  6
Continuous
 62
               6
100
AcDbLine
 10
282.94955658560622
 20
459.39289187181407
 30
0.0
 11
387.94955658560622
 21
264.39289187181402
 31
0.0
  0
LINE
  5
206
100
AcDbEntity
  8
Layer00016
  6
Continuous
 62
               6
100
AcDbLine
 10
385.69955658560622
 20
459.39289187181407
 30
0.0
 11
282.94955658560622
 21
264.39289187181402
 31
0.0
  0
LINE
  5
207
100
AcDbEntity
  8
Layer00016
  6
Continuous
 62
               3
100
AcDbLine
 10
400.44955658560622
 20
399.39289187181402
 30
0.0
 11
400.44955658560622
 21
165.16224512203399
 31
0.0
  0
LINE
  5
208
100
AcDbEntity
  8
Layer00016
  6
Continuous
 62
               3
100
AcDbLine
 10
387.94955658560622
 20
399.39289187181402
 30
0.0
 11
400.44955658560622
 21
399.39289187181402
 31
0.0
  0
LINE
  5
209
100
AcDbEntity
  8
Layer00016
  6
DOT
 62
               6
100
AcDbLine
 10
269.94955658560622
 20
757.31716811931631
 30
0.0
 11
269.94955658560622
 21
644.57012469328652
 31
0.0
  0
LINE
  5
20A
100
AcDbEntity
  8
Layer00016
  6
Continuous
 62
               4
100
AcDbLine
 10
406.44955658560627
 20
697.39289187181419
 30
0.0
 11
406.44955658560627
 21
755.89289187181419
 31
0.0
  0
LINE
  5
20B
100
AcDbEntity
  8
Layer00016
  6
Continuous
 62
               4
100
AcDbLine
 10
436.44955658560627
 20
694.39289187181419
 30
0.0
 11
436.44955658560627
 21
674.8928918718143
 31
0.0
  0
LINE
  5
20C
100
AcDbEntity
  8
Layer00016
  6
Continuous
 62
               4
100
AcDbLine
 10
430.69955607031716
 20
683.12016499554204
 30
0.0
 11
435.44955658560627
 21
674.8928918718143
 31
0.0
  0
LINE
  5
20D
100
AcDbEntity
  8
Layer00016
  6
Continuous
 62
               3
100
AcDbLine
 10
621.94955658560616
 20
544.39289187181407
 30
0.0
 11
924.51866151384002
 21
550.44427397037884
 31
0.0
  0
LINE
  5
20E
100
AcDbEntity
  8
Layer00016
  6
Continuous
 62
               3
100
AcDbLine
 10
621.94955658560616
 20
556.39289187181419
 30
0.0
 11
621.709604571211
 21
568.39049259157423
 31
0.0
  0
LINE
  5
20F
100
AcDbEntity
  8
Layer00016
  6
Continuous
 62
               3
100
AcDbLine
 10
528.12146568538901
 20
459.39289192385877
 30
0.0
 11
290.19955658560622
 21
459.39289187181407
 31
0.0
  0
LINE
  5
210
100
AcDbEntity
  8
Layer00016
  6
Continuous
 62
               3
100
AcDbLine
 10
528.12146170665449
 20
474.39289198346341
 30
0.0
 11
340.44955658560622
 21
474.39289187181407
 31
0.0
  0
LINE
  5
211
100
AcDbEntity
  8
Layer00016
  6
Continuous
 62
               4
100
AcDbLine
 10
603.94955658560616
 20
487.30986775265387
 30
0.0
 11
400.94955658560622
 21
487.30986775265387
 31
0.0
  0
LINE
  5
212
100
AcDbEntity
  8
Layer00016
  6
Continuous
 62
               4
100
AcDbLine
 10
407.44955658560627
 20
755.89289187181419
 30
0.0
 11
407.84051020293572
 21
746.17944989823457
 31
0.0
  0
LINE
  5
213
100
AcDbEntity
  8
Layer00016
  6
Continuous
 62
               6
100
AcDbLine
 10
400.44955658560622
 20
279.3928918718139
 30
0.0
 11
826.80793769938077
 21
279.3928918718139
 31
0.0
  0
LINE
  5
214
100
AcDbEntity
  8
Layer00016
  6
Continuous
 62
               6
100
AcDbLine
 10
400.44955658560622
 20
179.39289187181387
 30
0.0
 11
826.80793769938077
 21
179.39289187181387
 31
0.0
  0
LINE
  5
215
100
AcDbEntity
  8
Layer00016
  6
Continuous
 62
               4
100
AcDbLine
 10
528.12146250240141
 20
471.39289192385877
 30
0.0
 11
340.44955658560622
 21
471.39289187181413
 31
0.0
  0
LINE
  5
216
100
AcDbEntity
  8
Layer00016
  6
Continuous
 62
               4
100
AcDbLine
 10
528.12146329814834
 20
468.39289192385877
 30
0.0
 11
340.44955658560622
 21
468.39289187181407
 31
0.0
  0
LINE
  5
217
100
AcDbEntity
  8
Layer00016
  6
Continuous
 62
               4
100
AcDbLine
 10
528.12146409389516
 20
465.39289192385877
 30
0.0
 11
340.44955658560622
 21
465.39289187181407
 31
0.0
  0
LINE
  5
218
100
AcDbEntity
  8
Layer00016
  6
Continuous
 62
               4
100
AcDbLine
 10
638.34602225194214
 20
735.93038203235142
 30
0.0
 11
857.64731925615467
 21
735.93038203235142
 31
0.0
  0
LINE
  5
219
100
AcDbEntity
  8
Layer00016
  6
Continuous
 62
               4
100
AcDbLine
 10
631.37040900573811
 20
401.92872845745711
 30
0.0
 11
826.80793769938077
 21
401.92872845745711
 31
0.0
  0
LINE
  5
21A
100
AcDbEntity
  8
Layer00016
  6
Continuous
 62
               4
100
AcDbLine
 10
255.94955658560625
 20
624.39289187181407
 30
0.0
 11
273.94955658560622
 21
624.39289187181407
 31
0.0
  0
LINE
  5
21B
100
AcDbEntity
  8
Layer00016
  6
Continuous
 62
               4
100
AcDbLine
 10
741.03782992858737
 20
589.85206428247079
 30
0.0
 11
841.0378299285876
 21
591.85206428247079
 31
0.0
  0
LINE
  5
21C
100
AcDbEntity
  8
Layer00016
  6
Continuous
 62
               4
100
AcDbLine
 10
741.03782992858737
 20
589.85206428247079
 30
0.0
 11
741.03782992858737
 21
591.85206428247079
 31
0.0
  0
LINE
  5
21D
100
AcDbEntity
  8
Layer00016
  6
Continuous
 62
               4
100
AcDbLine
 10
841.0378299285876
 20
591.85206428247079
 30
0.0
 11
741.03782992858737
 21
591.85206428247079
 31
0.0
  0
LINE
  5
21E
100
AcDbEntity
  8
Layer00016
  6
Continuous
 62
               7
100
AcDbLine
 10
396.94955658560622
 20
651.6111459412939
 30
0.0
 11
387.94955658560622
 21
642.6111459412939
 31
0.0
  0
LINE
  5
21F
100
AcDbEntity
  8
Layer00016
  6
Continuous
 62
               7
100
AcDbLine
 10
396.94955658560622
 20
658.68221375315943
 30
0.0
 11
387.94955658560622
 21
649.68221375315943
 31
0.0
  0
LINE
  5
220
100
AcDbEntity
  8
Layer00016
  6
Continuous
 62
               7
100
AcDbLine
 10
396.94955658560622
 20
665.75328156502485
 30
0.0
 11
387.94955658560622
 21
656.75328156502485
 31
0.0
  0
LINE
  5
221
100
AcDbEntity
  8
Layer00016
  6
Continuous
 62
               7
100
AcDbLine
 10
396.94955658560622
 20
672.82434937689027
 30
0.0
 11
387.94955658560622
 21
663.82434937689038
 31
0.0
  0
LINE
  5
222
100
AcDbEntity
  8
Layer00016
  6
Continuous
 62
               7
100
AcDbLine
 10
396.94955658560622
 20
679.8954171887558
 30
0.0
 11
387.94955658560622
 21
670.8954171887558
 31
0.0
  0
LINE
  5
223
100
AcDbEntity
  8
Layer00016
  6
Continuous
 62
               7
100
AcDbLine
 10
396.94955658560622
 20
686.96648500062122
 30
0.0
 11
387.94955658560622
 21
677.96648500062122
 31
0.0
  0
LINE
  5
224
100
AcDbEntity
  8
Layer00016
  6
Continuous
 62
               7
100
AcDbLine
 10
396.94955658560622
 20
694.03755281248675
 30
0.0
 11
387.94955658560622
 21
685.03755281248675
 31
0.0
  0
LINE
  5
225
100
AcDbEntity
  8
Layer00016
  6
Continuous
 62
               7
100
AcDbLine
 10
396.94955658560627
 20
701.10862062435217
 30
0.0
 11
387.94955658560627
 21
692.10862062435228
 31
0.0
  0
LINE
  5
226
100
AcDbEntity
  8
Layer00016
  6
Continuous
 62
               7
100
AcDbLine
 10
396.94955658560627
 20
708.1796884362177
 30
0.0
 11
387.94955658560627
 21
699.1796884362177
 31
0.0
  0
LINE
  5
227
100
AcDbEntity
  8
Layer00016
  6
Continuous
 62
               7
100
AcDbLine
 10
396.94955658560627
 20
715.25075624808312
 30
0.0
 11
387.94955658560627
 21
706.25075624808312
 31
0.0
  0
LINE
  5
228
100
AcDbEntity
  8
Layer00016
  6
Continuous
 62
               7
100
AcDbLine
 10
396.94955658560627
 20
722.32182405994865
 30
0.0
 11
387.94955658560627
 21
713.32182405994865
 31
0.0
  0
LINE
  5
229
100
AcDbEntity
  8
Layer00016
  6
Continuous
 62
               7
100
AcDbLine
 10
396.94955658560627
 20
729.39289187181407
 30
0.0
 11
387.94955658560627
 21
720.39289187181407
 31
0.0
  0
LINE
  5
22A
100
AcDbEntity
  8
Layer00016
  6
Continuous
 62
               7
100
AcDbLine
 10
282.94955658560622
 20
655.24823093114151
 30
0.0
 11
273.94955658560622
 21
646.24823093114151
 31
0.0
  0
LINE
  5
22B
100
AcDbEntity
  8
Layer00016
  6
Continuous
 62
               7
100
AcDbLine
 10
282.94955658560622
 20
662.31929874300704
 30
0.0
 11
273.94955658560622
 21
653.31929874300704
 31
0.0
  0
LINE
  5
22C
100
AcDbEntity
  8
Layer00016
  6
Continuous
 62
               7
100
AcDbLine
 10
282.94955658560622
 20
669.39036655487246
 30
0.0
 11
273.94955658560622
 21
660.39036655487246
 31
0.0
  0
LINE
  5
22D
100
AcDbEntity
  8
Layer00016
  6
Continuous
 62
               7
100
AcDbLine
 10
282.94955658560622
 20
676.46143436673788
 30
0.0
 11
273.94955658560622
 21
667.46143436673799
 31
0.0
  0
LINE
  5
22E
100
AcDbEntity
  8
Layer00016
  6
Continuous
 62
               7
100
AcDbLine
 10
282.94955658560622
 20
683.53250217860341
 30
0.0
 11
273.94955658560622
 21
674.53250217860341
 31
0.0
  0
LINE
  5
22F
100
AcDbEntity
  8
Layer00016
  6
Continuous
 62
               7
100
AcDbLine
 10
282.94955658560622
 20
690.60356999046883
 30
0.0
 11
273.94955658560622
 21
681.60356999046883
 31
0.0
  0
LINE
  5
230
100
AcDbEntity
  8
Layer00016
  6
Continuous
 62
               7
100
AcDbLine
 10
282.94955658560622
 20
697.67463780233436
 30
0.0
 11
273.94955658560622
 21
688.67463780233436
 31
0.0
  0
LINE
  5
231
100
AcDbEntity
  8
Layer00016
  6
Continuous
 62
               7
100
AcDbLine
 10
282.94955658560622
 20
704.74570561419989
 30
0.0
 11
273.94955658560622
 21
695.74570561419989
 31
0.0
  0
LINE
  5
232
100
AcDbEntity
  8
Layer00016
  6
Continuous
 62
               7
100
AcDbLine
 10
282.94955658560622
 20
711.81677342606531
 30
0.0
 11
273.94955658560622
 21
702.81677342606531
 31
0.0
  0
LINE
  5
233
100
AcDbEntity
  8
Layer00016
  6
Continuous
 62
               7
100
AcDbLine
 10
282.94955658560622
 20
718.88784123793073
 30
0.0
 11
273.94955658560622
 21
709.88784123793084
 31
0.0
  0
LINE
  5
234
100
AcDbEntity
  8
Layer00016
  6
Continuous
 62
               7
100
AcDbLine
 10
282.94955658560622
 20
725.95890904979626
 30
0.0
 11
273.94955658560622
 21
716.95890904979626
 31
0.0
  0
LINE
  5
235
100
AcDbEntity
  8
Layer00016
  6
Continuous
 62
               7
100
AcDbLine
 10
282.94955658560622
 20
733.02997686166168
 30
0.0
 11
273.94955658560622
 21
724.02997686166168
 31
0.0
  0
LINE
  5
236
100
AcDbEntity
  8
Layer00016
  6
Continuous
 62
               6
100
AcDbLine
 10
233.44955658560625
 20
759.39289187181407
 30
0.0
 11
233.44955658560625
 21
562.18937175077417
 31
0.0
  0
LINE
  5
237
100
AcDbEntity
  8
Layer00016
  6
Continuous
 62
               6
100
AcDbLine
 10
253.44955658560625
 20
759.39289187181407
 30
0.0
 11
253.44955658560625
 21
562.18937175077417
 31
0.0
  0
LINE
  5
238
100
AcDbEntity
  8
Layer00016
  6
Continuous
 62
               4
100
AcDbLine
 10
443.69955658560627
 20
694.39289187181419
 30
0.0
 11
468.99403562045336
 21
694.39289187181419
 31
0.0
  0
LINE
  5
239
100
AcDbEntity
  8
Layer00016
  6
Continuous
 62
               4
100
AcDbLine
 10
443.19955658560616
 20
674.39289187181419
 30
0.0
 11
465.96561871382818
 21
674.39289187181419
 31
0.0
  0
LINE
  5
23A
100
AcDbEntity
  8
Layer00016
  6
Continuous
 62
               3
100
AcDbLine
 10
315.19955658560622
 20
264.39291022533257
 30
0.0
 11
315.19955658560622
 21
165.16224512203399
 31
0.0
  0
LINE
  5
23B
100
AcDbEntity
  8
Layer00016
  6
Continuous
 62
               4
100
AcDbLine
 10
528.12146488964208
 20
462.39289192385877
 30
0.0
 11
340.44955658560622
 21
462.39289187181407
 31
0.0
  0
LINE
  5
23C
100
AcDbEntity
  8
Layer00016
  6
Continuous
 62
               7
100
AcDbLine
 10
396.94955658560622
 20
603.82940001077372
 30
0.0
 11
387.94955658560622
 21
594.82940001077372
 31
0.0
  0
LINE
  5
23D
100
AcDbEntity
  8
Layer00016
  6
Continuous
 62
               7
100
AcDbLine
 10
396.94955658560622
 20
610.90046782263926
 30
0.0
 11
387.94955658560622
 21
601.90046782263926
 31
0.0
  0
LINE
  5
23E
100
AcDbEntity
  8
Layer00016
  6
Continuous
 62
               7
100
AcDbLine
 10
396.94955658560622
 20
617.97153563450468
 30
0.0
 11
387.94955658560622
 21
608.97153563450468
 31
0.0
  0
LINE
  5
23F
100
AcDbEntity
  8
Layer00016
  6
Continuous
 62
               7
100
AcDbLine
 10
396.94955658560622
 20
582.61619657517736
 30
0.0
 11
387.94955658560622
 21
573.61619657517736
 31
0.0
  0
LINE
  5
240
100
AcDbEntity
  8
Layer00016
  6
Continuous
 62
               7
100
AcDbLine
 10
396.94955658560622
 20
589.68726438704277
 30
0.0
 11
387.94955658560622
 21
580.68726438704277
 31
0.0
  0
LINE
  5
241
100
AcDbEntity
  8
Layer00016
  6
Continuous
 62
               7
100
AcDbLine
 10
396.94955658560622
 20
596.75833219890831
 30
0.0
 11
387.94955658560622
 21
587.75833219890831
 31
0.0
  0
LINE
  5
242
100
AcDbEntity
  8
Layer00016
  6
DOT
 62
               6
100
AcDbLine
 10
271.94955658560622
 20
756.85966619426972
 30
0.0
 11
271.94955658560622
 21
565.89289187181407
 31
0.0
  0
LINE
  5
243
100
AcDbEntity
  8
Layer00016
  6
Continuous
 62
               6
100
AcDbLine
 10
754.71338303313598
 20
184.80844140597313
 30
0.0
 11
749.29783349897673
 21
179.39289187181387
 31
0.0
  0
LINE
  5
244
100
AcDbEntity
  8
Layer00016
  6
Continuous
 62
               6
100
AcDbLine
 10
751.31173683725353
 20
195.5489308338216
 30
0.0
 11
735.15569787524578
 21
179.39289187181387
 31
0.0
  0
LINE
  5
245
100
AcDbEntity
  8
Layer00016
  6
Continuous
 62
               6
100
AcDbLine
 10
748.74966561347708
 20
207.12899523377607
 30
0.0
 11
721.01356225151483
 21
179.39289187181387
 31
0.0
  0
LINE
  5
246
100
AcDbEntity
  8
Layer00016
  6
Continuous
 62
               6
100
AcDbLine
 10
747.19001216187087
 20
219.71147740590078
 30
0.0
 11
706.87142662778388
 21
179.39289187181387
 31
0.0
  0
LINE
  5
247
100
AcDbEntity
  8
Layer00016
  6
Continuous
 62
               6
100
AcDbLine
 10
746.89579726720706
 20
233.55939813496803
 30
0.0
 11
692.72929100405293
 21
179.39289187181387
 31
0.0
  0
LINE
  5
248
100
AcDbEntity
  8
Layer00016
  6
Continuous
 62
               6
100
AcDbLine
 10
748.33816536444442
 20
249.14390185593632
 30
0.0
 11
678.58715538032197
 21
179.39289187181387
 31
0.0
  0
LINE
  5
249
100
AcDbEntity
  8
Layer00016
  6
Continuous
 62
               6
100
AcDbLine
 10
752.53411809894521
 20
267.48199021416804
 30
0.0
 11
664.44501975659102
 21
179.39289187181387
 31
0.0
  0
LINE
  5
24A
100
AcDbEntity
  8
Layer00016
  6
Continuous
 62
               6
100
AcDbLine
 10
750.30288413286007
 20
279.3928918718139
 30
0.0
 11
650.30288413286007
 21
179.39289187181387
 31
0.0
  0
LINE
  5
24B
100
AcDbEntity
  8
Layer00016
  6
Continuous
 62
               6
100
AcDbLine
 10
736.16074850912912
 20
279.3928918718139
 30
0.0
 11
636.16074850912912
 21
179.39289187181387
 31
0.0
  0
LINE
  5
24C
100
AcDbEntity
  8
Layer00016
  6
Continuous
 62
               6
100
AcDbLine
 10
722.01861288539817
 20
279.3928918718139
 30
0.0
 11
622.01861288539817
 21
179.39289187181387
 31
0.0
  0
LINE
  5
24D
100
AcDbEntity
  8
Layer00016
  6
Continuous
 62
               6
100
AcDbLine
 10
707.87647726166722
 20
279.3928918718139
 30
0.0
 11
607.87647726166722
 21
179.39289187181387
 31
0.0
  0
LINE
  5
24E
100
AcDbEntity
  8
Layer00016
  6
Continuous
 62
               6
100
AcDbLine
 10
693.73434163793627
 20
279.3928918718139
 30
0.0
 11
593.73434163793627
 21
179.39289187181387
 31
0.0
  0
LINE
  5
24F
100
AcDbEntity
  8
Layer00016
  6
Continuous
 62
               6
100
AcDbLine
 10
679.59220601420532
 20
279.3928918718139
 30
0.0
 11
579.59220601420532
 21
179.39289187181387
 31
0.0
  0
LINE
  5
250
100
AcDbEntity
  8
Layer00016
  6
Continuous
 62
               6
100
AcDbLine
 10
665.45007039047437
 20
279.3928918718139
 30
0.0
 11
565.45007039047437
 21
179.39289187181387
 31
0.0
  0
LINE
  5
251
100
AcDbEntity
  8
Layer00016
  6
Continuous
 62
               6
100
AcDbLine
 10
651.30793476674341
 20
279.3928918718139
 30
0.0
 11
551.30793476674341
 21
179.39289187181387
 31
0.0
  0
LINE
  5
252
100
AcDbEntity
  8
Layer00016
  6
Continuous
 62
               6
100
AcDbLine
 10
637.16579914301246
 20
279.3928918718139
 30
0.0
 11
537.16579914301246
 21
179.39289187181387
 31
0.0
  0
LINE
  5
253
100
AcDbEntity
  8
Layer00016
  6
Continuous
 62
               6
100
AcDbLine
 10
623.02366351928151
 20
279.3928918718139
 30
0.0
 11
523.02366351928151
 21
179.39289187181387
 31
0.0
  0
LINE
  5
254
100
AcDbEntity
  8
Layer00016
  6
Continuous
 62
               6
100
AcDbLine
 10
608.88152789555056
 20
279.3928918718139
 30
0.0
 11
508.88152789555062
 21
179.39289187181387
 31
0.0
  0
LINE
  5
255
100
AcDbEntity
  8
Layer00016
  6
Continuous
 62
               6
100
AcDbLine
 10
594.73939227181961
 20
279.3928918718139
 30
0.0
 11
494.73939227181967
 21
179.39289187181387
 31
0.0
  0
LINE
  5
256
100
AcDbEntity
  8
Layer00016
  6
Continuous
 62
               6
100
AcDbLine
 10
580.59725664808866
 20
279.3928918718139
 30
0.0
 11
480.59725664808872
 21
179.39289187181387
 31
0.0
  0
LINE
  5
257
100
AcDbEntity
  8
Layer00016
  6
Continuous
 62
               6
100
AcDbLine
 10
566.45512102435771
 20
279.3928918718139
 30
0.0
 11
466.45512102435777
 21
179.39289187181387
 31
0.0
  0
LINE
  5
258
100
AcDbEntity
  8
Layer00016
  6
Continuous
 62
               6
100
AcDbLine
 10
552.31298540062676
 20
279.3928918718139
 30
0.0
 11
452.31298540062681
 21
179.39289187181387
 31
0.0
  0
LINE
  5
259
100
AcDbEntity
  8
Layer00016
  6
Continuous
 62
               6
100
AcDbLine
 10
538.17084977689581
 20
279.3928918718139
 30
0.0
 11
438.17084977689586
 21
179.39289187181387
 31
0.0
  0
LINE
  5
25A
100
AcDbEntity
  8
Layer00016
  6
Continuous
 62
               6
100
AcDbLine
 10
452.31298540062681
 20
179.39289187181387
 30
0.0
 11
400.44955658560622
 21
231.25632068683461
 31
0.0
  0
LINE
  5
25B
100
AcDbEntity
  8
Layer00016
  6
Continuous
 62
               6
100
AcDbLine
 10
466.45512102435777
 20
179.39289187181387
 30
0.0
 11
400.44955658560622
 21
245.39845631056559
 31
0.0
  0
LINE
  5
25C
100
AcDbEntity
  8
Layer00016
  6
Continuous
 62
               6
100
AcDbLine
 10
480.59725664808872
 20
179.39289187181387
 30
0.0
 11
400.44955658560622
 21
259.54059193429651
 31
0.0
  0
LINE
  5
25D
100
AcDbEntity
  8
Layer00016
  6
Continuous
 62
               6
100
AcDbLine
 10
494.73939227181967
 20
179.39289187181387
 30
0.0
 11
400.44955658560622
 21
273.68272755802741
 31
0.0
  0
LINE
  5
25E
100
AcDbEntity
  8
Layer00016
  6
Continuous
 62
               6
100
AcDbLine
 10
508.88152789555062
 20
179.39289187181387
 30
0.0
 11
408.88152789555068
 21
279.3928918718139
 31
0.0
  0
LINE
  5
25F
100
AcDbEntity
  8
Layer00016
  6
Continuous
 62
               6
100
AcDbLine
 10
523.02366351928151
 20
179.39289187181387
 30
0.0
 11
423.02366351928157
 21
279.3928918718139
 31
0.0
  0
LINE
  5
260
100
AcDbEntity
  8
Layer00016
  6
Continuous
 62
               6
100
AcDbLine
 10
537.16579914301246
 20
179.39289187181387
 30
0.0
 11
437.16579914301252
 21
279.3928918718139
 31
0.0
  0
LINE
  5
261
100
AcDbEntity
  8
Layer00016
  6
Continuous
 62
               6
100
AcDbLine
 10
551.30793476674341
 20
179.39289187181387
 30
0.0
 11
451.30793476674347
 21
279.3928918718139
 31
0.0
  0
LINE
  5
262
100
AcDbEntity
  8
Layer00016
  6
Continuous
 62
               6
100
AcDbLine
 10
565.45007039047437
 20
179.39289187181387
 30
0.0
 11
465.45007039047442
 21
279.3928918718139
 31
0.0
  0
LINE
  5
263
100
AcDbEntity
  8
Layer00016
  6
Continuous
 62
               6
100
AcDbLine
 10
579.59220601420532
 20
179.39289187181387
 30
0.0
 11
479.59220601420532
 21
279.3928918718139
 31
0.0
  0
LINE
  5
264
100
AcDbEntity
  8
Layer00016
  6
Continuous
 62
               6
100
AcDbLine
 10
593.73434163793627
 20
179.39289187181387
 30
0.0
 11
493.73434163793632
 21
279.3928918718139
 31
0.0
  0
LINE
  5
265
100
AcDbEntity
  8
Layer00016
  6
Continuous
 62
               6
100
AcDbLine
 10
607.87647726166722
 20
179.39289187181387
 30
0.0
 11
507.87647726166728
 21
279.3928918718139
 31
0.0
  0
LINE
  5
266
100
AcDbEntity
  8
Layer00016
  6
Continuous
 62
               6
100
AcDbLine
 10
622.01861288539817
 20
179.39289187181387
 30
0.0
 11
522.01861288539817
 21
279.3928918718139
 31
0.0
  0
LINE
  5
267
100
AcDbEntity
  8
Layer00016
  6
Continuous
 62
               6
100
AcDbLine
 10
636.16074850912912
 20
179.39289187181387
 30
0.0
 11
536.16074850912912
 21
279.3928918718139
 31
0.0
  0
LINE
  5
268
100
AcDbEntity
  8
Layer00016
  6
Continuous
 62
               6
100
AcDbLine
 10
650.30288413286007
 20
179.39289187181387
 30
0.0
 11
550.30288413286007
 21
279.3928918718139
 31
0.0
  0
LINE
  5
269
100
AcDbEntity
  8
Layer00016
  6
Continuous
 62
               6
100
AcDbLine
 10
664.44501975659102
 20
179.39289187181387
 30
0.0
 11
564.44501975659102
 21
279.3928918718139
 31
0.0
  0
LINE
  5
26A
100
AcDbEntity
  8
Layer00016
  6
Continuous
 62
               6
100
AcDbLine
 10
678.58715538032197
 20
179.39289187181387
 30
0.0
 11
578.58715538032197
 21
279.3928918718139
 31
0.0
  0
LINE
  5
26B
100
AcDbEntity
  8
Layer00016
  6
Continuous
 62
               6
100
AcDbLine
 10
692.72929100405293
 20
179.39289187181387
 30
0.0
 11
592.72929100405293
 21
279.3928918718139
 31
0.0
  0
LINE
  5
26C
100
AcDbEntity
  8
Layer00016
  6
Continuous
 62
               6
100
AcDbLine
 10
706.87142662778388
 20
179.39289187181387
 30
0.0
 11
606.87142662778388
 21
279.3928918718139
 31
0.0
  0
LINE
  5
26D
100
AcDbEntity
  8
Layer00016
  6
Continuous
 62
               6
100
AcDbLine
 10
721.01356225151483
 20
179.39289187181387
 30
0.0
 11
621.01356225151483
 21
279.3928918718139
 31
0.0
  0
LINE
  5
26E
100
AcDbEntity
  8
Layer00016
  6
Continuous
 62
               6
100
AcDbLine
 10
735.15569787524578
 20
179.39289187181387
 30
0.0
 11
635.15569787524578
 21
279.3928918718139
 31
0.0
  0
LINE
  5
26F
100
AcDbEntity
  8
Layer00016
  6
Continuous
 62
               6
100
AcDbLine
 10
749.29783349897673
 20
179.39289187181387
 30
0.0
 11
649.29783349897673
 21
279.3928918718139
 31
0.0
  0
LINE
  5
270
100
AcDbEntity
  8
Layer00016
  6
Continuous
 62
               6
100
AcDbLine
 10
752.99181387845101
 20
189.84104711607054
 30
0.0
 11
663.43996912270768
 21
279.3928918718139
 31
0.0
  0
LINE
  5
271
100
AcDbEntity
  8
Layer00016
  6
Continuous
 62
               6
100
AcDbLine
 10
748.52744177975467
 20
208.44755483849784
 30
0.0
 11
677.58210474643863
 21
279.3928918718139
 31
0.0
  0
LINE
  5
272
100
AcDbEntity
  8
Layer00016
  6
Continuous
 62
               6
100
AcDbLine
 10
746.93342123600564
 20
224.18371100597784
 30
0.0
 11
691.72424037016958
 21
279.3928918718139
 31
0.0
  0
LINE
  5
273
100
AcDbEntity
  8
Layer00016
  6
Continuous
 62
               6
100
AcDbLine
 10
747.12334708651474
 20
238.13592077919981
 30
0.0
 11
705.86637599390053
 21
279.3928918718139
 31
0.0
  0
LINE
  5
274
100
AcDbEntity
  8
Layer00016
  6
Continuous
 62
               6
100
AcDbLine
 10
748.60335425992969
 20
250.7980492295157
 30
0.0
 11
720.00851161763148
 21
279.3928918718139
 31
0.0
  0
LINE
  5
275
100
AcDbEntity
  8
Layer00016
  6
Continuous
 62
               6
100
AcDbLine
 10
751.1004083607919
 20
262.44313075238443
 30
0.0
 11
734.15064724136244
 21
279.3928918718139
 31
0.0
  0
LINE
  5
276
100
AcDbEntity
  8
Layer00016
  6
Continuous
 62
               6
100
AcDbLine
 10
754.44642691723107
 20
273.23924781967628
 30
0.0
 11
748.29278286509339
 21
279.3928918718139
 31
0.0
  0
LINE
  5
277
100
AcDbEntity
  8
Layer00016
  6
Continuous
 62
               6
100
AcDbLine
 10
385.69955658560622
 20
221.62722616529567
 30
0.0
 11
374.71252503976575
 21
210.64019461945517
 31
0.0
  0
LINE
  5
278
100
AcDbEntity
  8
Layer00016
  6
Continuous
 62
               6
100
AcDbLine
 10
385.69955658560622
 20
235.76936178902662
 30
0.0
 11
355.39400851398432
 21
205.46381371740472
 31
0.0
  0
LINE
  5
279
100
AcDbEntity
  8
Layer00016
  6
Continuous
 62
               6
100
AcDbLine
 10
385.69955658560622
 20
249.9114974127576
 30
0.0
 11
336.07549198820294
 21
200.28743281535426
 31
0.0
  0
LINE
  5
27A
100
AcDbEntity
  8
Layer00016
  6
Continuous
 62
               6
100
AcDbLine
 10
385.69955658560622
 20
264.05363303648858
 30
0.0
 11
316.75697546242151
 21
195.11105191330378
 31
0.0
  0
LINE
  5
27B
100
AcDbEntity
  8
Layer00016
  6
Continuous
 62
               6
100
AcDbLine
 10
371.89667979720076
 20
264.39289187181402
 30
0.0
 11
315.19955658560622
 21
207.69576866021947
 31
0.0
  0
LINE
  5
27C
100
AcDbEntity
  8
Layer00016
  6
Continuous
 62
               6
100
AcDbLine
 10
357.75454417346981
 20
264.39289187181402
 30
0.0
 11
315.19955658560622
 21
221.83790428395042
 31
0.0
  0
LINE
  5
27D
100
AcDbEntity
  8
Layer00016
  6
Continuous
 62
               6
100
AcDbLine
 10
343.61240854973886
 20
264.39289187181402
 30
0.0
 11
315.19955658560622
 21
235.98003990768137
 31
0.0
  0
LINE
  5
27E
100
AcDbEntity
  8
Layer00016
  6
Continuous
 62
               6
100
AcDbLine
 10
329.47027292600791
 20
264.39289187181402
 30
0.0
 11
315.19955658560622
 21
250.12217553141235
 31
0.0
  0
LINE
  5
27F
100
AcDbEntity
  8
Layer00016
  6
Continuous
 62
               6
100
AcDbLine
 10
318.65882061514327
 20
195.62064978610465
 30
0.0
 11
315.19955658560622
 21
199.07991381564167
 31
0.0
  0
LINE
  5
280
100
AcDbEntity
  8
Layer00016
  6
Continuous
 62
               6
100
AcDbLine
 10
329.81237133164734
 20
198.6092346933315
 30
0.0
 11
315.19955658560622
 21
213.22204943937263
 31
0.0
  0
LINE
  5
281
100
AcDbEntity
  8
Layer00016
  6
Continuous
 62
               6
100
AcDbLine
 10
340.96592204815141
 20
201.59781960055835
 30
0.0
 11
315.19955658560622
 21
227.36418506310358
 31
0.0
  0
LINE
  5
282
100
AcDbEntity
  8
Layer00016
  6
Continuous
 62
               6
100
AcDbLine
 10
352.11947276465554
 20
204.5864045077852
 30
0.0
 11
315.19955658560622
 21
241.50632068683456
 31
0.0
  0
LINE
  5
283
100
AcDbEntity
  8
Layer00016
  6
Continuous
 62
               6
100
AcDbLine
 10
363.27302348115961
 20
207.57498941501208
 30
0.0
 11
315.19955658560622
 21
255.64845631056551
 31
0.0
  0
LINE
  5
284
100
AcDbEntity
  8
Layer00016
  6
Continuous
 62
               6
100
AcDbLine
 10
374.42657419766368
 20
210.56357432223894
 30
0.0
 11
320.59725664808866
 21
264.39289187181402
 31
0.0
  0
LINE
  5
285
100
AcDbEntity
  8
Layer00016
  6
Continuous
 62
               6
100
AcDbLine
 10
385.58012491416781
 20
213.55215922946579
 30
0.0
 11
334.73939227181961
 21
264.39289187181402
 31
0.0
  0
LINE
  5
286
100
AcDbEntity
  8
Layer00016
  6
Continuous
 62
               6
100
AcDbLine
 10
385.69955658560622
 20
227.57486318175833
 30
0.0
 11
348.88152789555056
 21
264.39289187181402
 31
0.0
  0
LINE
  5
287
100
AcDbEntity
  8
Layer00016
  6
Continuous
 62
               6
100
AcDbLine
 10
385.69955658560622
 20
241.71699880548931
 30
0.0
 11
363.02366351928151
 21
264.39289187181402
 31
0.0
  0
LINE
  5
288
100
AcDbEntity
  8
Layer00016
  6
Continuous
 62
               6
100
AcDbLine
 10
385.69955658560622
 20
255.85913442922026
 30
0.0
 11
377.16579914301246
 21
264.39289187181402
 31
0.0
  0
LINE
  5
289
100
AcDbEntity
  8
Layer00016
  6
Continuous
 62
               7
100
AcDbLine
 10
282.94955658560622
 20
458.97406095144635
 30
0.0
 11
273.94955658560622
 21
449.97406095144635
 31
0.0
  0
LINE
  5
28A
100
AcDbEntity
  8
Layer00016
  6
Continuous
 62
               7
100
AcDbLine
 10
275.79731969410852
 20
458.89289187181407
 30
0.0
 11
273.94955658560622
 21
457.04512876331182
 31
0.0
  0
LINE
  5
28B
100
AcDbEntity
  8
Layer00016
  6
Continuous
 62
               7
100
AcDbLine
 10
282.94955658560622
 20
437.76085751584992
 30
0.0
 11
273.94955658560622
 21
428.76085751584986
 31
0.0
  0
LINE
  5
28C
100
AcDbEntity
  8
Layer00016
  6
Continuous
 62
               7
100
AcDbLine
 10
282.94955658560622
 20
444.8319253277154
 30
0.0
 11
273.94955658560622
 21
435.83192532771534
 31
0.0
  0
LINE
  5
28D
100
AcDbEntity
  8
Layer00016
  6
Continuous
 62
               7
100
AcDbLine
 10
282.94955658560622
 20
451.90299313958087
 30
0.0
 11
273.94955658560622
 21
442.90299313958087
 31
0.0
  0
LINE
  5
28E
100
AcDbEntity
  8
Layer00016
  6
Continuous
 62
               7
100
AcDbLine
 10
282.94955658560622
 20
423.61872189211891
 30
0.0
 11
273.94955658560622
 21
414.61872189211891
 31
0.0
  0
LINE
  5
28F
100
AcDbEntity
  8
Layer00016
  6
Continuous
 62
               7
100
AcDbLine
 10
282.94955658560622
 20
430.68978970398439
 30
0.0
 11
273.94955658560622
 21
421.68978970398439
 31
0.0
  0
LINE
  5
290
100
AcDbEntity
  8
Layer00016
  6
Continuous
 62
               7
100
AcDbLine
 10
282.94955658560622
 20
402.40551845652249
 30
0.0
 11
273.94955658560622
 21
393.40551845652249
 31
0.0
  0
LINE
  5
291
100
AcDbEntity
  8
Layer00016
  6
Continuous
 62
               7
100
AcDbLine
 10
282.94955658560622
 20
409.47658626838796
 30
0.0
 11
273.94955658560622
 21
400.47658626838796
 31
0.0
  0
LINE
  5
292
100
AcDbEntity
  8
Layer00016
  6
Continuous
 62
               7
100
AcDbLine
 10
282.94955658560622
 20
416.54765408025344
 30
0.0
 11
273.94955658560622
 21
407.54765408025344
 31
0.0
  0
LINE
  5
293
100
AcDbEntity
  8
Layer00016
  6
Continuous
 62
               7
100
AcDbLine
 10
282.94955658560622
 20
388.26338283279154
 30
0.0
 11
273.94955658560622
 21
379.26338283279154
 31
0.0
  0
LINE
  5
294
100
AcDbEntity
  8
Layer00016
  6
Continuous
 62
               7
100
AcDbLine
 10
282.94955658560622
 20
395.33445064465701
 30
0.0
 11
273.94955658560622
 21
386.33445064465701
 31
0.0
  0
LINE
  5
295
100
AcDbEntity
  8
Layer00016
  6
Continuous
 62
               7
100
AcDbLine
 10
282.94955658560622
 20
367.05017939719505
 30
0.0
 11
273.94955658560622
 21
358.05017939719505
 31
0.0
  0
LINE
  5
296
100
AcDbEntity
  8
Layer00016
  6
Continuous
 62
               7
100
AcDbLine
 10
282.94955658560622
 20
374.12124720906053
 30
0.0
 11
273.94955658560622
 21
365.12124720906053
 31
0.0
  0
LINE
  5
297
100
AcDbEntity
  8
Layer00016
  6
Continuous
 62
               7
100
AcDbLine
 10
282.94955658560622
 20
381.19231502092606
 30
0.0
 11
273.94955658560622
 21
372.192315020926
 31
0.0
  0
LINE
  5
298
100
AcDbEntity
  8
Layer00016
  6
Continuous
 62
               7
100
AcDbLine
 10
282.94955658560622
 20
352.9080437734641
 30
0.0
 11
273.94955658560622
 21
343.90804377346404
 31
0.0
  0
LINE
  5
299
100
AcDbEntity
  8
Layer00016
  6
Continuous
 62
               7
100
AcDbLine
 10
282.94955658560622
 20
359.97911158532958
 30
0.0
 11
273.94955658560622
 21
350.97911158532952
 31
0.0
  0
LINE
  5
29A
100
AcDbEntity
  8
Layer00016
  6
Continuous
 62
               7
100
AcDbLine
 10
282.94955658560622
 20
331.69484033786762
 30
0.0
 11
273.94955658560622
 21
322.69484033786762
 31
0.0
  0
LINE
  5
29B
100
AcDbEntity
  8
Layer00016
  6
Continuous
 62
               7
100
AcDbLine
 10
282.94955658560622
 20
338.76590814973309
 30
0.0
 11
273.94955658560622
 21
329.76590814973309
 31
0.0
  0
LINE
  5
29C
100
AcDbEntity
  8
Layer00016
  6
Continuous
 62
               7
100
AcDbLine
 10
282.94955658560622
 20
345.83697596159857
 30
0.0
 11
273.94955658560622
 21
336.83697596159857
 31
0.0
  0
LINE
  5
29D
100
AcDbEntity
  8
Layer00016
  6
Continuous
 62
               7
100
AcDbLine
 10
282.94955658560622
 20
317.55270471413667
 30
0.0
 11
273.94955658560622
 21
308.55270471413667
 31
0.0
  0
LINE
  5
29E
100
AcDbEntity
  8
Layer00016
  6
Continuous
 62
               7
100
AcDbLine
 10
282.94955658560622
 20
324.62377252600214
 30
0.0
 11
273.94955658560622
 21
315.62377252600214
 31
0.0
  0
LINE
  5
29F
100
AcDbEntity
  8
Layer00016
  6
Continuous
 62
               7
100
AcDbLine
 10
282.94955658560622
 20
296.33950127854024
 30
0.0
 11
273.94955658560622
 21
287.33950127854018
 31
0.0
  0
LINE
  5
2A0
100
AcDbEntity
  8
Layer00016
  6
Continuous
 62
               7
100
AcDbLine
 10
282.94955658560622
 20
303.41056909040572
 30
0.0
 11
273.94955658560622
 21
294.41056909040572
 31
0.0
  0
LINE
  5
2A1
100
AcDbEntity
  8
Layer00016
  6
Continuous
 62
               7
100
AcDbLine
 10
282.94955658560622
 20
310.48163690227119
 30
0.0
 11
273.94955658560622
 21
301.48163690227119
 31
0.0
  0
LINE
  5
2A2
100
AcDbEntity
  8
Layer00016
  6
Continuous
 62
               7
100
AcDbLine
 10
282.94955658560622
 20
282.19736565480923
 30
0.0
 11
273.94955658560622
 21
273.19736565480923
 31
0.0
  0
LINE
  5
2A3
100
AcDbEntity
  8
Layer00016
  6
Continuous
 62
               7
100
AcDbLine
 10
282.94955658560622
 20
289.26843346667471
 30
0.0
 11
273.94955658560622
 21
280.26843346667471
 31
0.0
  0
LINE
  5
2A4
100
AcDbEntity
  8
Layer00016
  6
Continuous
 62
               7
100
AcDbLine
 10
282.94955658560622
 20
268.05523003107828
 30
0.0
 11
274.20704451560113
 21
259.31271796107319
 31
0.0
  0
LINE
  5
2A5
100
AcDbEntity
  8
Layer00016
  6
Continuous
 62
               7
100
AcDbLine
 10
282.94955658560622
 20
275.12629784294376
 30
0.0
 11
273.94955658560622
 21
266.12629784294376
 31
0.0
  0
LINE
  5
2A6
100
AcDbEntity
  8
Layer00016
  6
Continuous
 62
               3
100
AcDbLine
 10
290.19955658560622
 20
459.39289187181407
 30
0.0
 11
285.19955658560622
 21
459.39289187181407
 31
0.0
  0
LINE
  5
2A7
100
AcDbEntity
  8
Layer00016
  6
Continuous
 62
               4
100
AcDbLine
 10
406.44955658560627
 20
697.39289187181407
 30
0.0
 11
436.44955658560627
 21
694.39289187181419
 31
0.0
  0
LINE
  5
2A8
100
AcDbEntity
  8
Layer00016
  6
Continuous
 62
               4
100
AcDbLine
 10
680.3093690035555
 20
459.39289187181407
 30
0.0
 11
680.3093690035555
 21
474.39289187181407
 31
0.0
  0
LINE
  5
2A9
100
AcDbEntity
  8
Layer00016
  6
Continuous
 62
               4
100
AcDbLine
 10
657.28771177520298
 20
471.39289187181407
 30
0.0
 11
528.12146568538901
 21
471.39289187181407
 31
0.0
  0
LINE
  5
2AA
100
AcDbEntity
  8
Layer00016
  6
Continuous
 62
               4
100
AcDbLine
 10
657.28771177520298
 20
468.39289187181407
 30
0.0
 11
528.12146568538901
 21
468.39289187181407
 31
0.0
  0
LINE
  5
2AB
100
AcDbEntity
  8
Layer00016
  6
Continuous
 62
               4
100
AcDbLine
 10
657.28771177520298
 20
465.39289187181407
 30
0.0
 11
528.12146568538901
 21
465.39289187181407
 31
0.0
  0
LINE
  5
2AC
100
AcDbEntity
  8
Layer00016
  6
Continuous
 62
               4
100
AcDbLine
 10
657.28771177520298
 20
462.39289187181407
 30
0.0
 11
528.12146568538901
 21
462.39289187181407
 31
0.0
  0
LINE
  5
2AD
100
AcDbEntity
  8
Layer00016
  6
Continuous
 62
               3
100
AcDbLine
 10
387.94955658560622
 20
570.89289187181407
 30
0.0
 11
387.94955658560627
 21
759.39289187181407
 31
0.0
  0
LINE
  5
2AE
100
AcDbEntity
  8
Layer00016
  6
DOT
 62
               6
100
AcDbLine
 10
271.94955658560622
 20
458.89289187181407
 30
0.0
 11
271.94955658560622
 21
165.16224512203399
 31
0.0
  0
LINE
  5
2AF
100
AcDbEntity
  8
Layer00016
  6
Continuous
 62
               3
100
AcDbLine
 10
273.94955658560622
 20
458.89289187181407
 30
0.0
 11
273.94955658560622
 21
165.16224512203399
 31
0.0
  0
LINE
  5
2B0
100
AcDbEntity
  8
Layer00016
  6
Continuous
 62
               4
100
AcDbLine
 10
470.59155932367582
 20
756.39289187181453
 30
0.0
 11
416.6029084797126
 21
756.39289187181453
 31
0.0
  0
LINE
  5
2B1
100
AcDbEntity
  8
Layer00016
  6
Continuous
 62
               3
100
AcDbLine
 10
273.94955658560622
 20
570.89289187181407
 30
0.0
 11
273.94955658560622
 21
759.39289187181407
 31
0.0
  0
LINE
  5
2B2
100
AcDbEntity
  8
Layer00016
  6
Continuous
 62
               3
100
AcDbLine
 10
282.94955658560622
 20
570.89289187181407
 30
0.0
 11
282.94955658560622
 21
759.39289187181407
 31
0.0
  0
LINE
  5
2B3
100
AcDbEntity
  8
Layer00016
  6
Continuous
 62
               3
100
AcDbLine
 10
282.94955658560622
 20
458.89289187181407
 30
0.0
 11
282.94955658560622
 21
165.16224512203399
 31
0.0
  0
LINE
  5
2B4
100
AcDbEntity
  8
Layer00016
  6
Continuous
 62
               3
100
AcDbLine
 10
230.94955658560625
 20
478.75370724055296
 30
0.0
 11
230.94955658560625
 21
165.16224512203399
 31
0.0
  0
LINE
  5
2B5
100
AcDbEntity
  8
Layer00016
  6
Continuous
 62
               6
100
AcDbLine
 10
233.44955658560625
 20
478.75370724055296
 30
0.0
 11
233.44955658560625
 21
165.16224512203399
 31
0.0
  0
LINE
  5
2B6
100
AcDbEntity
  8
Layer00016
  6
Continuous
 62
               6
100
AcDbLine
 10
253.44955658560625
 20
478.75370724055296
 30
0.0
 11
253.44955658560625
 21
165.16224512203399
 31
0.0
  0
LINE
  5
2B7
100
AcDbEntity
  8
Layer00016
  6
Continuous
 62
               3
100
AcDbLine
 10
255.94955658560625
 20
478.75370724055296
 30
0.0
 11
255.94955658560625
 21
165.16224512203399
 31
0.0
  0
LINE
  5
2B8
100
AcDbEntity
  8
Layer00016
  6
Continuous
 62
               4
100
AcDbLine
 10
400.94955658560622
 20
487.30986775265387
 30
0.0
 11
400.94955658560622
 21
756.90330871107096
 31
0.0
  0
LINE
  5
2B9
100
AcDbEntity
  8
Layer00016
  6
Continuous
 62
               4
100
AcDbLine
 10
402.84509491568434
 20
1019.9359736530164
 30
0.0
 11
402.84514002403216
 21
1034.1629034471637
 31
0.0
  0
LINE
  5
2BA
100
AcDbEntity
  8
Layer00016
  6
Continuous
 62
               7
100
AcDbLine
 10
396.94955658560627
 20
736.4639596836796
 30
0.0
 11
387.94955658560627
 21
727.4639596836796
 31
0.0
  0
LINE
  5
2BB
100
AcDbEntity
  8
Layer00016
  6
Continuous
 62
               7
100
AcDbLine
 10
396.94955658560627
 20
743.53502749554502
 30
0.0
 11
387.94955658560627
 21
734.53502749554502
 31
0.0
  0
LINE
  5
2BC
100
AcDbEntity
  8
Layer00016
  6
Continuous
 62
               7
100
AcDbLine
 10
396.94955658560627
 20
750.60609530741056
 30
0.0
 11
387.94955658560627
 21
741.60609530741056
 31
0.0
  0
LINE
  5
2BD
100
AcDbEntity
  8
Layer00016
  6
Continuous
 62
               7
100
AcDbLine
 10
396.94955658560627
 20
757.67716311927597
 30
0.0
 11
387.94955658560627
 21
748.67716311927597
 31
0.0
  0
LINE
  5
2BE
100
AcDbEntity
  8
Layer00016
  6
Continuous
 62
               7
100
AcDbLine
 10
391.5942175262789
 20
759.39289187181407
 30
0.0
 11
387.94955658560627
 21
755.74823093114151
 31
0.0
  0
LINE
  5
2BF
100
AcDbEntity
  8
Layer00016
  6
DASHDOT
 62
               4
100
AcDbLine
 10
408.58990774477689
 20
728.95148353415038
 30
0.0
 11
380.03048493857119
 21
728.95148353415038
 31
0.0
  0
LINE
  5
2C0
100
AcDbEntity
  8
Layer00016
  6
Continuous
 62
               3
100
AcDbLine
 10
282.94955658560622
 20
916.4359445311361
 30
0.0
 11
396.94955658560622
 21
916.4359445311361
 31
0.0
  0
LINE
  5
2C1
100
AcDbEntity
  8
Layer00016
  6
Continuous
 62
               3
100
AcDbLine
 10
387.94955658560622
 20
1023.4359445311364
 30
0.0
 11
396.94955658560622
 21
1023.4359445311364
 31
0.0
  0
LINE
  5
2C2
100
AcDbEntity
  8
Layer00016
  6
Continuous
 62
               3
100
AcDbLine
 10
387.94957215420015
 20
841.7838983425687
 30
0.0
 11
387.94955658560622
 21
916.4359445311361
 31
0.0
  0
LINE
  5
2C3
100
AcDbEntity
  8
Layer00016
  6
Continuous
 62
               3
100
AcDbLine
 10
568.19074854641406
 20
474.39289187181407
 30
0.0
 11
836.80793769938077
 21
474.39289187181407
 31
0.0
  0
LINE
  5
2C4
100
AcDbEntity
  8
Layer00016
  6
Continuous
 62
               3
100
AcDbLine
 10
621.709604571211
 20
568.39049259157423
 30
0.0
 11
924.51866151384002
 21
574.44667373042694
 31
0.0
  0
LINE
  5
2C5
100
AcDbEntity
  8
Layer00016
  6
Continuous
 62
               3
100
AcDbLine
 10
621.94955658560616
 20
544.39289187181407
 30
0.0
 11
621.94955658560616
 21
474.39289187181407
 31
0.0
  0
LINE
  5
2C6
100
AcDbEntity
  8
Layer00016
  6
Continuous
 62
               4
100
AcDbLine
 10
836.86399170308243
 20
481.28234588792526
 30
0.0
 11
829.9745865179874
 21
474.39289187181407
 31
0.0
  0
LINE
  5
2C7
100
AcDbEntity
  8
Layer00016
  6
Continuous
 62
               4
100
AcDbLine
 10
836.06504150776993
 20
491.79705536058151
 30
0.0
 11
818.66087801900255
 21
474.39289187181407
 31
0.0
  0
LINE
  5
2C8
100
AcDbEntity
  8
Layer00016
  6
Continuous
 62
               4
100
AcDbLine
 10
824.7513330087852
 20
491.79705536058151
 30
0.0
 11
807.34716952001781
 21
474.39289187181407
 31
0.0
  0
LINE
  5
2C9
100
AcDbEntity
  8
Layer00016
  6
Continuous
 62
               4
100
AcDbLine
 10
835.58389171953206
 20
513.94332257031317
 30
0.0
 11
796.03346102103308
 21
474.39289187181407
 31
0.0
  0
LINE
  5
2CA
100
AcDbEntity
  8
Layer00016
  6
Continuous
 62
               4
100
AcDbLine
 10
686.30115704649461
 20
545.67992388103187
 30
0.0
 11
650.09552076466366
 21
509.47428759920086
 31
0.0
  0
LINE
  5
2CB
100
AcDbEntity
  8
Layer00016
  6
Continuous
 62
               4
100
AcDbLine
 10
674.75655653732656
 20
545.44903187084856
 30
0.0
 11
652.55772480566372
 21
523.25020013918572
 31
0.0
  0
LINE
  5
2CC
100
AcDbEntity
  8
Layer00016
  6
Continuous
 62
               4
100
AcDbLine
 10
663.2119560281584
 20
545.21813986066513
 30
0.0
 11
645.57767739530584
 21
527.58386122781258
 31
0.0
  0
LINE
  5
2CD
100
AcDbEntity
  8
Layer00016
  6
Continuous
 62
               4
100
AcDbLine
 10
651.66735551899023
 20
544.98724785048182
 30
0.0
 11
621.94955658560616
 21
515.26944891709763
 31
0.0
  0
LINE
  5
2CE
100
AcDbEntity
  8
Layer00016
  6
Continuous
 62
               4
100
AcDbLine
 10
640.12275500982219
 20
544.7563558402984
 30
0.0
 11
621.94955658560616
 21
526.58315741608249
 31
0.0
  0
LINE
  5
2CF
100
AcDbEntity
  8
Layer00016
  6
Continuous
 62
               4
100
AcDbLine
 10
623.19074854641406
 20
474.39289187181407
 30
0.0
 11
621.94955658560616
 21
475.63408383262191
 31
0.0
  0
LINE
  5
2D0
100
AcDbEntity
  8
Layer00016
  6
Continuous
 62
               4
100
AcDbLine
 10
634.50445704539879
 20
474.39289187181407
 30
0.0
 11
621.94955658560616
 21
486.94779233160676
 31
0.0
  0
LINE
  5
2D1
100
AcDbEntity
  8
Layer00016
  6
Continuous
 62
               4
100
AcDbLine
 10
645.81816554438353
 20
474.39289187181407
 30
0.0
 11
621.94955658560616
 21
498.2615008305915
 31
0.0
  0
LINE
  5
2D2
100
AcDbEntity
  8
Layer00016
  6
Continuous
 62
               4
100
AcDbLine
 10
657.13187404336838
 20
474.39289187181407
 30
0.0
 11
649.72853875664907
 21
481.79622715853344
 31
0.0
  0
LINE
  5
2D3
100
AcDbEntity
  8
Layer00016
  6
Continuous
 62
               4
100
AcDbLine
 10
668.44558254235312
 20
474.39289187181407
 30
0.0
 11
651.32586386089508
 21
491.51261055327211
 31
0.0
  0
LINE
  5
2D4
100
AcDbEntity
  8
Layer00016
  6
Continuous
 62
               4
100
AcDbLine
 10
679.75929104133786
 20
474.39289187181407
 30
0.0
 11
653.32914187966583
 21
500.82304103348616
 31
0.0
  0
LINE
  5
2D5
100
AcDbEntity
  8
Layer00016
  6
Continuous
 62
               4
100
AcDbLine
 10
725.01412503727693
 20
474.39289187181407
 30
0.0
 11
654.36580016567552
 21
545.04121674341548
 31
0.0
  0
LINE
  5
2D6
100
AcDbEntity
  8
Layer00016
  6
Continuous
 62
               4
100
AcDbLine
 10
736.32783353626166
 20
474.39289187181407
 30
0.0
 11
665.45767124311158
 21
545.26305416496416
 31
0.0
  0
LINE
  5
2D7
100
AcDbEntity
  8
Layer00016
  6
Continuous
 62
               4
100
AcDbLine
 10
747.64154203524652
 20
474.39289187181407
 30
0.0
 11
676.54954232054763
 21
545.48489158651296
 31
0.0
  0
LINE
  5
2D8
100
AcDbEntity
  8
Layer00016
  6
Continuous
 62
               4
100
AcDbLine
 10
758.95525053423125
 20
474.39289187181407
 30
0.0
 11
687.64141339798368
 21
545.70672900806164
 31
0.0
  0
LINE
  5
2D9
100
AcDbEntity
  8
Layer00016
  6
Continuous
 62
               4
100
AcDbLine
 10
770.26895903321599
 20
474.39289187181407
 30
0.0
 11
698.73328447541974
 21
545.92856642961033
 31
0.0
  0
LINE
  5
2DA
100
AcDbEntity
  8
Layer00016
  6
Continuous
 62
               4
100
AcDbLine
 10
781.58266753220073
 20
474.39289187181407
 30
0.0
 11
709.82515555285579
 21
546.15040385115913
 31
0.0
  0
LINE
  5
2DB
100
AcDbEntity
  8
Layer00016
  6
Continuous
 62
               4
100
AcDbLine
 10
792.89637603118558
 20
474.39289187181407
 30
0.0
 11
720.91702663029184
 21
546.37224127270781
 31
0.0
  0
LINE
  5
2DC
100
AcDbEntity
  8
Layer00016
  6
Continuous
 62
               4
100
AcDbLine
 10
804.21008453017032
 20
474.39289187181407
 30
0.0
 11
732.00889770772801
 21
546.59407869425661
 31
0.0
  0
LINE
  5
2DD
100
AcDbEntity
  8
Layer00016
  6
Continuous
 62
               4
100
AcDbLine
 10
815.52379302915506
 20
474.39289187181407
 30
0.0
 11
743.10076878516384
 21
546.81591611580529
 31
0.0
  0
LINE
  5
2DE
100
AcDbEntity
  8
Layer00016
  6
Continuous
 62
               4
100
AcDbLine
 10
826.83750152813991
 20
474.39289187181407
 30
0.0
 11
754.19263986259989
 21
547.03775353735398
 31
0.0
  0
LINE
  5
2DF
100
AcDbEntity
  8
Layer00016
  6
Continuous
 62
               4
100
AcDbLine
 10
836.81878542154254
 20
475.72531647739618
 30
0.0
 11
765.28451094003606
 21
547.25959095890278
 31
0.0
  0
LINE
  5
2E0
100
AcDbEntity
  8
Layer00016
  6
Continuous
 62
               4
100
AcDbLine
 10
836.91015033979602
 20
486.94766005812755
 30
0.0
 11
776.37638201747211
 21
547.48142838045146
 31
0.0
  0
LINE
  5
2E1
100
AcDbEntity
  8
Layer00016
  6
Continuous
 62
               4
100
AcDbLine
 10
631.709604571211
 20
568.39049259157423
 30
0.0
 11
652.55690839695819
 21
568.39049259157423
 31
0.0
  0
LINE
  5
2E2
100
AcDbEntity
  8
Layer00016
  6
Continuous
 62
               4
100
AcDbLine
 10
647.55690839695819
 20
556.39289187181419
 30
0.0
 11
647.55690839695819
 21
568.39049259157423
 31
0.0
  0
LINE
  5
2E3
100
AcDbEntity
  8
Layer00016
  6
Continuous
 62
               4
100
AcDbLine
 10
621.86807365676179
 20
560.46703831403386
 30
0.0
 11
628.2742925425606
 21
560.59516269174981
 31
0.0
  0
LINE
  5
2E4
100
AcDbEntity
  8
Layer00016
  6
Continuous
 62
               4
100
AcDbLine
 10
621.80808565316295
 20
563.46643849397344
 30
0.0
 11
627.42223582647898
 21
563.5787214974398
 31
0.0
  0
LINE
  5
2E5
100
AcDbEntity
  8
Layer00016
  6
Continuous
 62
               4
100
AcDbLine
 10
621.74809764956422
 20
566.46583867391303
 30
0.0
 11
627.95575385537427
 21
566.58999179802925
 31
0.0
  0
LINE
  5
2E6
100
AcDbEntity
  8
Layer00016
  6
Continuous
 62
               4
100
AcDbLine
 10
836.47923466656891
 20
526.15237401633476
 30
0.0
 11
784.71975252204834
 21
474.39289187181407
 31
0.0
  0
LINE
  5
2E7
100
AcDbEntity
  8
Layer00016
  6
Continuous
 62
               4
100
AcDbLine
 10
832.6194417258688
 20
533.60628957461938
 30
0.0
 11
773.40604402306349
 21
474.39289187181407
 31
0.0
  0
LINE
  5
2E8
100
AcDbEntity
  8
Layer00016
  6
Continuous
 62
               4
100
AcDbLine
 10
821.07484121670063
 20
533.37539756443607
 30
0.0
 11
762.09233552407875
 21
474.39289187181407
 31
0.0
  0
LINE
  5
2E9
100
AcDbEntity
  8
Layer00016
  6
Continuous
 62
               4
100
AcDbLine
 10
824.83636315651222
 20
548.45062800323228
 30
0.0
 11
750.77862702509401
 21
474.39289187181407
 31
0.0
  0
LINE
  5
2EA
100
AcDbEntity
  8
Layer00016
  6
Continuous
 62
               4
100
AcDbLine
 10
813.29176264734406
 20
548.21973599304886
 30
0.0
 11
739.46491852610927
 21
474.39289187181407
 31
0.0
  0
LINE
  5
2EB
100
AcDbEntity
  8
Layer00016
  6
Continuous
 62
               4
100
AcDbLine
 10
801.7471621381759
 20
547.98884398286555
 30
0.0
 11
728.15121002712453
 21
474.39289187181407
 31
0.0
  0
LINE
  5
2EC
100
AcDbEntity
  8
Layer00016
  6
Continuous
 62
               4
100
AcDbLine
 10
790.20256162900773
 20
547.75795197268212
 30
0.0
 11
716.8375015281398
 21
474.39289187181407
 31
0.0
  0
LINE
  5
2ED
100
AcDbEntity
  8
Layer00016
  6
Continuous
 62
               4
100
AcDbLine
 10
778.65796111983968
 20
547.52705996249881
 30
0.0
 11
705.52379302915494
 21
474.39289187181407
 31
0.0
  0
LINE
  5
2EE
100
AcDbEntity
  8
Layer00016
  6
Continuous
 62
               4
100
AcDbLine
 10
767.11336061067141
 20
547.29616795231539
 30
0.0
 11
694.21008453017021
 21
474.39289187181407
 31
0.0
  0
LINE
  5
2EF
100
AcDbEntity
  8
Layer00016
  6
Continuous
 62
               4
100
AcDbLine
 10
755.56876010150336
 20
547.06527594213208
 30
0.0
 11
682.89637603118547
 21
474.39289187181407
 31
0.0
  0
LINE
  5
2F0
100
AcDbEntity
  8
Layer00016
  6
Continuous
 62
               4
100
AcDbLine
 10
744.0241595923352
 20
546.83438393194865
 30
0.0
 11
671.58266753220073
 21
474.39289187181407
 31
0.0
  0
LINE
  5
2F1
100
AcDbEntity
  8
Layer00016
  6
Continuous
 62
               4
100
AcDbLine
 10
732.47955908316715
 20
546.60349192176534
 30
0.0
 11
660.26895903321588
 21
474.39289187181407
 31
0.0
  0
LINE
  5
2F2
100
AcDbEntity
  8
Layer00016
  6
Continuous
 62
               4
100
AcDbLine
 10
720.93495857399898
 20
546.37259991158191
 30
0.0
 11
648.95525053423114
 21
474.39289187181407
 31
0.0
  0
LINE
  5
2F3
100
AcDbEntity
  8
Layer00016
  6
Continuous
 62
               4
100
AcDbLine
 10
709.39035806483082
 20
546.1417079013986
 30
0.0
 11
637.6415420352464
 21
474.39289187181407
 31
0.0
  0
LINE
  5
2F4
100
AcDbEntity
  8
Layer00016
  6
Continuous
 62
               4
100
AcDbLine
 10
697.84575755566277
 20
545.91081589121518
 30
0.0
 11
661.2327393602385
 21
509.29779769579096
 31
0.0
  0
LINE
  5
2F5
100
AcDbEntity
  8
Layer00016
  6
Continuous
 62
               4
100
AcDbLine
 10
691.07299954032271
 20
474.39289187181407
 30
0.0
 11
649.13599667436097
 21
516.32989473777582
 31
0.0
  0
LINE
  5
2F6
100
AcDbEntity
  8
Layer00016
  6
Continuous
 62
               4
100
AcDbLine
 10
702.38670803930745
 20
474.39289187181407
 30
0.0
 11
632.18205801080342
 21
544.59754190031799
 31
0.0
  0
LINE
  5
2F7
100
AcDbEntity
  8
Layer00016
  6
Continuous
 62
               4
100
AcDbLine
 10
713.70041653829219
 20
474.39289187181407
 30
0.0
 11
643.27392908823947
 21
544.81937932186679
 31
0.0
  0
LINE
  5
2F8
100
AcDbEntity
  8
Layer00016
  6
Continuous
 62
               3
100
AcDbLine
 10
657.6504972790392
 20
1148.4359445311363
 30
0.0
 11
387.94955658560622
 21
1148.4359445311363
 31
0.0
  0
LINE
  5
2F9
100
AcDbEntity
  8
Layer00016
  6
Continuous
 62
               3
100
AcDbLine
 10
282.94955658560622
 20
1157.4359445311363
 30
0.0
 11
657.6504972790392
 21
1157.4359445311363
 31
0.0
  0
LINE
  5
2FA
100
AcDbEntity
  8
Layer00016
  6
DASHDOT
 62
               4
100
AcDbLine
 10
200.00670288798202
 20
1209.9359445311363
 30
0.0
 11
489.48615563975522
 21
1209.9359445311363
 31
0.0
  0
LINE
  5
2FB
100
AcDbEntity
  8
Layer00016
  6
Continuous
 62
               3
100
AcDbLine
 10
924.51866151384002
 20
459.39289187181407
 30
0.0
 11
528.12146568538901
 21
459.39289187181407
 31
0.0
  0
LINE
  5
2FC
100
AcDbEntity
  8
Layer00016
  6
Continuous
 62
               3
100
AcDbLine
 10
528.12146568538901
 20
474.39289187181407
 30
0.0
 11
924.51866151384002
 21
474.39289187181407
 31
0.0
  0
LINE
  5
2FD
100
AcDbEntity
  8
Layer00016
  6
DASHDOT
 62
               4
100
AcDbLine
 10
285.19955658560622
 20
459.39289187181407
 30
0.0
 11
46.590482677971124
 21
459.39289187181407
 31
0.0
  0
LINE
  5
2FE
100
AcDbEntity
  8
Layer00016
  6
Continuous
 62
               7
100
AcDbLine
 10
230.94955658560625
 20
562.18937175077417
 30
0.0
 11
255.94955658560627
 21
562.18937175077417
 31
0.0
  0
LINE
  5
2FF
100
AcDbEntity
  8
Layer00016
  6
Continuous
 62
               7
100
AcDbLine
 10
230.94955658560625
 20
478.75370724055296
 30
0.0
 11
255.94955658560625
 21
478.75370724055296
 31
0.0
  0
LINE
  5
300
100
AcDbEntity
  8
Layer00016
  6
Continuous
 62
               6
100
AcDbLine
 10
524.02871415316486
 20
279.3928918718139
 30
0.0
 11
424.02871415316491
 21
179.39289187181387
 31
0.0
  0
LINE
  5
301
100
AcDbEntity
  8
Layer00016
  6
Continuous
 62
               6
100
AcDbLine
 10
509.88657852943396
 20
279.3928918718139
 30
0.0
 11
409.88657852943396
 21
179.39289187181387
 31
0.0
  0
LINE
  5
302
100
AcDbEntity
  8
Layer00016
  6
Continuous
 62
               6
100
AcDbLine
 10
495.74444290570301
 20
279.3928918718139
 30
0.0
 11
400.44955658560622
 21
184.09800555171708
 31
0.0
  0
LINE
  5
303
100
AcDbEntity
  8
Layer00016
  6
Continuous
 62
               6
100
AcDbLine
 10
481.60230728197206
 20
279.3928918718139
 30
0.0
 11
400.44955658560622
 21
198.24014117544803
 31
0.0
  0
LINE
  5
304
100
AcDbEntity
  8
Layer00016
  6
Continuous
 62
               6
100
AcDbLine
 10
467.46017165824111
 20
279.3928918718139
 30
0.0
 11
400.44955658560622
 21
212.38227679917898
 31
0.0
  0
LINE
  5
305
100
AcDbEntity
  8
Layer00016
  6
Continuous
 62
               6
100
AcDbLine
 10
453.31803603451016
 20
279.3928918718139
 30
0.0
 11
400.44955658560622
 21
226.52441242290999
 31
0.0
  0
LINE
  5
306
100
AcDbEntity
  8
Layer00016
  6
Continuous
 62
               6
100
AcDbLine
 10
439.17590041077921
 20
279.3928918718139
 30
0.0
 11
400.44955658560622
 21
240.66654804664094
 31
0.0
  0
LINE
  5
307
100
AcDbEntity
  8
Layer00016
  6
Continuous
 62
               6
100
AcDbLine
 10
425.03376478704826
 20
279.3928918718139
 30
0.0
 11
400.44955658560622
 21
254.80868367037189
 31
0.0
  0
LINE
  5
308
100
AcDbEntity
  8
Layer00016
  6
Continuous
 62
               3
100
AcDbLine
 10
273.94955658560622
 20
570.89289187181407
 30
0.0
 11
282.94955658560622
 21
570.89289187181407
 31
0.0
  0
LINE
  5
309
100
AcDbEntity
  8
Layer00016
  6
Continuous
 62
               3
100
AcDbLine
 10
273.94955658560622
 20
458.89289187181407
 30
0.0
 11
282.94955658560622
 21
458.89289187181407
 31
0.0
  0
LINE
  5
30A
100
AcDbEntity
  8
Layer00016
  6
DASHDOT
 62
               4
100
AcDbLine
 10
335.44955658560622
 20
841.78389127011837
 30
0.0
 11
335.44955658560622
 21
857.33689903135166
 31
0.0
  0
LINE
  5
30B
100
AcDbEntity
  8
Layer00016
  6
DASHDOT
 62
               4
100
AcDbLine
 10
156.8323854497622
 20
969.93594453113633
 30
0.0
 11
729.57095816767844
 21
969.93594453113633
 31
0.0
  0
LINE
  5
30C
100
AcDbEntity
  8
Layer00016
  6
Continuous
 62
               2
100
AcDbLine
 10
403.94955658560622
 20
841.78389127011837
 30
0.0
 11
403.94955658560622
 21
919.9359445311361
 31
0.0
  0
LINE
  5
30D
100
AcDbEntity
  8
Layer00016
  6
Continuous
 62
               3
100
AcDbLine
 10
396.94955658560622
 20
841.78389127011837
 30
0.0
 11
396.94955658560622
 21
916.4359445311361
 31
0.0
  0
LINE
  5
30E
100
AcDbEntity
  8
Layer00016
  6
Continuous
 62
               2
100
AcDbLine
 10
603.89955658560621
 20
951.52734096453366
 30
0.0
 11
603.89955658560621
 21
1138.4359445311363
 31
0.0
  0
LINE
  5
30F
100
AcDbEntity
  8
Layer00016
  6
Continuous
 62
               3
100
AcDbLine
 10
255.94955658560625
 20
1289.4359445311363
 30
0.0
 11
255.94955658560625
 21
1031.3154485292566
 31
0.0
  0
LINE
  5
310
100
AcDbEntity
  8
Layer00016
  6
Continuous
 62
               3
100
AcDbLine
 10
230.94955658560625
 20
1289.4359445311363
 30
0.0
 11
230.94955658560625
 21
1031.3154485292566
 31
0.0
  0
LINE
  5
311
100
AcDbEntity
  8
Layer00016
  6
Continuous
 62
               6
100
AcDbLine
 10
233.44955658560625
 20
1289.4359445311363
 30
0.0
 11
233.44955658560625
 21
1031.3154485292566
 31
0.0
  0
LINE
  5
312
100
AcDbEntity
  8
Layer00016
  6
Continuous
 62
               6
100
AcDbLine
 10
253.44955658560625
 20
1289.4359445311363
 30
0.0
 11
253.44955658560625
 21
1031.3154485292566
 31
0.0
  0
LINE
  5
313
100
AcDbEntity
  8
Layer00016
  6
Continuous
 62
               7
100
AcDbLine
 10
396.94955658560622
 20
1032.4359445311363
 30
0.0
 11
387.94955658560622
 21
1023.4359445311364
 31
0.0
  0
LINE
  5
314
100
AcDbEntity
  8
Layer00016
  6
Continuous
 62
               7
100
AcDbLine
 10
396.94955658560622
 20
1039.5070123430019
 30
0.0
 11
387.94955658560622
 21
1030.5070123430019
 31
0.0
  0
LINE
  5
315
100
AcDbEntity
  8
Layer00016
  6
DOT
 62
               6
100
AcDbLine
 10
271.94955658560622
 20
1272.4359445311363
 30
0.0
 11
271.94955658560622
 21
1023.4359445311364
 31
0.0
  0
LINE
  5
316
100
AcDbEntity
  8
Layer00016
  6
Continuous
 62
               7
100
AcDbLine
 10
282.94955658560622
 20
1043.9384698480781
 30
0.0
 11
273.94955658560622
 21
1034.9384698480781
 31
0.0
  0
LINE
  5
317
100
AcDbEntity
  8
Layer00016
  6
Continuous
 62
               7
100
AcDbLine
 10
282.94955658560622
 20
1036.8674020362125
 30
0.0
 11
273.94955658560622
 21
1027.8674020362125
 31
0.0
  0
LINE
  5
318
100
AcDbEntity
  8
Layer00016
  6
Continuous
 62
               7
100
AcDbLine
 10
282.72625188224305
 20
916.4359445311361
 30
0.0
 11
273.94955658560622
 21
907.65924923449927
 31
0.0
  0
LINE
  5
319
100
AcDbEntity
  8
Layer00016
  6
Continuous
 62
               7
100
AcDbLine
 10
275.65518407037757
 20
916.4359445311361
 30
0.0
 11
273.94955658560622
 21
914.7303170463648
 31
0.0
  0
LINE
  5
31A
100
AcDbEntity
  8
Layer00016
  6
Continuous
 62
               7
100
AcDbLine
 10
282.94955658560622
 20
909.58818142263385
 30
0.0
 11
273.94955658560622
 21
900.58818142263385
 31
0.0
  0
LINE
  5
31B
100
AcDbEntity
  8
Layer00016
  6
Continuous
 62
               3
100
AcDbLine
 10
387.94955658560622
 20
1023.4359445311364
 30
0.0
 11
387.94955658560622
 21
1262.4359445311363
 31
0.0
  0
LINE
  5
31C
100
AcDbEntity
  8
Layer00016
  6
DOT
 62
               6
100
AcDbLine
 10
271.94955658560622
 20
916.4359445311361
 30
0.0
 11
271.94955658560622
 21
841.78389127011837
 31
0.0
  0
LINE
  5
31D
100
AcDbEntity
  8
Layer00016
  6
Continuous
 62
               3
100
AcDbLine
 10
273.94955658560622
 20
916.4359445311361
 30
0.0
 11
273.94955658560622
 21
841.78389127011837
 31
0.0
  0
LINE
  5
31E
100
AcDbEntity
  8
Layer00016
  6
Continuous
 62
               3
100
AcDbLine
 10
273.94955658560622
 20
1271.4359445311363
 30
0.0
 11
273.94955658560622
 21
1023.4359445311364
 31
0.0
  0
LINE
  5
31F
100
AcDbEntity
  8
Layer00016
  6
Continuous
 62
               3
100
AcDbLine
 10
282.94955658560622
 20
1023.4359445311364
 30
0.0
 11
282.94955658560622
 21
1262.4359445311363
 31
0.0
  0
LINE
  5
320
100
AcDbEntity
  8
Layer00016
  6
Continuous
 62
               3
100
AcDbLine
 10
282.94955658560622
 20
916.4359445311361
 30
0.0
 11
282.94955658560622
 21
841.78389127011837
 31
0.0
  0
LINE
  5
321
100
AcDbEntity
  8
Layer00016
  6
Continuous
 62
               3
100
AcDbLine
 10
230.94955658560625
 20
908.5564405330158
 30
0.0
 11
230.94955658560625
 21
841.78389127011837
 31
0.0
  0
LINE
  5
322
100
AcDbEntity
  8
Layer00016
  6
Continuous
 62
               6
100
AcDbLine
 10
233.44955658560625
 20
908.5564405330158
 30
0.0
 11
233.44955658560625
 21
841.78389127011837
 31
0.0
  0
LINE
  5
323
100
AcDbEntity
  8
Layer00016
  6
Continuous
 62
               6
100
AcDbLine
 10
253.44955658560625
 20
908.5564405330158
 30
0.0
 11
253.44955658560625
 21
841.78389127011837
 31
0.0
  0
LINE
  5
324
100
AcDbEntity
  8
Layer00016
  6
Continuous
 62
               3
100
AcDbLine
 10
255.94955658560625
 20
908.5564405330158
 30
0.0
 11
255.94955658560625
 21
841.78389127011837
 31
0.0
  0
LINE
  5
325
100
AcDbEntity
  8
Layer00016
  6
Continuous
 62
               3
100
AcDbLine
 10
273.94955658560622
 20
1023.4359445311364
 30
0.0
 11
282.94955658560622
 21
1023.4359445311364
 31
0.0
  0
LINE
  5
326
100
AcDbEntity
  8
Layer00016
  6
Continuous
 62
               3
100
AcDbLine
 10
273.94955658560622
 20
916.4359445311361
 30
0.0
 11
282.94955658560622
 21
916.4359445311361
 31
0.0
  0
LINE
  5
327
100
AcDbEntity
  8
Layer00016
  6
Continuous
 62
               3
100
AcDbLine
 10
396.94955658560622
 20
1023.4359445311364
 30
0.0
 11
396.94955658560622
 21
1148.4359445311363
 31
0.0
  0
LINE
  5
328
100
AcDbEntity
  8
Layer00016
  6
Continuous
 62
               2
100
AcDbLine
 10
403.94955658560622
 20
1019.9359445311364
 30
0.0
 11
403.94955658560622
 21
1138.4359445311363
 31
0.0
  0
LINE
  5
329
100
AcDbEntity
  8
Layer00016
  6
Continuous
 62
               4
100
AcDbLine
 10
673.55794307052747
 20
969.93594453113633
 30
0.0
 11
673.55794307052747
 21
1209.9359445311363
 31
0.0
  0
LINE
  5
32A
100
AcDbEntity
  8
Layer00016
  6
Continuous
 62
               4
100
AcDbLine
 10
654.38993401733819
 20
1060.5722794203921
 30
0.0
 11
672.19572015015069
 21
1060.5722794203921
 31
0.0
  0
LINE
  5
32B
100
AcDbEntity
  8
Layer00016
  6
Continuous
 62
               4
100
AcDbLine
 10
672.19572015015069
 20
1060.5722794203921
 30
0.0
 11
672.19572015015069
 21
1120.1828221239723
 31
0.0
  0
LINE
  5
32C
100
AcDbEntity
  8
Layer00016
  6
Continuous
 62
               4
100
AcDbLine
 10
672.19572015015069
 20
1120.1828221239723
 30
0.0
 11
654.38997362830207
 21
1120.1828221239723
 31
0.0
  0
LINE
  5
32D
100
AcDbEntity
  8
Layer00016
  6
Continuous
 62
               4
100
AcDbLine
 10
688.67914653349976
 20
1024.3552192565353
 30
0.0
 11
940.53659440350634
 21
1024.3552192565353
 31
0.0
  0
LINE
  5
32E
100
AcDbEntity
  8
Layer00016
  6
Continuous
 62
               4
100
AcDbLine
 10
688.67914653349976
 20
1020.8496688855192
 30
0.0
 11
940.53659440350634
 21
1020.8496688855192
 31
0.0
  0
LINE
  5
32F
100
AcDbEntity
  8
Layer00016
  6
Continuous
 62
               7
100
AcDbLine
 10
396.94955658560622
 20
1046.5780801548674
 30
0.0
 11
387.94955658560622
 21
1037.5780801548674
 31
0.0
  0
LINE
  5
330
100
AcDbEntity
  8
Layer00016
  6
Continuous
 62
               7
100
AcDbLine
 10
396.94955658560622
 20
1053.6491479667327
 30
0.0
 11
387.94955658560622
 21
1044.6491479667327
 31
0.0
  0
LINE
  5
331
100
AcDbEntity
  8
Layer00016
  6
Continuous
 62
               7
100
AcDbLine
 10
396.94955658560622
 20
1060.7202157785982
 30
0.0
 11
387.94955658560622
 21
1051.7202157785982
 31
0.0
  0
LINE
  5
332
100
AcDbEntity
  8
Layer00016
  6
Continuous
 62
               7
100
AcDbLine
 10
396.94955658560622
 20
1067.7912835904638
 30
0.0
 11
387.94955658560622
 21
1058.7912835904638
 31
0.0
  0
LINE
  5
333
100
AcDbEntity
  8
Layer00016
  6
Continuous
 62
               7
100
AcDbLine
 10
396.94955658560622
 20
1074.8623514023293
 30
0.0
 11
387.94955658560622
 21
1065.8623514023293
 31
0.0
  0
LINE
  5
334
100
AcDbEntity
  8
Layer00016
  6
Continuous
 62
               7
100
AcDbLine
 10
396.94955658560622
 20
1081.9334192141946
 30
0.0
 11
387.94955658560622
 21
1072.9334192141946
 31
0.0
  0
LINE
  5
335
100
AcDbEntity
  8
Layer00016
  6
Continuous
 62
               7
100
AcDbLine
 10
396.94955658560622
 20
1089.0044870260601
 30
0.0
 11
387.94955658560622
 21
1080.0044870260601
 31
0.0
  0
LINE
  5
336
100
AcDbEntity
  8
Layer00016
  6
Continuous
 62
               7
100
AcDbLine
 10
396.94955658560622
 20
1096.0755548379257
 30
0.0
 11
387.94955658560622
 21
1087.0755548379257
 31
0.0
  0
LINE
  5
337
100
AcDbEntity
  8
Layer00016
  6
Continuous
 62
               7
100
AcDbLine
 10
396.94955658560622
 20
1103.1466226497912
 30
0.0
 11
387.94955658560622
 21
1094.1466226497912
 31
0.0
  0
LINE
  5
338
100
AcDbEntity
  8
Layer00016
  6
Continuous
 62
               7
100
AcDbLine
 10
396.94955658560622
 20
1110.2176904616565
 30
0.0
 11
387.94955658560622
 21
1101.2176904616565
 31
0.0
  0
LINE
  5
339
100
AcDbEntity
  8
Layer00016
  6
Continuous
 62
               7
100
AcDbLine
 10
396.94955658560622
 20
1117.288758273522
 30
0.0
 11
387.94955658560622
 21
1108.288758273522
 31
0.0
  0
LINE
  5
33A
100
AcDbEntity
  8
Layer00016
  6
Continuous
 62
               7
100
AcDbLine
 10
396.94955658560622
 20
1124.3598260853876
 30
0.0
 11
387.94955658560622
 21
1115.3598260853876
 31
0.0
  0
LINE
  5
33B
100
AcDbEntity
  8
Layer00016
  6
Continuous
 62
               7
100
AcDbLine
 10
396.94955658560622
 20
1131.4308938972531
 30
0.0
 11
387.94955658560622
 21
1122.4308938972531
 31
0.0
  0
LINE
  5
33C
100
AcDbEntity
  8
Layer00016
  6
Continuous
 62
               7
100
AcDbLine
 10
396.94955658560622
 20
1138.5019617091184
 30
0.0
 11
387.94955658560622
 21
1129.5019617091184
 31
0.0
  0
LINE
  5
33D
100
AcDbEntity
  8
Layer00016
  6
Continuous
 62
               7
100
AcDbLine
 10
396.94955658560622
 20
1145.5730295209839
 30
0.0
 11
387.94955658560622
 21
1136.5730295209839
 31
0.0
  0
LINE
  5
33E
100
AcDbEntity
  8
Layer00016
  6
Continuous
 62
               7
100
AcDbLine
 10
392.74140378389313
 20
1148.4359445311363
 30
0.0
 11
387.94955658560622
 21
1143.6440973328495
 31
0.0
  0
LINE
  5
33F
100
AcDbEntity
  8
Layer00016
  6
Continuous
 62
               7
100
AcDbLine
 10
282.94955658560622
 20
1051.0095376599436
 30
0.0
 11
273.94955658560622
 21
1042.0095376599436
 31
0.0
  0
LINE
  5
340
100
AcDbEntity
  8
Layer00016
  6
Continuous
 62
               7
100
AcDbLine
 10
282.94955658560622
 20
1058.0806054718091
 30
0.0
 11
273.94955658560622
 21
1049.0806054718091
 31
0.0
  0
LINE
  5
341
100
AcDbEntity
  8
Layer00016
  6
Continuous
 62
               7
100
AcDbLine
 10
282.94955658560622
 20
1065.1516732836744
 30
0.0
 11
273.94955658560622
 21
1056.1516732836744
 31
0.0
  0
LINE
  5
342
100
AcDbEntity
  8
Layer00016
  6
Continuous
 62
               7
100
AcDbLine
 10
282.94955658560622
 20
1072.22274109554
 30
0.0
 11
273.94955658560622
 21
1063.22274109554
 31
0.0
  0
LINE
  5
343
100
AcDbEntity
  8
Layer00016
  6
Continuous
 62
               7
100
AcDbLine
 10
282.94955658560622
 20
1079.2938089074055
 30
0.0
 11
273.94955658560622
 21
1070.2938089074055
 31
0.0
  0
LINE
  5
344
100
AcDbEntity
  8
Layer00016
  6
Continuous
 62
               7
100
AcDbLine
 10
282.94955658560622
 20
1086.364876719271
 30
0.0
 11
273.94955658560622
 21
1077.364876719271
 31
0.0
  0
LINE
  5
345
100
AcDbEntity
  8
Layer00016
  6
Continuous
 62
               7
100
AcDbLine
 10
282.94955658560622
 20
1093.4359445311363
 30
0.0
 11
273.94955658560622
 21
1084.4359445311363
 31
0.0
  0
LINE
  5
346
100
AcDbEntity
  8
Layer00016
  6
Continuous
 62
               7
100
AcDbLine
 10
282.94955658560622
 20
1100.5070123430019
 30
0.0
 11
273.94955658560622
 21
1091.5070123430019
 31
0.0
  0
LINE
  5
347
100
AcDbEntity
  8
Layer00016
  6
Continuous
 62
               7
100
AcDbLine
 10
282.94955658560622
 20
1107.5780801548674
 30
0.0
 11
273.94955658560622
 21
1098.5780801548674
 31
0.0
  0
LINE
  5
348
100
AcDbEntity
  8
Layer00016
  6
Continuous
 62
               7
100
AcDbLine
 10
282.94955658560622
 20
1114.6491479667329
 30
0.0
 11
273.94955658560622
 21
1105.6491479667329
 31
0.0
  0
LINE
  5
349
100
AcDbEntity
  8
Layer00016
  6
Continuous
 62
               7
100
AcDbLine
 10
282.94955658560622
 20
1121.7202157785982
 30
0.0
 11
273.94955658560622
 21
1112.7202157785982
 31
0.0
  0
LINE
  5
34A
100
AcDbEntity
  8
Layer00016
  6
Continuous
 62
               7
100
AcDbLine
 10
282.94955658560622
 20
1128.7912835904638
 30
0.0
 11
273.94955658560622
 21
1119.7912835904638
 31
0.0
  0
LINE
  5
34B
100
AcDbEntity
  8
Layer00016
  6
Continuous
 62
               7
100
AcDbLine
 10
282.94955658560622
 20
1135.8623514023293
 30
0.0
 11
273.94955658560622
 21
1126.8623514023293
 31
0.0
  0
LINE
  5
34C
100
AcDbEntity
  8
Layer00016
  6
Continuous
 62
               7
100
AcDbLine
 10
282.94955658560622
 20
1142.9334192141948
 30
0.0
 11
273.94955658560622
 21
1133.9334192141948
 31
0.0
  0
LINE
  5
34D
100
AcDbEntity
  8
Layer00016
  6
Continuous
 62
               7
100
AcDbLine
 10
282.94955658560622
 20
1150.0044870260601
 30
0.0
 11
273.94955658560622
 21
1141.0044870260601
 31
0.0
  0
LINE
  5
34E
100
AcDbEntity
  8
Layer00016
  6
Continuous
 62
               4
100
AcDbLine
 10
411.94955658560627
 20
759.39289187181407
 30
0.0
 11
469.05638772060325
 21
759.39289187181407
 31
0.0
  0
LINE
  5
34F
100
AcDbEntity
  8
Layer00016
  6
Continuous
 62
               4
100
AcDbLine
 10
463.99403562045336
 20
756.39289187181453
 30
0.0
 11
463.99403562045336
 21
774.88310024750047
 31
0.0
  0
LINE
  5
350
100
AcDbEntity
  8
Layer00016
  6
Continuous
 62
               4
100
AcDbLine
 10
463.99403562045336
 20
674.39289187181419
 30
0.0
 11
463.99403562045336
 21
694.39289187181419
 31
0.0
  0
LINE
  5
351
100
AcDbEntity
  8
Layer00016
  6
DOT
 62
               6
100
AcDbLine
 10
272.94955658560622
 20
760.31716811931631
 30
0.0
 11
399.66520217234518
 21
760.31716811931631
 31
0.0
  0
LINE
  5
352
100
AcDbEntity
  8
Layer00016
  6
Continuous
 62
               7
100
AcDbLine
 10
282.94955658560622
 20
740.10104467352721
 30
0.0
 11
273.94955658560622
 21
731.10104467352721
 31
0.0
  0
LINE
  5
353
100
AcDbEntity
  8
Layer00016
  6
Continuous
 62
               7
100
AcDbLine
 10
282.94955658560622
 20
747.17211248539263
 30
0.0
 11
273.94955658560622
 21
738.17211248539263
 31
0.0
  0
LINE
  5
354
100
AcDbEntity
  8
Layer00016
  6
Continuous
 62
               7
100
AcDbLine
 10
282.94955658560622
 20
754.24318029725805
 30
0.0
 11
273.94955658560622
 21
745.24318029725816
 31
0.0
  0
LINE
  5
355
100
AcDbEntity
  8
Layer00016
  6
Continuous
 62
               7
100
AcDbLine
 10
281.02820034829676
 20
759.39289187181407
 30
0.0
 11
273.94955658560622
 21
752.31424810912358
 31
0.0
  0
LINE
  5
356
100
AcDbEntity
  8
Layer00016
  6
Continuous
 62
               4
100
AcDbLine
 10
690.10531771521778
 20
704.64745443399363
 30
0.0
 11
943.46516791502063
 21
704.64745443399363
 31
0.0
  0
LINE
  5
357
100
AcDbEntity
  8
Layer00016
  6
Continuous
 62
               4
100
AcDbLine
 10
687.31195771004423
 20
684.28533018575445
 30
0.0
 11
924.51866151384002
 21
684.28533018575445
 31
0.0
  0
LINE
  5
358
100
AcDbEntity
  8
Layer00016
  6
Continuous
 62
               4
100
AcDbLine
 10
684.51859770487056
 20
663.92320593751538
 30
0.0
 11
924.51866151384002
 21
663.92320593751538
 31
0.0
  0
LINE
  5
359
100
AcDbEntity
  8
Layer00016
  6
Continuous
 62
               4
100
AcDbLine
 10
678.3937724115458
 20
619.27645314143706
 30
0.0
 11
924.51866151384002
 21
619.27645314143706
 31
0.0
  0
LINE
  5
35A
100
AcDbEntity
  8
Layer00016
  6
Continuous
 62
               4
100
AcDbLine
 10
255.94955658560627
 20
562.18937175077417
 30
0.0
 11
255.94955658560627
 21
551.24624437585931
 31
0.0
  0
LINE
  5
35B
100
AcDbEntity
  8
Layer00016
  6
Continuous
 62
               2
100
AcDbLine
 10
248.70951773143824
 20
552.06996016522646
 30
0.0
 11
259.76609133762764
 21
552.26271480316973
 31
0.0
  0
LINE
  5
35C
100
AcDbEntity
  8
Layer00016
  6
Continuous
 62
               2
100
AcDbLine
 10
270.81947814653341
 20
588.30289297784407
 30
0.0
 11
270.81948887855475
 21
563.51049606470417
 31
0.0
  0
LINE
  5
35D
100
AcDbEntity
  8
Layer00016
  6
Continuous
 62
               2
100
AcDbLine
 10
270.7395090533052
 20
446.18187921724291
 30
0.0
 11
270.7395090533052
 21
476.26692306206837
 31
0.0
  0
LINE
  5
35E
100
AcDbEntity
  8
Layer00016
  6
Continuous
 62
               2
100
AcDbLine
 10
244.90510911433219
 20
484.29282878177912
 30
0.0
 11
260.95327777633292
 21
484.57488267792053
 31
0.0
  0
LINE
  5
35F
100
AcDbEntity
  8
Layer00016
  6
Continuous
 62
               4
100
AcDbLine
 10
255.94955658560627
 20
552.59380940951223
 30
0.0
 11
254.66561492874794
 21
551.30986775265387
 31
0.0
  0
LINE
  5
360
100
AcDbEntity
  8
Layer00016
  6
Continuous
 62
               4
100
AcDbLine
 10
255.94955658560627
 20
554.00802297188534
 30
0.0
 11
253.25140136637486
 21
551.30986775265387
 31
0.0
  0
LINE
  5
361
100
AcDbEntity
  8
Layer00016
  6
Continuous
 62
               4
100
AcDbLine
 10
255.94955658560627
 20
555.42223653425845
 30
0.0
 11
251.83718780400179
 21
551.30986775265387
 31
0.0
  0
LINE
  5
362
100
AcDbEntity
  8
Layer00016
  6
Continuous
 62
               4
100
AcDbLine
 10
255.94955658560627
 20
556.83645009663144
 30
0.0
 11
250.42297424162868
 21
551.30986775265387
 31
0.0
  0
LINE
  5
363
100
AcDbEntity
  8
Layer00016
  6
Continuous
 62
               4
100
AcDbLine
 10
255.94955658560627
 20
558.25066365900454
 30
0.0
 11
249.00876067925557
 21
551.30986775265387
 31
0.0
  0
LINE
  5
364
100
AcDbEntity
  8
Layer00016
  6
Continuous
 62
               4
100
AcDbLine
 10
255.94955658560627
 20
559.66487722137765
 30
0.0
 11
247.59454711688247
 21
551.30986775265387
 31
0.0
  0
LINE
  5
365
100
AcDbEntity
  8
Layer00016
  6
Continuous
 62
               4
100
AcDbLine
 10
255.94955658560627
 20
561.07909078375076
 30
0.0
 11
246.18033355450939
 21
551.30986775265387
 31
0.0
  0
LINE
  5
366
100
AcDbEntity
  8
Layer00016
  6
Continuous
 62
               4
100
AcDbLine
 10
255.64562399025664
 20
562.18937175077417
 30
0.0
 11
244.76611999213628
 21
551.30986775265387
 31
0.0
  0
LINE
  5
367
100
AcDbEntity
  8
Layer00016
  6
Continuous
 62
               4
100
AcDbLine
 10
254.23141042788353
 20
562.18937175077417
 30
0.0
 11
243.3519064297632
 21
551.30986775265387
 31
0.0
  0
LINE
  5
368
100
AcDbEntity
  8
Layer00016
  6
Continuous
 62
               4
100
AcDbLine
 10
252.81719686551045
 20
562.18937175077417
 30
0.0
 11
241.9376928673901
 21
551.30986775265387
 31
0.0
  0
LINE
  5
369
100
AcDbEntity
  8
Layer00016
  6
Continuous
 62
               4
100
AcDbLine
 10
251.40298330313735
 20
562.18937175077417
 30
0.0
 11
240.52347930501702
 21
551.30986775265387
 31
0.0
  0
LINE
  5
36A
100
AcDbEntity
  8
Layer00016
  6
Continuous
 62
               4
100
AcDbLine
 10
249.98876974076427
 20
562.18937175077417
 30
0.0
 11
239.10926574264394
 21
551.30986775265387
 31
0.0
  0
LINE
  5
36B
100
AcDbEntity
  8
Layer00016
  6
Continuous
 62
               4
100
AcDbLine
 10
248.57455617839116
 20
562.18937175077417
 30
0.0
 11
237.69505218027084
 21
551.30986775265387
 31
0.0
  0
LINE
  5
36C
100
AcDbEntity
  8
Layer00016
  6
Continuous
 62
               4
100
AcDbLine
 10
247.16034261601806
 20
562.18937175077417
 30
0.0
 11
236.28083861789776
 21
551.30986775265387
 31
0.0
  0
LINE
  5
36D
100
AcDbEntity
  8
Layer00016
  6
Continuous
 62
               4
100
AcDbLine
 10
245.74612905364498
 20
562.18937175077417
 30
0.0
 11
234.86662505552465
 21
551.30986775265387
 31
0.0
  0
LINE
  5
36E
100
AcDbEntity
  8
Layer00016
  6
Continuous
 62
               4
100
AcDbLine
 10
244.33191549127187
 20
562.18937175077417
 30
0.0
 11
233.45241149315154
 21
551.30986775265387
 31
0.0
  0
LINE
  5
36F
100
AcDbEntity
  8
Layer00016
  6
Continuous
 62
               4
100
AcDbLine
 10
242.91770192889879
 20
562.18937175077417
 30
0.0
 11
232.03819793077847
 21
551.30986775265387
 31
0.0
  0
LINE
  5
370
100
AcDbEntity
  8
Layer00016
  6
Continuous
 62
               4
100
AcDbLine
 10
241.50348836652569
 20
562.18937175077417
 30
0.0
 11
231.21181780201175
 21
551.89770118626029
 31
0.0
  0
LINE
  5
371
100
AcDbEntity
  8
Layer00016
  6
Continuous
 62
               4
100
AcDbLine
 10
240.08927480415261
 20
562.18937175077417
 30
0.0
 11
231.50820336316212
 21
553.60830030978377
 31
0.0
  0
LINE
  5
372
100
AcDbEntity
  8
Layer00016
  6
Continuous
 62
               4
100
AcDbLine
 10
238.67506124177953
 20
562.18937175077417
 30
0.0
 11
231.65928220422646
 21
555.17359271322118
 31
0.0
  0
LINE
  5
373
100
AcDbEntity
  8
Layer00016
  6
Continuous
 62
               4
100
AcDbLine
 10
237.26084767940642
 20
562.18937175077417
 30
0.0
 11
231.69897608926559
 21
556.62750016063342
 31
0.0
  0
LINE
  5
374
100
AcDbEntity
  8
Layer00016
  6
Continuous
 62
               4
100
AcDbLine
 10
235.84663411703335
 20
562.18937175077417
 30
0.0
 11
231.64862955577652
 21
557.9913671895174
 31
0.0
  0
LINE
  5
375
100
AcDbEntity
  8
Layer00016
  6
Continuous
 62
               4
100
AcDbLine
 10
234.43242055466024
 20
562.18937175077417
 30
0.0
 11
231.52269396811431
 21
559.27964516422833
 31
0.0
  0
LINE
  5
376
100
AcDbEntity
  8
Layer00016
  6
Continuous
 62
               4
100
AcDbLine
 10
233.01820699228716
 20
562.18937175077417
 30
0.0
 11
231.33147032711352
 21
560.50263508560056
 31
0.0
  0
LINE
  5
377
100
AcDbEntity
  8
Layer00016
  6
Continuous
 62
               4
100
AcDbLine
 10
255.46779821675099
 20
480.92407785143826
 30
0.0
 11
253.29742760586564
 21
478.75370724055296
 31
0.0
  0
LINE
  5
378
100
AcDbEntity
  8
Layer00016
  6
Continuous
 62
               4
100
AcDbLine
 10
255.48511539660331
 20
482.3556085936637
 30
0.0
 11
251.88321404349256
 21
478.75370724055296
 31
0.0
  0
LINE
  5
379
100
AcDbEntity
  8
Layer00016
  6
Continuous
 62
               4
100
AcDbLine
 10
255.89243066492679
 20
484.17713742436024
 30
0.0
 11
250.46900048111945
 21
478.75370724055296
 31
0.0
  0
LINE
  5
37A
100
AcDbEntity
  8
Layer00016
  6
Continuous
 62
               4
100
AcDbLine
 10
256.10074128669737
 20
485.79966160850398
 30
0.0
 11
249.05478691874637
 21
478.75370724055296
 31
0.0
  0
LINE
  5
37B
100
AcDbEntity
  8
Layer00016
  6
Continuous
 62
               4
100
AcDbLine
 10
254.66140399850531
 20
485.77453788268497
 30
0.0
 11
247.64057335637327
 21
478.75370724055296
 31
0.0
  0
LINE
  5
37C
100
AcDbEntity
  8
Layer00016
  6
Continuous
 62
               4
100
AcDbLine
 10
253.22206671031321
 20
485.74941415686595
 30
0.0
 11
246.22635979400019
 21
478.75370724055296
 31
0.0
  0
LINE
  5
37D
100
AcDbEntity
  8
Layer00016
  6
Continuous
 62
               4
100
AcDbLine
 10
251.78272942212112
 20
485.724290431047
 30
0.0
 11
244.81214623162708
 21
478.75370724055296
 31
0.0
  0
LINE
  5
37E
100
AcDbEntity
  8
Layer00016
  6
Continuous
 62
               4
100
AcDbLine
 10
250.34339213392903
 20
485.69916670522798
 30
0.0
 11
243.397932669254
 21
478.75370724055296
 31
0.0
  0
LINE
  5
37F
100
AcDbEntity
  8
Layer00016
  6
Continuous
 62
               4
100
AcDbLine
 10
248.90405484573694
 20
485.67404297940897
 30
0.0
 11
241.9837191068809
 21
478.75370724055296
 31
0.0
  0
LINE
  5
380
100
AcDbEntity
  8
Layer00016
  6
Continuous
 62
               4
100
AcDbLine
 10
247.46471755754487
 20
485.64891925359001
 30
0.0
 11
240.56950554450782
 21
478.75370724055296
 31
0.0
  0
LINE
  5
381
100
AcDbEntity
  8
Layer00016
  6
Continuous
 62
               4
100
AcDbLine
 10
246.02538026935278
 20
485.62379552777099
 30
0.0
 11
239.15529198213471
 21
478.75370724055296
 31
0.0
  0
LINE
  5
382
100
AcDbEntity
  8
Layer00016
  6
Continuous
 62
               4
100
AcDbLine
 10
244.58604298116069
 20
485.59867180195198
 30
0.0
 11
237.74107841976164
 21
478.75370724055296
 31
0.0
  0
LINE
  5
383
100
AcDbEntity
  8
Layer00016
  6
Continuous
 62
               4
100
AcDbLine
 10
243.1467056929686
 20
485.57354807613302
 30
0.0
 11
236.32686485738853
 21
478.75370724055296
 31
0.0
  0
LINE
  5
384
100
AcDbEntity
  8
Layer00016
  6
Continuous
 62
               4
100
AcDbLine
 10
241.7073684047765
 20
485.54842435031401
 30
0.0
 11
234.91265129501545
 21
478.75370724055296
 31
0.0
  0
LINE
  5
385
100
AcDbEntity
  8
Layer00016
  6
Continuous
 62
               4
100
AcDbLine
 10
240.26803111658441
 20
485.52330062449499
 30
0.0
 11
233.49843773264234
 21
478.75370724055296
 31
0.0
  0
LINE
  5
386
100
AcDbEntity
  8
Layer00016
  6
Continuous
 62
               4
100
AcDbLine
 10
238.82869382839232
 20
485.49817689867598
 30
0.0
 11
232.08422417026927
 21
478.75370724055296
 31
0.0
  0
LINE
  5
387
100
AcDbEntity
  8
Layer00016
  6
Continuous
 62
               4
100
AcDbLine
 10
237.38935654020023
 20
485.47305317285702
 30
0.0
 11
230.96852447069861
 21
479.05222110335541
 31
0.0
  0
LINE
  5
388
100
AcDbEntity
  8
Layer00016
  6
Continuous
 62
               4
100
AcDbLine
 10
235.95001925200813
 20
485.44792944703801
 30
0.0
 11
231.02502272989878
 21
480.52293292492868
 31
0.0
  0
LINE
  5
389
100
AcDbEntity
  8
Layer00016
  6
Continuous
 62
               4
100
AcDbLine
 10
234.51068196381604
 20
485.42280572121899
 30
0.0
 11
231.02164520966048
 21
481.93376896706343
 31
0.0
  0
LINE
  5
38A
100
AcDbEntity
  8
Layer00016
  6
Continuous
 62
               4
100
AcDbLine
 10
233.07134467562398
 20
485.39768199540003
 30
0.0
 11
230.96514947763589
 21
483.29148679741195
 31
0.0
  0
LINE
  5
38B
100
AcDbEntity
  8
Layer00016
  6
Continuous
 62
               4
100
AcDbLine
 10
231.63200738743188
 20
485.37255826958102
 30
0.0
 11
230.86090470612604
 21
484.60145558827514
 31
0.0
  0
LINE
  5
38C
100
AcDbEntity
  8
Layer00016
  6
Continuous
 62
               4
100
AcDbLine
 10
212.59482101732311
 20
759.39289187181407
 30
0.0
 11
99.851695229256649
 21
759.39289187181407
 31
0.0
  0
LINE
  5
38D
100
AcDbEntity
  8
Layer00016
  6
Continuous
 62
               4
100
AcDbLine
 10
108.90600906734434
 20
459.39289187181407
 30
0.0
 11
108.90600906734434
 21
759.39289187181441
 31
0.0
  0
LINE
  5
38E
100
AcDbEntity
  8
Layer00016
  6
Continuous
 62
               4
100
AcDbLine
 10
197.16480380292228
 20
380.07972121776197
 30
0.0
 11
109.77464418158087
 21
380.07972121776197
 31
0.0
  0
LINE
  5
38F
100
AcDbEntity
  8
Layer00016
  6
Continuous
 62
               4
100
AcDbLine
 10
215.89844802438975
 20
347.94700662880354
 30
0.0
 11
134.33445684287247
 21
347.94700662880354
 31
0.0
  0
LINE
  5
390
100
AcDbEntity
  8
Layer00016
  6
Continuous
 62
               4
100
AcDbLine
 10
508.38089248961535
 20
776.53391141766554
 30
0.0
 11
699.02034679665383
 21
776.53391141766554
 31
0.0
  0
LINE
  5
391
100
AcDbEntity
  8
Layer00016
  6
Continuous
 62
               4
100
AcDbLine
 10
603.94955658560616
 20
467.87405544118354
 30
0.0
 11
603.94955658560616
 21
419.47504913916316
 31
0.0
  0
LINE
  5
392
100
AcDbEntity
  8
Layer00016
  6
Continuous
 62
               4
100
AcDbLine
 10
588.94955658560616
 20
555.73285769212669
 30
0.0
 11
588.67961056941147
 21
569.23019268154633
 31
0.0
  0
LINE
  5
393
100
AcDbEntity
  8
Layer00016
  6
Continuous
 62
               4
100
AcDbLine
 10
621.94955658560616
 20
556.39289187181419
 30
0.0
 11
588.94955658560616
 21
555.73289187181524
 31
0.0
  0
LINE
  5
394
100
AcDbEntity
  8
Layer00016
  6
Continuous
 62
               4
100
AcDbLine
 10
603.94955658560616
 20
569.5355916018691
 30
0.0
 11
588.67961056941147
 21
569.23019268154633
 31
0.0
  0
LINE
  5
395
100
AcDbEntity
  8
Layer00016
  6
Continuous
 62
               4
100
AcDbLine
 10
588.94955658560616
 20
555.73289187181524
 30
0.0
 11
587.98735717360739
 21
551.35774606494374
 31
0.0
  0
LINE
  5
396
100
AcDbEntity
  8
Layer00016
  6
Continuous
 62
               2
100
AcDbLine
 10
568.61362336561274
 20
544.46501536818823
 30
0.0
 11
568.61362336561274
 21
575.69205356442967
 31
0.0
  0
LINE
  5
397
100
AcDbEntity
  8
Layer00016
  6
Continuous
 62
               4
100
AcDbLine
 10
570.84499541305081
 20
543.32957286748217
 30
0.0
 11
571.34499541305081
 21
543.32957286748217
 31
0.0
  0
LINE
  5
398
100
AcDbEntity
  8
Layer00016
  6
Continuous
 62
               4
100
AcDbLine
 10
571.34499541305081
 20
553.32957286748217
 30
0.0
 11
571.34499541305081
 21
543.32957286748217
 31
0.0
  0
LINE
  5
399
100
AcDbEntity
  8
Layer00016
  6
Continuous
 62
               4
100
AcDbLine
 10
403.44955658560622
 20
418.78621816546547
 30
0.0
 11
403.44955658560622
 21
450.8958742326343
 31
0.0
  0
LINE
  5
39A
100
AcDbEntity
  8
Layer00016
  6
DASHED
 62
               4
100
AcDbLine
 10
405.94955658560622
 20
487.30986775265387
 30
0.0
 11
405.94955658560622
 21
555.32957286748206
 31
0.0
  0
LINE
  5
39B
100
AcDbEntity
  8
Layer00016
  6
DASHED
 62
               4
100
AcDbLine
 10
564.61362336561274
 20
489.30986775265387
 30
0.0
 11
564.61362336561274
 21
555.32957286748206
 31
0.0
  0
LINE
  5
39C
100
AcDbEntity
  8
Layer00016
  6
DASHED
 62
               4
100
AcDbLine
 10
564.61362336561274
 20
555.32957286748206
 30
0.0
 11
405.94955658560622
 21
555.32957286748206
 31
0.0
  0
LINE
  5
39D
100
AcDbEntity
  8
Layer00016
  6
Continuous
 62
               4
100
AcDbLine
 10
630.10233972432582
 20
489.48110655886302
 30
0.0
 11
621.94955658560616
 21
481.32832342014342
 31
0.0
  0
LINE
  5
39E
100
AcDbEntity
  8
Layer00016
  6
Continuous
 62
               4
100
AcDbLine
 10
627.50261668642577
 20
504.0221492287568
 30
0.0
 11
621.94955658560616
 21
509.5752093295763
 31
0.0
  0
LINE
  5
39F
100
AcDbEntity
  8
Layer00016
  6
Continuous
 62
               4
100
AcDbLine
 10
637.07854094602317
 20
485.14359928157563
 30
0.0
 11
626.32783353626166
 21
474.39289187181407
 31
0.0
  0
LINE
  5
3A0
100
AcDbEntity
  8
Layer00016
  6
Continuous
 62
               4
100
AcDbLine
 10
628.57480947179261
 20
514.26366494237459
 30
0.0
 11
621.94955658560616
 21
520.88891782856103
 31
0.0
  0
LINE
  5
3A1
100
AcDbEntity
  8
Layer00016
  6
Continuous
 62
               4
100
AcDbLine
 10
627.99757347692389
 20
498.69004881044589
 30
0.0
 11
621.94955658560616
 21
492.64203191912821
 31
0.0
  0
LINE
  5
3A2
100
AcDbEntity
  8
Layer00016
  6
Continuous
 62
               4
100
AcDbLine
 10
634.23166372128492
 20
519.92051919186702
 30
0.0
 11
621.94955658560616
 21
532.20262632754577
 31
0.0
  0
LINE
  5
3A3
100
AcDbEntity
  8
Layer00016
  6
Continuous
 62
               4
100
AcDbLine
 10
649.5728674807018
 20
561.02113419051261
 30
0.0
 11
924.51866151384002
 21
566.52005007117452
 31
0.0
  0
LINE
  5
3A4
100
AcDbEntity
  8
Layer00016
  6
Continuous
 62
               4
100
AcDbLine
 10
651.20611727568894
 20
564.05439912642396
 30
0.0
 11
924.51866151384002
 21
569.52065001118672
 31
0.0
  0
LINE
  5
3A5
100
AcDbEntity
  8
Layer00016
  6
Continuous
 62
               4
100
AcDbLine
 10
652.39423754630559
 20
567.07876147184788
 30
0.0
 11
924.51866151384002
 21
572.52124995119891
 31
0.0
  0
LINE
  5
3A6
100
AcDbEntity
  8
Layer00016
  6
Continuous
 62
               4
100
AcDbLine
 10
450.03121583406181
 20
555.32957286748206
 30
0.0
 11
460.22262583227752
 21
585.10926064687499
 31
0.0
  0
LINE
  5
3A7
100
AcDbEntity
  8
Layer00016
  6
Continuous
 62
               4
100
AcDbLine
 10
450.03121583406181
 20
555.32957286748206
 30
0.0
 11
452.34988670078957
 21
570.149281549227
 31
0.0
  0
LINE
  5
3A8
100
AcDbEntity
  8
Layer00016
  6
Continuous
 62
               4
100
AcDbLine
 10
450.03121583406181
 20
555.32957286748206
 30
0.0
 11
457.27869262493226
 21
568.4625116157514
 31
0.0
  0
LINE
  5
3A9
100
AcDbEntity
  8
Layer00016
  6
Continuous
 62
               4
100
AcDbLine
 10
460.22262583227752
 20
585.10926064687499
 30
0.0
 11
517.44283801911172
 21
585.1092606468751
 31
0.0
  0
LINE
  5
3AA
100
AcDbEntity
  8
Layer00016
  6
Continuous
 62
               3
100
AcDbLine
 10
403.94955658560622
 20
1138.4359445311363
 30
0.0
 11
703.89955658560621
 21
1138.4359445311363
 31
0.0
  0
LINE
  5
3AB
100
AcDbEntity
  8
Layer00016
  6
Continuous
 62
               3
100
AcDbLine
 10
703.89955658560621
 20
951.52734096453366
 30
0.0
 11
703.89955658560621
 21
996.34940216615757
 31
0.0
  0
LINE
  5
3AC
100
AcDbEntity
  8
Layer00016
  6
Continuous
 62
               3
100
AcDbLine
 10
703.89955658560621
 20
1104.596058229529
 30
0.0
 11
703.89955658560621
 21
1138.4359445311363
 31
0.0
  0
LINE
  5
3AD
100
AcDbEntity
  8
Layer00016
  6
Continuous
 62
               4
100
AcDbLine
 10
403.37602556458933
 20
919.9359445311361
 30
0.0
 11
403.37602556458933
 21
890.75153435691243
 31
0.0
  0
LINE
  5
3AE
100
AcDbEntity
  8
Layer00016
  6
Continuous
 62
               3
100
AcDbLine
 10
621.709604571211
 20
556.39049259157423
 30
0.0
 11
924.51866151384002
 21
562.44667373042682
 31
0.0
  0
LINE
  5
3AF
100
AcDbEntity
  8
Layer00016
  6
Continuous
 62
               3
100
AcDbLine
 10
621.94955658560616
 20
544.39289187181407
 30
0.0
 11
621.94955658560616
 21
556.39289187181419
 31
0.0
  0
LINE
  5
3B0
100
AcDbEntity
  8
Layer00016
  6
Continuous
 62
               4
100
AcDbLine
 10
399.94955658560622
 20
551.30986775265387
 30
0.0
 11
183.94955658560625
 21
551.30986775265387
 31
0.0
  0
LINE
  5
3B1
100
AcDbEntity
  8
Layer00016
  6
Continuous
 62
               4
100
AcDbLine
 10
183.94955658560625
 20
486.30986775265387
 30
0.0
 11
183.94955658560625
 21
551.30986775265387
 31
0.0
  0
LINE
  5
3B2
100
AcDbEntity
  8
Layer00016
  6
Continuous
 62
               4
100
AcDbLine
 10
183.94955658560625
 20
486.30986775265387
 30
0.0
 11
179.84761217501298
 21
476.54417755106323
 31
0.0
  0
LINE
  5
3B3
100
AcDbEntity
  8
Layer00016
  6
Continuous
 62
               4
100
AcDbLine
 10
622.04803766755822
 20
551.4688377742134
 30
0.0
 11
628.04341461592082
 21
551.58874531318065
 31
0.0
  0
LINE
  5
3B4
100
AcDbEntity
  8
Layer00016
  6
Continuous
 62
               4
100
AcDbLine
 10
622.10802567115707
 20
548.46943759427381
 30
0.0
 11
628.10340261951967
 21
548.58934513324107
 31
0.0
  0
LINE
  5
3B5
100
AcDbEntity
  8
Layer00016
  6
Continuous
 62
               4
100
AcDbLine
 10
621.98804966395937
 20
554.46823795415298
 30
0.0
 11
627.98342661232209
 21
554.58814549312024
 31
0.0
  0
LINE
  5
3B6
100
AcDbEntity
  8
Layer00016
  6
Continuous
 62
               4
100
AcDbLine
 10
681.73837995246822
 20
643.65688179500296
 30
0.0
 11
924.51866151384002
 21
643.65688179500296
 31
0.0
  0
LINE
  5
3B7
100
AcDbEntity
  8
Layer00016
  6
Continuous
 62
               7
100
AcDbLine
 10
175.23082281158648
 20
1019.9359445311364
 30
0.0
 11
402.84512218705112
 21
1019.9359445311363
 31
0.0
  0
LINE
  5
3B8
100
AcDbEntity
  8
Layer00016
  6
Continuous
 62
               7
100
AcDbLine
 10
175.23082281158648
 20
919.9359445311361
 30
0.0
 11
403.37602556458933
 21
919.9359445311361
 31
0.0
  0
LINE
  5
3B9
100
AcDbEntity
  8
Layer00016
  6
Continuous
 62
               7
100
AcDbLine
 10
183.37602556458936
 20
1019.9359445311364
 30
0.0
 11
183.37602556458936
 21
919.9359445311361
 31
0.0
  0
LINE
  5
3BA
100
AcDbEntity
  8
Layer00016
  6
Continuous
 62
               7
100
AcDbLine
 10
231.02636519098581
 20
1031.3154485292566
 30
0.0
 11
256.02636519098581
 21
1031.3154485292566
 31
0.0
  0
LINE
  5
3BB
100
AcDbEntity
  8
Layer00016
  6
Continuous
 62
               4
100
AcDbLine
 10
256.02636519098581
 20
1031.3154485292566
 30
0.0
 11
256.02636519098581
 21
1020.3723211543419
 31
0.0
  0
LINE
  5
3BC
100
AcDbEntity
  8
Layer00016
  6
Continuous
 62
               2
100
AcDbLine
 10
248.78632633681781
 20
1021.196036943709
 30
0.0
 11
259.84289994300724
 21
1021.3887915816523
 31
0.0
  0
LINE
  5
3BD
100
AcDbEntity
  8
Layer00016
  6
Continuous
 62
               2
100
AcDbLine
 10
270.89628675191301
 20
1057.4289697563265
 30
0.0
 11
270.89629748393435
 21
1032.6365728431867
 31
0.0
  0
LINE
  5
3BE
100
AcDbEntity
  8
Layer00016
  6
Continuous
 62
               4
100
AcDbLine
 10
256.02636519098581
 20
1021.7198861879947
 30
0.0
 11
254.65486045308353
 21
1020.3483814500925
 31
0.0
  0
LINE
  5
3BF
100
AcDbEntity
  8
Layer00016
  6
Continuous
 62
               4
100
AcDbLine
 10
256.02636519098581
 20
1023.1340997503678
 30
0.0
 11
253.21552316489144
 21
1020.3232577242734
 31
0.0
  0
LINE
  5
3C0
100
AcDbEntity
  8
Layer00016
  6
Continuous
 62
               4
100
AcDbLine
 10
256.02636519098581
 20
1024.5483133127409
 30
0.0
 11
251.77618587669937
 21
1020.2981339984544
 31
0.0
  0
LINE
  5
3C1
100
AcDbEntity
  8
Layer00016
  6
Continuous
 62
               4
100
AcDbLine
 10
256.02636519098581
 20
1025.962526875114
 30
0.0
 11
250.33684858850728
 21
1020.2730102726354
 31
0.0
  0
LINE
  5
3C2
100
AcDbEntity
  8
Layer00016
  6
Continuous
 62
               4
100
AcDbLine
 10
256.02636519098581
 20
1027.3767404374871
 30
0.0
 11
248.89751130031519
 21
1020.2478865468164
 31
0.0
  0
LINE
  5
3C3
100
AcDbEntity
  8
Layer00016
  6
Continuous
 62
               4
100
AcDbLine
 10
256.02636519098581
 20
1028.7909539998602
 30
0.0
 11
247.45817401212307
 21
1020.2227628209974
 31
0.0
  0
LINE
  5
3C4
100
AcDbEntity
  8
Layer00016
  6
Continuous
 62
               4
100
AcDbLine
 10
256.02636519098581
 20
1030.2051675622333
 30
0.0
 11
246.01883672393097
 21
1020.1976390951784
 31
0.0
  0
LINE
  5
3C5
100
AcDbEntity
  8
Layer00016
  6
Continuous
 62
               4
100
AcDbLine
 10
255.72243259563621
 20
1031.3154485292566
 30
0.0
 11
244.57949943573891
 21
1020.1725153693594
 31
0.0
  0
LINE
  5
3C6
100
AcDbEntity
  8
Layer00016
  6
Continuous
 62
               4
100
AcDbLine
 10
254.30821903326313
 20
1031.3154485292566
 30
0.0
 11
243.14016214754682
 21
1020.1473916435405
 31
0.0
  0
LINE
  5
3C7
100
AcDbEntity
  8
Layer00016
  6
Continuous
 62
               4
100
AcDbLine
 10
252.89400547089002
 20
1031.3154485292566
 30
0.0
 11
241.70082485935473
 21
1020.1222679177214
 31
0.0
  0
LINE
  5
3C8
100
AcDbEntity
  8
Layer00016
  6
Continuous
 62
               4
100
AcDbLine
 10
251.47979190851694
 20
1031.3154485292566
 30
0.0
 11
240.26148757116263
 21
1020.0971441919024
 31
0.0
  0
LINE
  5
3C9
100
AcDbEntity
  8
Layer00016
  6
Continuous
 62
               4
100
AcDbLine
 10
250.06557834614384
 20
1031.3154485292566
 30
0.0
 11
238.82215028297054
 21
1020.0720204660835
 31
0.0
  0
LINE
  5
3CA
100
AcDbEntity
  8
Layer00016
  6
Continuous
 62
               4
100
AcDbLine
 10
248.65136478377073
 20
1031.3154485292566
 30
0.0
 11
237.38281299477845
 21
1020.0468967402644
 31
0.0
  0
LINE
  5
3CB
100
AcDbEntity
  8
Layer00016
  6
Continuous
 62
               4
100
AcDbLine
 10
247.23715122139765
 20
1031.3154485292566
 30
0.0
 11
235.94347570658636
 21
1020.0217730144454
 31
0.0
  0
LINE
  5
3CC
100
AcDbEntity
  8
Layer00016
  6
Continuous
 62
               4
100
AcDbLine
 10
245.82293765902455
 20
1031.3154485292566
 30
0.0
 11
234.50413841839426
 21
1019.9966492886265
 31
0.0
  0
LINE
  5
3CD
100
AcDbEntity
  8
Layer00016
  6
Continuous
 62
               4
100
AcDbLine
 10
244.40872409665147
 20
1031.3154485292566
 30
0.0
 11
233.06480113020217
 21
1019.9715255628074
 31
0.0
  0
LINE
  5
3CE
100
AcDbEntity
  8
Layer00016
  6
Continuous
 62
               4
100
AcDbLine
 10
242.99451053427836
 20
1031.3154485292566
 30
0.0
 11
231.62546384201008
 21
1019.9464018369885
 31
0.0
  0
LINE
  5
3CF
100
AcDbEntity
  8
Layer00016
  6
Continuous
 62
               4
100
AcDbLine
 10
241.58029697190528
 20
1031.3154485292566
 30
0.0
 11
231.28862640739135
 21
1021.0237779647427
 31
0.0
  0
LINE
  5
3D0
100
AcDbEntity
  8
Layer00016
  6
Continuous
 62
               4
100
AcDbLine
 10
240.16608340953218
 20
1031.3154485292566
 30
0.0
 11
231.58501196854169
 21
1022.7343770882662
 31
0.0
  0
LINE
  5
3D1
100
AcDbEntity
  8
Layer00016
  6
Continuous
 62
               4
100
AcDbLine
 10
238.7518698471591
 20
1031.3154485292566
 30
0.0
 11
231.73609080960605
 21
1024.2996694917035
 31
0.0
  0
LINE
  5
3D2
100
AcDbEntity
  8
Layer00016
  6
Continuous
 62
               4
100
AcDbLine
 10
237.33765628478599
 20
1031.3154485292566
 30
0.0
 11
231.77578469464515
 21
1025.7535769391159
 31
0.0
  0
LINE
  5
3D3
100
AcDbEntity
  8
Layer00016
  6
Continuous
 62
               4
100
AcDbLine
 10
235.92344272241291
 20
1031.3154485292566
 30
0.0
 11
231.72543816115609
 21
1027.1174439679999
 31
0.0
  0
LINE
  5
3D4
100
AcDbEntity
  8
Layer00016
  6
Continuous
 62
               4
100
AcDbLine
 10
234.50922916003981
 20
1031.3154485292566
 30
0.0
 11
231.59950257349391
 21
1028.4057219427107
 31
0.0
  0
LINE
  5
3D5
100
AcDbEntity
  8
Layer00016
  6
Continuous
 62
               4
100
AcDbLine
 10
233.09501559766673
 20
1031.3154485292566
 30
0.0
 11
231.40827893249309
 21
1029.628711864083
 31
0.0
  0
LINE
  5
3D6
100
AcDbEntity
  8
Layer00016
  6
Continuous
 62
               7
100
AcDbLine
 10
231.02636519098581
 20
908.5564405330158
 30
0.0
 11
256.02636519098581
 21
908.5564405330158
 31
0.0
  0
LINE
  5
3D7
100
AcDbEntity
  8
Layer00016
  6
Continuous
 62
               4
100
AcDbLine
 10
256.02636519098581
 20
908.5564405330158
 30
0.0
 11
256.02636519098581
 21
919.49956790793067
 31
0.0
  0
LINE
  5
3D8
100
AcDbEntity
  8
Layer00016
  6
Continuous
 62
               2
100
AcDbLine
 10
248.78632633681781
 20
918.67585211856351
 30
0.0
 11
259.84289994300724
 21
918.48309748062024
 31
0.0
  0
LINE
  5
3D9
100
AcDbEntity
  8
Layer00016
  6
Continuous
 62
               2
100
AcDbLine
 10
270.89628675191301
 20
882.44291930594591
 30
0.0
 11
270.89629748393435
 21
907.2353162190858
 31
0.0
  0
LINE
  5
3DA
100
AcDbEntity
  8
Layer00016
  6
Continuous
 62
               4
100
AcDbLine
 10
256.02636519098581
 20
918.15200287427774
 30
0.0
 11
254.65486045308353
 21
919.52350761218008
 31
0.0
  0
LINE
  5
3DB
100
AcDbEntity
  8
Layer00016
  6
Continuous
 62
               4
100
AcDbLine
 10
256.02636519098581
 20
916.73778931190475
 30
0.0
 11
253.21552316489144
 21
919.54863133799915
 31
0.0
  0
LINE
  5
3DC
100
AcDbEntity
  8
Layer00016
  6
Continuous
 62
               4
100
AcDbLine
 10
256.02636519098581
 20
915.32357574953164
 30
0.0
 11
251.77618587669937
 21
919.57375506381811
 31
0.0
  0
LINE
  5
3DD
100
AcDbEntity
  8
Layer00016
  6
Continuous
 62
               4
100
AcDbLine
 10
256.02636519098581
 20
913.90936218715854
 30
0.0
 11
250.33684858850728
 21
919.59887878963707
 31
0.0
  0
LINE
  5
3DE
100
AcDbEntity
  8
Layer00016
  6
Continuous
 62
               4
100
AcDbLine
 10
256.02636519098581
 20
912.49514862478543
 30
0.0
 11
248.89751130031519
 21
919.62400251545614
 31
0.0
  0
LINE
  5
3DF
100
AcDbEntity
  8
Layer00016
  6
Continuous
 62
               4
100
AcDbLine
 10
256.02636519098581
 20
911.08093506241232
 30
0.0
 11
247.45817401212307
 21
919.6491262412751
 31
0.0
  0
LINE
  5
3E0
100
AcDbEntity
  8
Layer00016
  6
Continuous
 62
               4
100
AcDbLine
 10
256.02636519098581
 20
909.66672150003922
 30
0.0
 11
246.01883672393097
 21
919.67424996709406
 31
0.0
  0
LINE
  5
3E1
100
AcDbEntity
  8
Layer00016
  6
Continuous
 62
               4
100
AcDbLine
 10
255.72243259563621
 20
908.5564405330158
 30
0.0
 11
244.57949943573891
 21
919.69937369291313
 31
0.0
  0
LINE
  5
3E2
100
AcDbEntity
  8
Layer00016
  6
Continuous
 62
               4
100
AcDbLine
 10
254.30821903326313
 20
908.5564405330158
 30
0.0
 11
243.14016214754682
 21
919.72449741873208
 31
0.0
  0
LINE
  5
3E3
100
AcDbEntity
  8
Layer00016
  6
Continuous
 62
               4
100
AcDbLine
 10
252.89400547089002
 20
908.5564405330158
 30
0.0
 11
241.70082485935473
 21
919.74962114455104
 31
0.0
  0
LINE
  5
3E4
100
AcDbEntity
  8
Layer00016
  6
Continuous
 62
               4
100
AcDbLine
 10
251.47979190851694
 20
908.5564405330158
 30
0.0
 11
240.26148757116263
 21
919.77474487037011
 31
0.0
  0
LINE
  5
3E5
100
AcDbEntity
  8
Layer00016
  6
Continuous
 62
               4
100
AcDbLine
 10
250.06557834614384
 20
908.5564405330158
 30
0.0
 11
238.82215028297054
 21
919.79986859618907
 31
0.0
  0
LINE
  5
3E6
100
AcDbEntity
  8
Layer00016
  6
Continuous
 62
               4
100
AcDbLine
 10
248.65136478377073
 20
908.5564405330158
 30
0.0
 11
237.38281299477845
 21
919.82499232200803
 31
0.0
  0
LINE
  5
3E7
100
AcDbEntity
  8
Layer00016
  6
Continuous
 62
               4
100
AcDbLine
 10
247.23715122139765
 20
908.5564405330158
 30
0.0
 11
235.94347570658636
 21
919.8501160478271
 31
0.0
  0
LINE
  5
3E8
100
AcDbEntity
  8
Layer00016
  6
Continuous
 62
               4
100
AcDbLine
 10
245.82293765902455
 20
908.5564405330158
 30
0.0
 11
234.50413841839426
 21
919.87523977364606
 31
0.0
  0
LINE
  5
3E9
100
AcDbEntity
  8
Layer00016
  6
Continuous
 62
               4
100
AcDbLine
 10
244.40872409665147
 20
908.5564405330158
 30
0.0
 11
233.06480113020217
 21
919.90036349946502
 31
0.0
  0
LINE
  5
3EA
100
AcDbEntity
  8
Layer00016
  6
Continuous
 62
               4
100
AcDbLine
 10
242.99451053427836
 20
908.5564405330158
 30
0.0
 11
231.62546384201008
 21
919.92548722528409
 31
0.0
  0
LINE
  5
3EB
100
AcDbEntity
  8
Layer00016
  6
Continuous
 62
               4
100
AcDbLine
 10
241.58029697190528
 20
908.5564405330158
 30
0.0
 11
231.28862640739135
 21
918.84811109752968
 31
0.0
  0
LINE
  5
3EC
100
AcDbEntity
  8
Layer00016
  6
Continuous
 62
               4
100
AcDbLine
 10
240.16608340953218
 20
908.5564405330158
 30
0.0
 11
231.58501196854169
 21
917.13751197400632
 31
0.0
  0
LINE
  5
3ED
100
AcDbEntity
  8
Layer00016
  6
Continuous
 62
               4
100
AcDbLine
 10
238.7518698471591
 20
908.5564405330158
 30
0.0
 11
231.73609080960605
 21
915.57221957056879
 31
0.0
  0
LINE
  5
3EE
100
AcDbEntity
  8
Layer00016
  6
Continuous
 62
               4
100
AcDbLine
 10
237.33765628478599
 20
908.5564405330158
 30
0.0
 11
231.77578469464515
 21
914.11831212315667
 31
0.0
  0
LINE
  5
3EF
100
AcDbEntity
  8
Layer00016
  6
Continuous
 62
               4
100
AcDbLine
 10
235.92344272241291
 20
908.5564405330158
 30
0.0
 11
231.72543816115609
 21
912.75444509427257
 31
0.0
  0
LINE
  5
3F0
100
AcDbEntity
  8
Layer00016
  6
Continuous
 62
               4
100
AcDbLine
 10
234.50922916003981
 20
908.5564405330158
 30
0.0
 11
231.59950257349391
 21
911.46616711956165
 31
0.0
  0
LINE
  5
3F1
100
AcDbEntity
  8
Layer00016
  6
Continuous
 62
               4
100
AcDbLine
 10
233.09501559766673
 20
908.5564405330158
 30
0.0
 11
231.40827893249309
 21
910.24317719818941
 31
0.0
  0
LINE
  5
3F2
100
AcDbEntity
  8
Layer00016
  6
Continuous
 62
               4
100
AcDbLine
 10
403.94955658560622
 20
819.21808306969888
 30
0.0
 11
403.94955658560622
 21
834.75552135880525
 31
0.0
  0
LINE
  5
3F3
100
AcDbEntity
  8
Layer00016
  6
Continuous
 62
               4
100
AcDbLine
 10
183.37602556458936
 20
819.21808306969888
 30
0.0
 11
183.37602556458936
 21
904.9359445311361
 31
0.0
  0
LINE
  5
3F4
100
AcDbEntity
  8
Layer00016
  6
Continuous
 62
               4
100
AcDbLine
 10
403.94955658560622
 20
824.21808306969888
 30
0.0
 11
183.37602556458936
 21
824.21808306969888
 31
0.0
  0
LINE
  5
3F5
100
AcDbEntity
  8
Layer00016
  6
Continuous
 62
               7
100
AcDbLine
 10
175.23082281158648
 20
1019.9359445311364
 30
0.0
 11
175.23082281158648
 21
919.9359445311361
 31
0.0
  0
LINE
  5
3F6
100
AcDbEntity
  8
Layer00016
  6
Continuous
 62
               4
100
AcDbLine
 10
135.59315497462097
 20
919.9359445311361
 30
0.0
 11
165.23082281158648
 21
919.9359445311361
 31
0.0
  0
LINE
  5
3F7
100
AcDbEntity
  8
Layer00016
  6
Continuous
 62
               4
100
AcDbLine
 10
135.59315497462097
 20
1019.9359445311364
 30
0.0
 11
165.23082281158648
 21
1019.9359445311364
 31
0.0
  0
LINE
  5
3F8
100
AcDbEntity
  8
Layer00016
  6
Continuous
 62
               4
100
AcDbLine
 10
140.59315497462097
 20
919.9359445311361
 30
0.0
 11
140.59315497462097
 21
1019.9359445311364
 31
0.0
  0
LINE
  5
3F9
100
AcDbEntity
  8
Layer00016
  6
Continuous
 62
               7
100
AcDbLine
 10
214.20604230869949
 20
575.6940810916667
 30
0.0
 11
118.51609457164514
 21
575.6940810916667
 31
0.0
  0
LINE
  5
3FA
100
AcDbEntity
  8
Layer00016
  6
Continuous
 62
               4
100
AcDbLine
 10
201.5959784881432
 20
486.30986775265387
 30
0.0
 11
201.5959784881432
 21
551.30986775265387
 31
0.0
  0
LINE
  5
3FB
100
AcDbEntity
  8
Layer00016
  6
Continuous
 62
               3
100
AcDbLine
 10
387.94955658560622
 20
570.89289187181407
 30
0.0
 11
396.94955658560622
 21
570.89289187181407
 31
0.0
  0
LINE
  5
3FC
100
AcDbEntity
  8
Layer00016
  6
Continuous
 62
               4
100
AcDbLine
 10
603.94955658560616
 20
423.78621816546547
 30
0.0
 11
403.44955658560622
 21
423.78621816546547
 31
0.0
  0
LINE
  5
3FD
100
AcDbEntity
  8
Layer00016
  6
Continuous
 62
               4
100
AcDbLine
 10
183.94955658560625
 20
418.78621816546547
 30
0.0
 11
183.94955658560625
 21
465.80986775265387
 31
0.0
  0
LINE
  5
3FE
100
AcDbEntity
  8
Layer00016
  6
Continuous
 62
               4
100
AcDbLine
 10
403.44955658560622
 20
423.78621816546547
 30
0.0
 11
183.94955658560625
 21
423.78621816546547
 31
0.0
  0
LINE
  5
3FF
100
AcDbEntity
  8
Layer00016
  6
Continuous
 62
               4
100
AcDbLine
 10
440.12562953380296
 20
486.30986775265387
 30
0.0
 11
183.94955658560625
 21
486.30986775265387
 31
0.0
  0
LINE
  5
400
100
AcDbEntity
  8
Layer00016
  6
Continuous
 62
               4
100
AcDbLine
 10
568.61362336561274
 20
579.65325999600179
 30
0.0
 11
568.61362336561274
 21
628.49203471111605
 31
0.0
  0
LINE
  5
401
100
AcDbEntity
  8
Layer00016
  6
Continuous
 62
               4
100
AcDbLine
 10
581.09297335963936
 20
571.03674086441231
 30
0.0
 11
638.34602225194214
 21
735.93038203235142
 31
0.0
  0
LINE
  5
402
100
AcDbEntity
  8
Layer00016
  6
Continuous
 62
               4
100
AcDbLine
 10
581.09297335963936
 20
571.03674086441231
 30
0.0
 11
583.47765201113191
 21
585.84597135519459
 31
0.0
  0
LINE
  5
403
100
AcDbEntity
  8
Layer00016
  6
Continuous
 62
               4
100
AcDbLine
 10
581.09297335963936
 20
571.03674086441231
 30
0.0
 11
588.39889342639287
 21
584.13725734194895
 31
0.0
  0
LINE
  5
404
100
AcDbEntity
  8
Layer00016
  6
Continuous
 62
               4
100
AcDbLine
 10
399.94955658560622
 20
551.30986775265387
 30
0.0
 11
399.94955658560622
 21
570.80986775265387
 31
0.0
  0
LINE
  5
405
100
AcDbEntity
  8
Layer00016
  6
Continuous
 62
               4
100
AcDbLine
 10
647.55690839695819
 20
544.39289187181419
 30
0.0
 11
647.55690839695819
 21
556.39049259157423
 31
0.0
  0
LINE
  5
406
100
AcDbEntity
  8
Layer00016
  6
Continuous
 62
               4
100
AcDbLine
 10
652.22672013826116
 20
555.07301136363901
 30
0.0
 11
924.51866151384002
 21
560.51885019115093
 31
0.0
  0
LINE
  5
407
100
AcDbEntity
  8
Layer00016
  6
Continuous
 62
               4
100
AcDbLine
 10
652.28670814186
 20
552.07361118369943
 30
0.0
 11
924.51866151384002
 21
557.51825025113874
 31
0.0
  0
LINE
  5
408
100
AcDbEntity
  8
Layer00016
  6
Continuous
 62
               4
100
AcDbLine
 10
652.34669614545874
 20
549.07421100375973
 30
0.0
 11
924.51866151384002
 21
554.51765031112654
 31
0.0
  0
LINE
  5
409
100
AcDbEntity
  8
Layer00016
  6
Continuous
 62
               4
100
AcDbLine
 10
631.94955658560616
 20
544.39289187181407
 30
0.0
 11
652.55690839695819
 21
544.39289187181407
 31
0.0
  0
LINE
  5
40A
100
AcDbEntity
  8
Layer00016
  6
Continuous
 62
               4
100
AcDbLine
 10
647.55690839695819
 20
474.39289187181407
 30
0.0
 11
647.55690839695819
 21
544.39289187181407
 31
0.0
  0
LINE
  5
40B
100
AcDbEntity
  8
Layer00016
  6
Continuous
 62
               4
100
AcDbLine
 10
625.6062317917681
 20
507.61241562427495
 30
0.0
 11
621.94955658560616
 21
503.95574041811295
 31
0.0
  0
LINE
  5
40C
100
AcDbEntity
  8
Layer00016
  6
Continuous
 62
               4
100
AcDbLine
 10
637.79035053382984
 20
527.67554087830695
 30
0.0
 11
621.94955658560616
 21
543.51633482653051
 31
0.0
  0
LINE
  5
40D
100
AcDbEntity
  8
Layer00016
  6
Continuous
 62
               4
100
AcDbLine
 10
603.94955658560616
 20
487.30986775265387
 30
0.0
 11
603.94955658560616
 21
570.08145318433913
 31
0.0
  0
LINE
  5
40E
100
AcDbEntity
  8
Layer00016
  6
Continuous
 62
               4
100
AcDbLine
 10
603.94955658560616
 20
485.30986775265387
 30
0.0
 11
403.94955658560622
 21
485.30986775265387
 31
0.0
  0
LINE
  5
40F
100
AcDbEntity
  8
Layer00016
  6
Continuous
 62
               4
100
AcDbLine
 10
603.94955658560616
 20
475.30986775265387
 30
0.0
 11
403.94955658560622
 21
475.30986775265387
 31
0.0
  0
LINE
  5
410
100
AcDbEntity
  8
Layer00016
  6
Continuous
 62
               4
100
AcDbLine
 10
603.94955658560616
 20
485.30986775265387
 30
0.0
 11
603.94955658560616
 21
475.30986775265387
 31
0.0
  0
LINE
  5
411
100
AcDbEntity
  8
Layer00016
  6
Continuous
 62
               4
100
AcDbLine
 10
403.94955658560622
 20
475.30986775265387
 30
0.0
 11
403.94955658560622
 21
485.30986775265387
 31
0.0
  0
LINE
  5
412
100
AcDbEntity
  8
Layer00016
  6
DASHED
 62
               4
100
AcDbLine
 10
603.94955658560616
 20
477.82458637841535
 30
0.0
 11
601.4348379598448
 21
475.30986775265387
 31
0.0
  0
LINE
  5
413
100
AcDbEntity
  8
Layer00016
  6
DASHED
 62
               4
100
AcDbLine
 10
603.94955658560616
 20
482.06722706553461
 30
0.0
 11
597.19219727272548
 21
475.30986775265387
 31
0.0
  0
LINE
  5
414
100
AcDbEntity
  8
Layer00016
  6
DASHED
 62
               4
100
AcDbLine
 10
602.94955658560616
 20
485.30986775265387
 30
0.0
 11
592.94955658560616
 21
475.30986775265387
 31
0.0
  0
LINE
  5
415
100
AcDbEntity
  8
Layer00016
  6
DASHED
 62
               4
100
AcDbLine
 10
598.70691589848695
 20
485.30986775265387
 30
0.0
 11
588.70691589848695
 21
475.30986775265387
 31
0.0
  0
LINE
  5
416
100
AcDbEntity
  8
Layer00016
  6
DASHED
 62
               4
100
AcDbLine
 10
594.46427521136764
 20
485.30986775265387
 30
0.0
 11
584.46427521136764
 21
475.30986775265387
 31
0.0
  0
LINE
  5
417
100
AcDbEntity
  8
Layer00016
  6
DASHED
 62
               4
100
AcDbLine
 10
590.22163452424832
 20
485.30986775265387
 30
0.0
 11
580.22163452424832
 21
475.30986775265387
 31
0.0
  0
LINE
  5
418
100
AcDbEntity
  8
Layer00016
  6
DASHED
 62
               4
100
AcDbLine
 10
585.978993837129
 20
485.30986775265387
 30
0.0
 11
575.978993837129
 21
475.30986775265387
 31
0.0
  0
LINE
  5
419
100
AcDbEntity
  8
Layer00016
  6
DASHED
 62
               4
100
AcDbLine
 10
581.73635315000979
 20
485.30986775265387
 30
0.0
 11
571.73635315000979
 21
475.30986775265387
 31
0.0
  0
LINE
  5
41A
100
AcDbEntity
  8
Layer00016
  6
DASHED
 62
               4
100
AcDbLine
 10
577.49371246289047
 20
485.30986775265387
 30
0.0
 11
567.49371246289047
 21
475.30986775265387
 31
0.0
  0
LINE
  5
41B
100
AcDbEntity
  8
Layer00016
  6
DASHED
 62
               4
100
AcDbLine
 10
573.25107177577115
 20
485.30986775265387
 30
0.0
 11
563.25107177577115
 21
475.30986775265387
 31
0.0
  0
LINE
  5
41C
100
AcDbEntity
  8
Layer00016
  6
DASHED
 62
               4
100
AcDbLine
 10
569.00843108865195
 20
485.30986775265387
 30
0.0
 11
559.00843108865195
 21
475.30986775265387
 31
0.0
  0
LINE
  5
41D
100
AcDbEntity
  8
Layer00016
  6
DASHED
 62
               4
100
AcDbLine
 10
564.76579040153263
 20
485.30986775265387
 30
0.0
 11
554.76579040153263
 21
475.30986775265387
 31
0.0
  0
LINE
  5
41E
100
AcDbEntity
  8
Layer00016
  6
DASHED
 62
               4
100
AcDbLine
 10
560.52314971441331
 20
485.30986775265387
 30
0.0
 11
550.52314971441331
 21
475.30986775265387
 31
0.0
  0
LINE
  5
41F
100
AcDbEntity
  8
Layer00016
  6
DASHED
 62
               4
100
AcDbLine
 10
556.28050902729399
 20
485.30986775265387
 30
0.0
 11
546.28050902729399
 21
475.30986775265387
 31
0.0
  0
LINE
  5
420
100
AcDbEntity
  8
Layer00016
  6
DASHED
 62
               4
100
AcDbLine
 10
552.03786834017478
 20
485.30986775265387
 30
0.0
 11
542.03786834017478
 21
475.30986775265387
 31
0.0
  0
LINE
  5
421
100
AcDbEntity
  8
Layer00016
  6
DASHED
 62
               4
100
AcDbLine
 10
547.79522765305546
 20
485.30986775265387
 30
0.0
 11
537.79522765305546
 21
475.30986775265387
 31
0.0
  0
LINE
  5
422
100
AcDbEntity
  8
Layer00016
  6
DASHED
 62
               4
100
AcDbLine
 10
543.55258696593614
 20
485.30986775265387
 30
0.0
 11
533.55258696593614
 21
475.30986775265387
 31
0.0
  0
LINE
  5
423
100
AcDbEntity
  8
Layer00016
  6
DASHED
 62
               4
100
AcDbLine
 10
539.30994627881694
 20
485.30986775265387
 30
0.0
 11
529.30994627881694
 21
475.30986775265387
 31
0.0
  0
LINE
  5
424
100
AcDbEntity
  8
Layer00016
  6
DASHED
 62
               4
100
AcDbLine
 10
535.06730559169762
 20
485.30986775265387
 30
0.0
 11
525.06730559169762
 21
475.30986775265387
 31
0.0
  0
LINE
  5
425
100
AcDbEntity
  8
Layer00016
  6
DASHED
 62
               4
100
AcDbLine
 10
530.8246649045783
 20
485.30986775265387
 30
0.0
 11
520.8246649045783
 21
475.30986775265387
 31
0.0
  0
LINE
  5
426
100
AcDbEntity
  8
Layer00016
  6
DASHED
 62
               4
100
AcDbLine
 10
526.58202421745909
 20
485.30986775265387
 30
0.0
 11
516.58202421745909
 21
475.30986775265387
 31
0.0
  0
LINE
  5
427
100
AcDbEntity
  8
Layer00016
  6
DASHED
 62
               4
100
AcDbLine
 10
522.33938353033977
 20
485.30986775265387
 30
0.0
 11
512.33938353033977
 21
475.30986775265387
 31
0.0
  0
LINE
  5
428
100
AcDbEntity
  8
Layer00016
  6
DASHED
 62
               4
100
AcDbLine
 10
518.09674284322045
 20
485.30986775265387
 30
0.0
 11
508.09674284322051
 21
475.30986775265387
 31
0.0
  0
LINE
  5
429
100
AcDbEntity
  8
Layer00016
  6
DASHED
 62
               4
100
AcDbLine
 10
513.85410215610125
 20
485.30986775265387
 30
0.0
 11
503.85410215610125
 21
475.30986775265387
 31
0.0
  0
LINE
  5
42A
100
AcDbEntity
  8
Layer00016
  6
DASHED
 62
               4
100
AcDbLine
 10
509.61146146898193
 20
485.30986775265387
 30
0.0
 11
499.61146146898193
 21
475.30986775265387
 31
0.0
  0
LINE
  5
42B
100
AcDbEntity
  8
Layer00016
  6
DASHED
 62
               4
100
AcDbLine
 10
505.36882078186267
 20
485.30986775265387
 30
0.0
 11
495.36882078186267
 21
475.30986775265387
 31
0.0
  0
LINE
  5
42C
100
AcDbEntity
  8
Layer00016
  6
DASHED
 62
               4
100
AcDbLine
 10
501.12618009474335
 20
485.30986775265387
 30
0.0
 11
491.12618009474335
 21
475.30986775265387
 31
0.0
  0
LINE
  5
42D
100
AcDbEntity
  8
Layer00016
  6
DASHED
 62
               4
100
AcDbLine
 10
496.88353940762408
 20
485.30986775265387
 30
0.0
 11
486.88353940762408
 21
475.30986775265387
 31
0.0
  0
LINE
  5
42E
100
AcDbEntity
  8
Layer00016
  6
DASHED
 62
               4
100
AcDbLine
 10
492.64089872050482
 20
485.30986775265387
 30
0.0
 11
482.64089872050482
 21
475.30986775265387
 31
0.0
  0
LINE
  5
42F
100
AcDbEntity
  8
Layer00016
  6
DASHED
 62
               4
100
AcDbLine
 10
488.3982580333855
 20
485.30986775265387
 30
0.0
 11
478.3982580333855
 21
475.30986775265387
 31
0.0
  0
LINE
  5
430
100
AcDbEntity
  8
Layer00016
  6
DASHED
 62
               4
100
AcDbLine
 10
484.15561734626624
 20
485.30986775265387
 30
0.0
 11
474.15561734626624
 21
475.30986775265387
 31
0.0
  0
LINE
  5
431
100
AcDbEntity
  8
Layer00016
  6
DASHED
 62
               4
100
AcDbLine
 10
479.91297665914692
 20
485.30986775265387
 30
0.0
 11
469.91297665914692
 21
475.30986775265387
 31
0.0
  0
LINE
  5
432
100
AcDbEntity
  8
Layer00016
  6
DASHED
 62
               4
100
AcDbLine
 10
475.67033597202766
 20
485.30986775265387
 30
0.0
 11
465.67033597202766
 21
475.30986775265387
 31
0.0
  0
LINE
  5
433
100
AcDbEntity
  8
Layer00016
  6
DASHED
 62
               4
100
AcDbLine
 10
471.4276952849084
 20
485.30986775265387
 30
0.0
 11
461.4276952849084
 21
475.30986775265387
 31
0.0
  0
LINE
  5
434
100
AcDbEntity
  8
Layer00016
  6
DASHED
 62
               4
100
AcDbLine
 10
467.18505459778908
 20
485.30986775265387
 30
0.0
 11
457.18505459778908
 21
475.30986775265387
 31
0.0
  0
LINE
  5
435
100
AcDbEntity
  8
Layer00016
  6
DASHED
 62
               4
100
AcDbLine
 10
462.94241391066981
 20
485.30986775265387
 30
0.0
 11
452.94241391066981
 21
475.30986775265387
 31
0.0
  0
LINE
  5
436
100
AcDbEntity
  8
Layer00016
  6
DASHED
 62
               4
100
AcDbLine
 10
458.69977322355049
 20
485.30986775265387
 30
0.0
 11
448.69977322355049
 21
475.30986775265387
 31
0.0
  0
LINE
  5
437
100
AcDbEntity
  8
Layer00016
  6
DASHED
 62
               4
100
AcDbLine
 10
454.45713253643123
 20
485.30986775265387
 30
0.0
 11
444.45713253643123
 21
475.30986775265387
 31
0.0
  0
LINE
  5
438
100
AcDbEntity
  8
Layer00016
  6
DASHED
 62
               4
100
AcDbLine
 10
450.21449184931197
 20
485.30986775265387
 30
0.0
 11
440.21449184931197
 21
475.30986775265387
 31
0.0
  0
LINE
  5
439
100
AcDbEntity
  8
Layer00016
  6
DASHED
 62
               4
100
AcDbLine
 10
445.97185116219265
 20
485.30986775265387
 30
0.0
 11
435.97185116219265
 21
475.30986775265387
 31
0.0
  0
LINE
  5
43A
100
AcDbEntity
  8
Layer00016
  6
DASHED
 62
               4
100
AcDbLine
 10
441.72921047507339
 20
485.30986775265387
 30
0.0
 11
431.72921047507339
 21
475.30986775265387
 31
0.0
  0
LINE
  5
43B
100
AcDbEntity
  8
Layer00016
  6
DASHED
 62
               4
100
AcDbLine
 10
437.48656978795407
 20
485.30986775265387
 30
0.0
 11
427.48656978795407
 21
475.30986775265387
 31
0.0
  0
LINE
  5
43C
100
AcDbEntity
  8
Layer00016
  6
DASHED
 62
               4
100
AcDbLine
 10
433.24392910083481
 20
485.30986775265387
 30
0.0
 11
423.24392910083481
 21
475.30986775265387
 31
0.0
  0
LINE
  5
43D
100
AcDbEntity
  8
Layer00016
  6
DASHED
 62
               4
100
AcDbLine
 10
429.00128841371549
 20
485.30986775265387
 30
0.0
 11
419.00128841371549
 21
475.30986775265387
 31
0.0
  0
LINE
  5
43E
100
AcDbEntity
  8
Layer00016
  6
DASHED
 62
               4
100
AcDbLine
 10
424.75864772659622
 20
485.30986775265387
 30
0.0
 11
414.75864772659622
 21
475.30986775265387
 31
0.0
  0
LINE
  5
43F
100
AcDbEntity
  8
Layer00016
  6
DASHED
 62
               4
100
AcDbLine
 10
420.51600703947696
 20
485.30986775265387
 30
0.0
 11
410.51600703947696
 21
475.30986775265387
 31
0.0
  0
LINE
  5
440
100
AcDbEntity
  8
Layer00016
  6
DASHED
 62
               4
100
AcDbLine
 10
416.27336635235764
 20
485.30986775265387
 30
0.0
 11
406.27336635235764
 21
475.30986775265387
 31
0.0
  0
LINE
  5
441
100
AcDbEntity
  8
Layer00016
  6
DASHED
 62
               4
100
AcDbLine
 10
412.03072566523838
 20
485.30986775265387
 30
0.0
 11
403.94955658560622
 21
477.22869867302171
 31
0.0
  0
LINE
  5
442
100
AcDbEntity
  8
Layer00016
  6
DASHED
 62
               4
100
AcDbLine
 10
407.78808497811906
 20
485.30986775265387
 30
0.0
 11
403.94955658560622
 21
481.47133936014103
 31
0.0
  0
LINE
  5
443
100
AcDbEntity
  8
Layer00016
  6
Continuous
 62
               4
100
AcDbLine
 10
603.94955658560616
 20
504.70268526522506
 30
0.0
 11
631.37040900573811
 21
401.92872845745711
 31
0.0
  0
LINE
  5
444
100
AcDbEntity
  8
Layer00016
  6
Continuous
 62
               4
100
AcDbLine
 10
603.94955658560616
 20
504.70268526522506
 30
0.0
 11
610.27434037403884
 21
491.10132099433002
 31
0.0
  0
LINE
  5
445
100
AcDbEntity
  8
Layer00016
  6
Continuous
 62
               4
100
AcDbLine
 10
603.94955658560616
 20
504.70268526522506
 30
0.0
 11
605.24096868230652
 21
489.75838016942032
 31
0.0
  0
LINE
  5
446
100
AcDbEntity
  8
Layer00016
  6
Continuous
 62
               4
100
AcDbLine
 10
667.39659104529903
 20
539.11278897169109
 30
0.0
 11
690.10531771521778
 21
704.64745443399363
 31
0.0
  0
LINE
  5
447
100
AcDbEntity
  8
Layer00016
  6
Continuous
 62
               7
100
AcDbLine
 10
223.13252715252088
 20
552.31669907914591
 30
0.0
 11
214.20604230869949
 21
575.6940810916667
 31
0.0
  0
LINE
  5
448
100
AcDbEntity
  8
Layer00016
  6
Continuous
 62
               7
100
AcDbLine
 10
223.13252715252088
 20
552.31669907914591
 30
0.0
 11
215.42963386853333
 21
565.18780761941923
 31
0.0
  0
LINE
  5
449
100
AcDbEntity
  8
Layer00016
  6
Continuous
 62
               7
100
AcDbLine
 10
223.13252715252088
 20
552.31669907914591
 30
0.0
 11
220.29635356256102
 21
567.04612946078703
 31
0.0
  0
LINE
  5
44A
100
AcDbEntity
  8
Layer00016
  6
Continuous
 62
               4
100
AcDbLine
 10
230.96514947763589
 20
483.29148679741195
 30
0.0
 11
197.16480380292228
 21
380.07972121776197
 31
0.0
  0
LINE
  5
44B
100
AcDbEntity
  8
Layer00016
  6
Continuous
 62
               4
100
AcDbLine
 10
230.96514947763589
 20
483.29148679741195
 30
0.0
 11
228.84311298893573
 21
468.44234671656466
 31
0.0
  0
LINE
  5
44C
100
AcDbEntity
  8
Layer00016
  6
Continuous
 62
               4
100
AcDbLine
 10
230.96514947763589
 20
483.29148679741195
 30
0.0
 11
223.8923824294516
 21
470.063638662431
 31
0.0
  0
LINE
  5
44D
100
AcDbEntity
  8
Layer00016
  6
Continuous
 62
               4
100
AcDbLine
 10
270.7395090533052
 20
476.26692306206837
 30
0.0
 11
215.89844802438975
 21
347.94700662880354
 31
0.0
  0
LINE
  5
44E
100
AcDbEntity
  8
Layer00016
  6
Continuous
 62
               4
100
AcDbLine
 10
270.7395090533052
 20
476.26692306206837
 30
0.0
 11
267.3293421197867
 21
461.65970698625375
 31
0.0
  0
LINE
  5
44F
100
AcDbEntity
  8
Layer00016
  6
Continuous
 62
               4
100
AcDbLine
 10
270.7395090533052
 20
476.26692306206837
 30
0.0
 11
262.53903821439064
 21
463.70697568876653
 31
0.0
  0
LINE
  5
450
100
AcDbEntity
  8
Layer00016
  6
Continuous
 62
               4
100
AcDbLine
 10
524.21252603582423
 20
479.18584555870621
 30
0.0
 11
552.40569475544055
 21
362.15759804331742
 31
0.0
  0
LINE
  5
451
100
AcDbEntity
  8
Layer00016
  6
Continuous
 62
               4
100
AcDbLine
 10
524.21252603582423
 20
479.18584555870621
 30
0.0
 11
530.20455769150863
 21
465.43464355170778
 31
0.0
  0
LINE
  5
452
100
AcDbEntity
  8
Layer00016
  6
Continuous
 62
               4
100
AcDbLine
 10
524.21252603582423
 20
479.18584555870621
 30
0.0
 11
525.1400058848526
 21
464.21454698010433
 31
0.0
  0
LINE
  5
453
100
AcDbEntity
  8
Layer00016
  6
Continuous
 62
               4
100
AcDbLine
 10
552.40569475544055
 20
362.15759804331742
 30
0.0
 11
607.19619245582714
 21
362.15759804331742
 31
0.0
  0
LINE
  5
454
100
AcDbEntity
  8
Layer00016
  6
Continuous
 62
               4
100
AcDbLine
 10
387.94955658560622
 20
1157.4359445311363
 30
0.0
 11
282.94955658560622
 21
1262.4359445311363
 31
0.0
  0
LINE
  5
455
100
AcDbEntity
  8
Layer00016
  6
Continuous
 62
               4
100
AcDbLine
 10
282.94955658560622
 20
1157.4359445311363
 30
0.0
 11
387.94955658560627
 21
1262.4359445311363
 31
0.0
  0
LINE
  5
456
100
AcDbEntity
  8
Layer00016
  6
Continuous
 62
               3
100
AcDbLine
 10
273.94955658560622
 20
1262.4359445311363
 30
0.0
 11
657.6504972790392
 21
1262.4359445311363
 31
0.0
  0
LINE
  5
457
100
AcDbEntity
  8
Layer00016
  6
Continuous
 62
               3
100
AcDbLine
 10
273.94955658560622
 20
1271.4359445311363
 30
0.0
 11
657.6504972790392
 21
1271.4359445311363
 31
0.0
  0
LINE
  5
458
100
AcDbEntity
  8
Layer00016
  6
DOT
 62
               6
100
AcDbLine
 10
271.94955658560622
 20
1272.4359445311363
 30
0.0
 11
657.6504972790392
 21
1272.4359445311363
 31
0.0
  0
LINE
  5
459
100
AcDbEntity
  8
Layer00016
  6
Continuous
 62
               3
100
AcDbLine
 10
230.94955658560625
 20
1289.4359445311363
 30
0.0
 11
657.6504972790392
 21
1289.4359445311363
 31
0.0
  0
LINE
  5
45A
100
AcDbEntity
  8
Layer00016
  6
Continuous
 62
               4
100
AcDbLine
 10
256.44955658560622
 20
1232.4359445311363
 30
0.0
 11
256.44955658560622
 21
1187.4359445311363
 31
0.0
  0
LINE
  5
45B
100
AcDbEntity
  8
Layer00016
  6
Continuous
 62
               4
100
AcDbLine
 10
270.39451887365425
 20
1232.4359445311363
 30
0.0
 11
270.39451887365425
 21
1187.4359445311363
 31
0.0
  0
LINE
  5
45C
100
AcDbEntity
  8
Layer00016
  6
Continuous
 62
               4
100
AcDbLine
 10
256.44955658560622
 20
1232.4359445311363
 30
0.0
 11
270.39451887365425
 21
1232.4359445311363
 31
0.0
  0
LINE
  5
45D
100
AcDbEntity
  8
Layer00016
  6
Continuous
 62
               4
100
AcDbLine
 10
256.44955658560622
 20
1187.4359445311363
 30
0.0
 11
270.39451887365425
 21
1187.4359445311363
 31
0.0
  0
LINE
  5
45E
100
AcDbEntity
  8
Layer00016
  6
Continuous
 62
               4
100
AcDbLine
 10
357.94955658560622
 20
1288.9359445311363
 30
0.0
 11
312.94955658560622
 21
1288.9359445311363
 31
0.0
  0
LINE
  5
45F
100
AcDbEntity
  8
Layer00016
  6
Continuous
 62
               4
100
AcDbLine
 10
357.94955658560622
 20
1274.9909822430884
 30
0.0
 11
312.94955658560622
 21
1274.9909822430884
 31
0.0
  0
LINE
  5
460
100
AcDbEntity
  8
Layer00016
  6
Continuous
 62
               4
100
AcDbLine
 10
357.94955658560622
 20
1288.9359445311363
 30
0.0
 11
357.94955658560622
 21
1274.9909822430884
 31
0.0
  0
LINE
  5
461
100
AcDbEntity
  8
Layer00016
  6
Continuous
 62
               4
100
AcDbLine
 10
312.94955658560622
 20
1288.9359445311363
 30
0.0
 11
312.94955658560622
 21
1274.9909822430884
 31
0.0
  0
LINE
  5
462
100
AcDbEntity
  8
Layer00016
  6
Continuous
 62
               4
100
AcDbLine
 10
654.38993401733819
 20
1060.5722794203921
 30
0.0
 11
654.38993401733819
 21
1120.1828221239723
 31
0.0
  0
LINE
  5
463
100
AcDbEntity
  8
Layer00016
  6
Continuous
 62
               7
100
AcDbLine
 10
282.94955658560622
 20
1157.0755548379257
 30
0.0
 11
273.94955658560622
 21
1148.0755548379257
 31
0.0
  0
LINE
  5
464
100
AcDbEntity
  8
Layer00016
  6
Continuous
 62
               7
100
AcDbLine
 10
282.94955658560622
 20
1164.5070123430019
 30
0.0
 11
273.94955658560622
 21
1155.5070123430019
 31
0.0
  0
LINE
  5
465
100
AcDbEntity
  8
Layer00016
  6
Continuous
 62
               7
100
AcDbLine
 10
282.94955658560622
 20
1171.9384698480778
 30
0.0
 11
273.94955658560622
 21
1162.9384698480778
 31
0.0
  0
LINE
  5
466
100
AcDbEntity
  8
Layer00016
  6
Continuous
 62
               7
100
AcDbLine
 10
282.94955658560622
 20
1179.369927353154
 30
0.0
 11
273.94955658560622
 21
1170.369927353154
 31
0.0
  0
LINE
  5
467
100
AcDbEntity
  8
Layer00016
  6
Continuous
 62
               7
100
AcDbLine
 10
282.94955658560622
 20
1186.8013848582302
 30
0.0
 11
273.94955658560622
 21
1177.8013848582302
 31
0.0
  0
LINE
  5
468
100
AcDbEntity
  8
Layer00016
  6
Continuous
 62
               7
100
AcDbLine
 10
282.94955658560622
 20
1194.2328423633062
 30
0.0
 11
273.94955658560622
 21
1185.2328423633062
 31
0.0
  0
LINE
  5
469
100
AcDbEntity
  8
Layer00016
  6
Continuous
 62
               7
100
AcDbLine
 10
282.94955658560622
 20
1201.6642998683824
 30
0.0
 11
273.94955658560622
 21
1192.6642998683824
 31
0.0
  0
LINE
  5
46A
100
AcDbEntity
  8
Layer00016
  6
Continuous
 62
               7
100
AcDbLine
 10
282.94955658560622
 20
1209.0957573734586
 30
0.0
 11
273.94955658560622
 21
1200.0957573734586
 31
0.0
  0
LINE
  5
46B
100
AcDbEntity
  8
Layer00016
  6
Continuous
 62
               7
100
AcDbLine
 10
282.94955658560622
 20
1216.5272148785346
 30
0.0
 11
273.94955658560622
 21
1207.5272148785346
 31
0.0
  0
LINE
  5
46C
100
AcDbEntity
  8
Layer00016
  6
Continuous
 62
               7
100
AcDbLine
 10
282.94955658560622
 20
1223.9586723836107
 30
0.0
 11
273.94955658560622
 21
1214.9586723836107
 31
0.0
  0
LINE
  5
46D
100
AcDbEntity
  8
Layer00016
  6
Continuous
 62
               7
100
AcDbLine
 10
282.94955658560622
 20
1231.3901298886867
 30
0.0
 11
273.94955658560622
 21
1222.3901298886867
 31
0.0
  0
LINE
  5
46E
100
AcDbEntity
  8
Layer00016
  6
Continuous
 62
               7
100
AcDbLine
 10
282.94955658560622
 20
1238.8215873937629
 30
0.0
 11
273.94955658560622
 21
1229.8215873937629
 31
0.0
  0
LINE
  5
46F
100
AcDbEntity
  8
Layer00016
  6
Continuous
 62
               7
100
AcDbLine
 10
282.94955658560622
 20
1246.2530448988391
 30
0.0
 11
273.94955658560622
 21
1237.2530448988391
 31
0.0
  0
LINE
  5
470
100
AcDbEntity
  8
Layer00016
  6
Continuous
 62
               7
100
AcDbLine
 10
282.94955658560622
 20
1253.6845024039151
 30
0.0
 11
273.94955658560622
 21
1244.6845024039151
 31
0.0
  0
LINE
  5
471
100
AcDbEntity
  8
Layer00016
  6
Continuous
 62
               7
100
AcDbLine
 10
282.94955658560622
 20
1261.1159599089913
 30
0.0
 11
273.94955658560622
 21
1252.1159599089913
 31
0.0
  0
LINE
  5
472
100
AcDbEntity
  8
Layer00016
  6
Continuous
 62
               7
100
AcDbLine
 10
282.94955658560622
 20
902.51711361076832
 30
0.0
 11
273.94955658560622
 21
893.51711361076832
 31
0.0
  0
LINE
  5
473
100
AcDbEntity
  8
Layer00016
  6
Continuous
 62
               7
100
AcDbLine
 10
282.94955658560622
 20
895.4460457989029
 30
0.0
 11
273.94955658560622
 21
886.4460457989029
 31
0.0
  0
LINE
  5
474
100
AcDbEntity
  8
Layer00016
  6
Continuous
 62
               7
100
AcDbLine
 10
282.94955658560622
 20
888.37497798703737
 30
0.0
 11
273.94955658560622
 21
879.37497798703737
 31
0.0
  0
LINE
  5
475
100
AcDbEntity
  8
Layer00016
  6
Continuous
 62
               7
100
AcDbLine
 10
282.94955658560622
 20
881.30391017517195
 30
0.0
 11
273.94955658560622
 21
872.30391017517195
 31
0.0
  0
LINE
  5
476
100
AcDbEntity
  8
Layer00016
  6
Continuous
 62
               7
100
AcDbLine
 10
282.94955658560622
 20
874.23284236330642
 30
0.0
 11
273.94955658560622
 21
865.23284236330642
 31
0.0
  0
LINE
  5
477
100
AcDbEntity
  8
Layer00016
  6
Continuous
 62
               7
100
AcDbLine
 10
282.94955658560622
 20
867.161774551441
 30
0.0
 11
273.94955658560622
 21
858.161774551441
 31
0.0
  0
LINE
  5
478
100
AcDbEntity
  8
Layer00016
  6
Continuous
 62
               7
100
AcDbLine
 10
282.94955658560622
 20
860.09070673957547
 30
0.0
 11
273.94955658560622
 21
851.09070673957547
 31
0.0
  0
LINE
  5
479
100
AcDbEntity
  8
Layer00016
  6
Continuous
 62
               7
100
AcDbLine
 10
282.94955658560622
 20
853.01963892771005
 30
0.0
 11
273.94955658560622
 21
844.01963892771005
 31
0.0
  0
LINE
  5
47A
100
AcDbEntity
  8
Layer00016
  6
Continuous
 62
               7
100
AcDbLine
 10
390.07272006596418
 20
1148.4359445311363
 30
0.0
 11
387.94955658560622
 21
1150.5591080114941
 31
0.0
  0
LINE
  5
47B
100
AcDbEntity
  8
Layer00016
  6
Continuous
 62
               7
100
AcDbLine
 10
397.14378787782965
 20
1148.4359445311363
 30
0.0
 11
388.14378787782965
 21
1157.4359445311363
 31
0.0
  0
LINE
  5
47C
100
AcDbEntity
  8
Layer00016
  6
Continuous
 62
               7
100
AcDbLine
 10
404.21485568969513
 20
1148.4359445311363
 30
0.0
 11
395.21485568969513
 21
1157.4359445311363
 31
0.0
  0
LINE
  5
47D
100
AcDbEntity
  8
Layer00016
  6
Continuous
 62
               7
100
AcDbLine
 10
411.2859235015606
 20
1148.4359445311363
 30
0.0
 11
402.2859235015606
 21
1157.4359445311363
 31
0.0
  0
LINE
  5
47E
100
AcDbEntity
  8
Layer00016
  6
Continuous
 62
               7
100
AcDbLine
 10
418.35699131342608
 20
1148.4359445311363
 30
0.0
 11
409.35699131342608
 21
1157.4359445311363
 31
0.0
  0
LINE
  5
47F
100
AcDbEntity
  8
Layer00016
  6
Continuous
 62
               7
100
AcDbLine
 10
425.42805912529155
 20
1148.4359445311363
 30
0.0
 11
416.42805912529155
 21
1157.4359445311363
 31
0.0
  0
LINE
  5
480
100
AcDbEntity
  8
Layer00016
  6
Continuous
 62
               7
100
AcDbLine
 10
432.49912693715703
 20
1148.4359445311363
 30
0.0
 11
423.49912693715703
 21
1157.4359445311363
 31
0.0
  0
LINE
  5
481
100
AcDbEntity
  8
Layer00016
  6
Continuous
 62
               7
100
AcDbLine
 10
439.57019474902251
 20
1148.4359445311363
 30
0.0
 11
430.57019474902251
 21
1157.4359445311363
 31
0.0
  0
LINE
  5
482
100
AcDbEntity
  8
Layer00016
  6
Continuous
 62
               7
100
AcDbLine
 10
446.64126256088798
 20
1148.4359445311363
 30
0.0
 11
437.64126256088798
 21
1157.4359445311363
 31
0.0
  0
LINE
  5
483
100
AcDbEntity
  8
Layer00016
  6
Continuous
 62
               7
100
AcDbLine
 10
453.71233037275346
 20
1148.4359445311363
 30
0.0
 11
444.71233037275346
 21
1157.4359445311363
 31
0.0
  0
LINE
  5
484
100
AcDbEntity
  8
Layer00016
  6
Continuous
 62
               7
100
AcDbLine
 10
460.78339818461893
 20
1148.4359445311363
 30
0.0
 11
451.78339818461893
 21
1157.4359445311363
 31
0.0
  0
LINE
  5
485
100
AcDbEntity
  8
Layer00016
  6
Continuous
 62
               7
100
AcDbLine
 10
467.85446599648441
 20
1148.4359445311363
 30
0.0
 11
458.85446599648441
 21
1157.4359445311363
 31
0.0
  0
LINE
  5
486
100
AcDbEntity
  8
Layer00016
  6
Continuous
 62
               7
100
AcDbLine
 10
474.92553380834988
 20
1148.4359445311363
 30
0.0
 11
465.92553380834988
 21
1157.4359445311363
 31
0.0
  0
LINE
  5
487
100
AcDbEntity
  8
Layer00016
  6
Continuous
 62
               7
100
AcDbLine
 10
481.99660162021536
 20
1148.4359445311363
 30
0.0
 11
472.99660162021536
 21
1157.4359445311363
 31
0.0
  0
LINE
  5
488
100
AcDbEntity
  8
Layer00016
  6
Continuous
 62
               7
100
AcDbLine
 10
489.06766943208083
 20
1148.4359445311363
 30
0.0
 11
480.06766943208083
 21
1157.4359445311363
 31
0.0
  0
LINE
  5
489
100
AcDbEntity
  8
Layer00016
  6
Continuous
 62
               7
100
AcDbLine
 10
496.13873724394631
 20
1148.4359445311363
 30
0.0
 11
487.13873724394631
 21
1157.4359445311363
 31
0.0
  0
LINE
  5
48A
100
AcDbEntity
  8
Layer00016
  6
Continuous
 62
               7
100
AcDbLine
 10
503.20980505581178
 20
1148.4359445311363
 30
0.0
 11
494.20980505581178
 21
1157.4359445311363
 31
0.0
  0
LINE
  5
48B
100
AcDbEntity
  8
Layer00016
  6
Continuous
 62
               7
100
AcDbLine
 10
510.28087286767726
 20
1148.4359445311363
 30
0.0
 11
501.28087286767726
 21
1157.4359445311363
 31
0.0
  0
LINE
  5
48C
100
AcDbEntity
  8
Layer00016
  6
Continuous
 62
               7
100
AcDbLine
 10
517.35194067954274
 20
1148.4359445311363
 30
0.0
 11
508.35194067954274
 21
1157.4359445311363
 31
0.0
  0
LINE
  5
48D
100
AcDbEntity
  8
Layer00016
  6
Continuous
 62
               7
100
AcDbLine
 10
524.42300849140815
 20
1148.4359445311363
 30
0.0
 11
515.42300849140815
 21
1157.4359445311363
 31
0.0
  0
LINE
  5
48E
100
AcDbEntity
  8
Layer00016
  6
Continuous
 62
               7
100
AcDbLine
 10
531.49407630327369
 20
1148.4359445311363
 30
0.0
 11
522.49407630327369
 21
1157.4359445311363
 31
0.0
  0
LINE
  5
48F
100
AcDbEntity
  8
Layer00016
  6
Continuous
 62
               7
100
AcDbLine
 10
538.56514411513911
 20
1148.4359445311363
 30
0.0
 11
529.56514411513911
 21
1157.4359445311363
 31
0.0
  0
LINE
  5
490
100
AcDbEntity
  8
Layer00016
  6
Continuous
 62
               7
100
AcDbLine
 10
545.63621192700464
 20
1148.4359445311363
 30
0.0
 11
536.63621192700464
 21
1157.4359445311363
 31
0.0
  0
LINE
  5
491
100
AcDbEntity
  8
Layer00016
  6
Continuous
 62
               7
100
AcDbLine
 10
552.70727973887006
 20
1148.4359445311363
 30
0.0
 11
543.70727973887006
 21
1157.4359445311363
 31
0.0
  0
LINE
  5
492
100
AcDbEntity
  8
Layer00016
  6
Continuous
 62
               7
100
AcDbLine
 10
559.77834755073559
 20
1148.4359445311363
 30
0.0
 11
550.77834755073559
 21
1157.4359445311363
 31
0.0
  0
LINE
  5
493
100
AcDbEntity
  8
Layer00016
  6
Continuous
 62
               7
100
AcDbLine
 10
566.84941536260101
 20
1148.4359445311363
 30
0.0
 11
557.84941536260101
 21
1157.4359445311363
 31
0.0
  0
LINE
  5
494
100
AcDbEntity
  8
Layer00016
  6
Continuous
 62
               7
100
AcDbLine
 10
573.92048317446654
 20
1148.4359445311363
 30
0.0
 11
564.92048317446654
 21
1157.4359445311363
 31
0.0
  0
LINE
  5
495
100
AcDbEntity
  8
Layer00016
  6
Continuous
 62
               7
100
AcDbLine
 10
580.99155098633196
 20
1148.4359445311363
 30
0.0
 11
571.99155098633196
 21
1157.4359445311363
 31
0.0
  0
LINE
  5
496
100
AcDbEntity
  8
Layer00016
  6
Continuous
 62
               7
100
AcDbLine
 10
588.06261879819749
 20
1148.4359445311363
 30
0.0
 11
579.06261879819749
 21
1157.4359445311363
 31
0.0
  0
LINE
  5
497
100
AcDbEntity
  8
Layer00016
  6
Continuous
 62
               7
100
AcDbLine
 10
595.13368661006291
 20
1148.4359445311363
 30
0.0
 11
586.13368661006291
 21
1157.4359445311363
 31
0.0
  0
LINE
  5
498
100
AcDbEntity
  8
Layer00016
  6
Continuous
 62
               7
100
AcDbLine
 10
602.20475442192844
 20
1148.4359445311363
 30
0.0
 11
593.20475442192844
 21
1157.4359445311363
 31
0.0
  0
LINE
  5
499
100
AcDbEntity
  8
Layer00016
  6
Continuous
 62
               7
100
AcDbLine
 10
609.27582223379386
 20
1148.4359445311363
 30
0.0
 11
600.27582223379386
 21
1157.4359445311363
 31
0.0
  0
LINE
  5
49A
100
AcDbEntity
  8
Layer00016
  6
Continuous
 62
               7
100
AcDbLine
 10
616.34689004565939
 20
1148.4359445311363
 30
0.0
 11
607.34689004565939
 21
1157.4359445311363
 31
0.0
  0
LINE
  5
49B
100
AcDbEntity
  8
Layer00016
  6
Continuous
 62
               7
100
AcDbLine
 10
623.41795785752481
 20
1148.4359445311363
 30
0.0
 11
614.41795785752481
 21
1157.4359445311363
 31
0.0
  0
LINE
  5
49C
100
AcDbEntity
  8
Layer00016
  6
Continuous
 62
               7
100
AcDbLine
 10
630.48902566939034
 20
1148.4359445311363
 30
0.0
 11
621.48902566939034
 21
1157.4359445311363
 31
0.0
  0
LINE
  5
49D
100
AcDbEntity
  8
Layer00016
  6
Continuous
 62
               7
100
AcDbLine
 10
637.56009348125576
 20
1148.4359445311363
 30
0.0
 11
628.56009348125576
 21
1157.4359445311363
 31
0.0
  0
LINE
  5
49E
100
AcDbEntity
  8
Layer00016
  6
Continuous
 62
               7
100
AcDbLine
 10
644.63116129312129
 20
1148.4359445311363
 30
0.0
 11
635.63116129312129
 21
1157.4359445311363
 31
0.0
  0
LINE
  5
49F
100
AcDbEntity
  8
Layer00016
  6
Continuous
 62
               7
100
AcDbLine
 10
651.70222910498671
 20
1148.4359445311363
 30
0.0
 11
642.70222910498671
 21
1157.4359445311363
 31
0.0
  0
LINE
  5
4A0
100
AcDbEntity
  8
Layer00016
  6
Continuous
 62
               7
100
AcDbLine
 10
657.6504972790392
 20
1149.5587441689493
 30
0.0
 11
649.77329691685225
 21
1157.4359445311363
 31
0.0
  0
LINE
  5
4A1
100
AcDbEntity
  8
Layer00016
  6
Continuous
 62
               7
100
AcDbLine
 10
657.6504972790392
 20
1156.6298119808148
 30
0.0
 11
656.84436472871766
 21
1157.4359445311363
 31
0.0
  0
LINE
  5
4A2
100
AcDbEntity
  8
Layer00016
  6
Continuous
 62
               7
100
AcDbLine
 10
276.07272006596412
 20
1262.4359445311363
 30
0.0
 11
273.94955658560622
 21
1264.5591080114941
 31
0.0
  0
LINE
  5
4A3
100
AcDbEntity
  8
Layer00016
  6
Continuous
 62
               7
100
AcDbLine
 10
283.1437878778296
 20
1262.4359445311363
 30
0.0
 11
274.1437878778296
 21
1271.4359445311363
 31
0.0
  0
LINE
  5
4A4
100
AcDbEntity
  8
Layer00016
  6
Continuous
 62
               7
100
AcDbLine
 10
290.21485568969507
 20
1262.4359445311363
 30
0.0
 11
281.21485568969507
 21
1271.4359445311363
 31
0.0
  0
LINE
  5
4A5
100
AcDbEntity
  8
Layer00016
  6
Continuous
 62
               7
100
AcDbLine
 10
297.28592350156055
 20
1262.4359445311363
 30
0.0
 11
288.28592350156055
 21
1271.4359445311363
 31
0.0
  0
LINE
  5
4A6
100
AcDbEntity
  8
Layer00016
  6
Continuous
 62
               7
100
AcDbLine
 10
304.35699131342602
 20
1262.4359445311363
 30
0.0
 11
295.35699131342602
 21
1271.4359445311363
 31
0.0
  0
LINE
  5
4A7
100
AcDbEntity
  8
Layer00016
  6
Continuous
 62
               7
100
AcDbLine
 10
311.4280591252915
 20
1262.4359445311363
 30
0.0
 11
302.4280591252915
 21
1271.4359445311363
 31
0.0
  0
LINE
  5
4A8
100
AcDbEntity
  8
Layer00016
  6
Continuous
 62
               7
100
AcDbLine
 10
318.49912693715697
 20
1262.4359445311363
 30
0.0
 11
309.49912693715697
 21
1271.4359445311363
 31
0.0
  0
LINE
  5
4A9
100
AcDbEntity
  8
Layer00016
  6
Continuous
 62
               7
100
AcDbLine
 10
325.57019474902245
 20
1262.4359445311363
 30
0.0
 11
316.57019474902245
 21
1271.4359445311363
 31
0.0
  0
LINE
  5
4AA
100
AcDbEntity
  8
Layer00016
  6
Continuous
 62
               7
100
AcDbLine
 10
332.64126256088792
 20
1262.4359445311363
 30
0.0
 11
323.64126256088792
 21
1271.4359445311363
 31
0.0
  0
LINE
  5
4AB
100
AcDbEntity
  8
Layer00016
  6
Continuous
 62
               7
100
AcDbLine
 10
339.7123303727534
 20
1262.4359445311363
 30
0.0
 11
330.7123303727534
 21
1271.4359445311363
 31
0.0
  0
LINE
  5
4AC
100
AcDbEntity
  8
Layer00016
  6
Continuous
 62
               7
100
AcDbLine
 10
346.78339818461887
 20
1262.4359445311363
 30
0.0
 11
337.78339818461887
 21
1271.4359445311363
 31
0.0
  0
LINE
  5
4AD
100
AcDbEntity
  8
Layer00016
  6
Continuous
 62
               7
100
AcDbLine
 10
353.85446599648435
 20
1262.4359445311363
 30
0.0
 11
344.85446599648435
 21
1271.4359445311363
 31
0.0
  0
LINE
  5
4AE
100
AcDbEntity
  8
Layer00016
  6
Continuous
 62
               7
100
AcDbLine
 10
360.92553380834983
 20
1262.4359445311363
 30
0.0
 11
351.92553380834983
 21
1271.4359445311363
 31
0.0
  0
LINE
  5
4AF
100
AcDbEntity
  8
Layer00016
  6
Continuous
 62
               7
100
AcDbLine
 10
367.9966016202153
 20
1262.4359445311363
 30
0.0
 11
358.9966016202153
 21
1271.4359445311363
 31
0.0
  0
LINE
  5
4B0
100
AcDbEntity
  8
Layer00016
  6
Continuous
 62
               7
100
AcDbLine
 10
375.06766943208078
 20
1262.4359445311363
 30
0.0
 11
366.06766943208078
 21
1271.4359445311363
 31
0.0
  0
LINE
  5
4B1
100
AcDbEntity
  8
Layer00016
  6
Continuous
 62
               7
100
AcDbLine
 10
382.13873724394625
 20
1262.4359445311363
 30
0.0
 11
373.13873724394625
 21
1271.4359445311363
 31
0.0
  0
LINE
  5
4B2
100
AcDbEntity
  8
Layer00016
  6
Continuous
 62
               7
100
AcDbLine
 10
389.20980505581173
 20
1262.4359445311363
 30
0.0
 11
380.20980505581173
 21
1271.4359445311363
 31
0.0
  0
LINE
  5
4B3
100
AcDbEntity
  8
Layer00016
  6
Continuous
 62
               7
100
AcDbLine
 10
396.2808728676772
 20
1262.4359445311363
 30
0.0
 11
387.2808728676772
 21
1271.4359445311363
 31
0.0
  0
LINE
  5
4B4
100
AcDbEntity
  8
Layer00016
  6
Continuous
 62
               7
100
AcDbLine
 10
403.35194067954268
 20
1262.4359445311363
 30
0.0
 11
394.35194067954268
 21
1271.4359445311363
 31
0.0
  0
LINE
  5
4B5
100
AcDbEntity
  8
Layer00016
  6
Continuous
 62
               7
100
AcDbLine
 10
410.42300849140815
 20
1262.4359445311363
 30
0.0
 11
401.42300849140815
 21
1271.4359445311363
 31
0.0
  0
LINE
  5
4B6
100
AcDbEntity
  8
Layer00016
  6
Continuous
 62
               7
100
AcDbLine
 10
417.49407630327363
 20
1262.4359445311363
 30
0.0
 11
408.49407630327363
 21
1271.4359445311363
 31
0.0
  0
LINE
  5
4B7
100
AcDbEntity
  8
Layer00016
  6
Continuous
 62
               7
100
AcDbLine
 10
424.56514411513911
 20
1262.4359445311363
 30
0.0
 11
415.56514411513911
 21
1271.4359445311363
 31
0.0
  0
LINE
  5
4B8
100
AcDbEntity
  8
Layer00016
  6
Continuous
 62
               7
100
AcDbLine
 10
431.63621192700458
 20
1262.4359445311363
 30
0.0
 11
422.63621192700458
 21
1271.4359445311363
 31
0.0
  0
LINE
  5
4B9
100
AcDbEntity
  8
Layer00016
  6
Continuous
 62
               7
100
AcDbLine
 10
438.70727973887006
 20
1262.4359445311363
 30
0.0
 11
429.70727973887006
 21
1271.4359445311363
 31
0.0
  0
LINE
  5
4BA
100
AcDbEntity
  8
Layer00016
  6
Continuous
 62
               7
100
AcDbLine
 10
445.77834755073553
 20
1262.4359445311363
 30
0.0
 11
436.77834755073553
 21
1271.4359445311363
 31
0.0
  0
LINE
  5
4BB
100
AcDbEntity
  8
Layer00016
  6
Continuous
 62
               7
100
AcDbLine
 10
452.84941536260101
 20
1262.4359445311363
 30
0.0
 11
443.84941536260101
 21
1271.4359445311363
 31
0.0
  0
LINE
  5
4BC
100
AcDbEntity
  8
Layer00016
  6
Continuous
 62
               7
100
AcDbLine
 10
459.92048317446648
 20
1262.4359445311363
 30
0.0
 11
450.92048317446648
 21
1271.4359445311363
 31
0.0
  0
LINE
  5
4BD
100
AcDbEntity
  8
Layer00016
  6
Continuous
 62
               7
100
AcDbLine
 10
466.99155098633196
 20
1262.4359445311363
 30
0.0
 11
457.99155098633196
 21
1271.4359445311363
 31
0.0
  0
LINE
  5
4BE
100
AcDbEntity
  8
Layer00016
  6
Continuous
 62
               7
100
AcDbLine
 10
474.06261879819743
 20
1262.4359445311363
 30
0.0
 11
465.06261879819743
 21
1271.4359445311363
 31
0.0
  0
LINE
  5
4BF
100
AcDbEntity
  8
Layer00016
  6
Continuous
 62
               7
100
AcDbLine
 10
481.13368661006291
 20
1262.4359445311363
 30
0.0
 11
472.13368661006291
 21
1271.4359445311363
 31
0.0
  0
LINE
  5
4C0
100
AcDbEntity
  8
Layer00016
  6
Continuous
 62
               7
100
AcDbLine
 10
488.20475442192838
 20
1262.4359445311363
 30
0.0
 11
479.20475442192838
 21
1271.4359445311363
 31
0.0
  0
LINE
  5
4C1
100
AcDbEntity
  8
Layer00016
  6
Continuous
 62
               7
100
AcDbLine
 10
495.27582223379386
 20
1262.4359445311363
 30
0.0
 11
486.27582223379386
 21
1271.4359445311363
 31
0.0
  0
LINE
  5
4C2
100
AcDbEntity
  8
Layer00016
  6
Continuous
 62
               7
100
AcDbLine
 10
502.34689004565934
 20
1262.4359445311363
 30
0.0
 11
493.34689004565934
 21
1271.4359445311363
 31
0.0
  0
LINE
  5
4C3
100
AcDbEntity
  8
Layer00016
  6
Continuous
 62
               7
100
AcDbLine
 10
509.41795785752481
 20
1262.4359445311363
 30
0.0
 11
500.41795785752481
 21
1271.4359445311363
 31
0.0
  0
LINE
  5
4C4
100
AcDbEntity
  8
Layer00016
  6
Continuous
 62
               7
100
AcDbLine
 10
516.48902566939023
 20
1262.4359445311363
 30
0.0
 11
507.48902566939029
 21
1271.4359445311363
 31
0.0
  0
LINE
  5
4C5
100
AcDbEntity
  8
Layer00016
  6
Continuous
 62
               7
100
AcDbLine
 10
523.56009348125576
 20
1262.4359445311363
 30
0.0
 11
514.56009348125576
 21
1271.4359445311363
 31
0.0
  0
LINE
  5
4C6
100
AcDbEntity
  8
Layer00016
  6
Continuous
 62
               7
100
AcDbLine
 10
530.63116129312118
 20
1262.4359445311363
 30
0.0
 11
521.63116129312118
 21
1271.4359445311363
 31
0.0
  0
LINE
  5
4C7
100
AcDbEntity
  8
Layer00016
  6
Continuous
 62
               7
100
AcDbLine
 10
537.70222910498671
 20
1262.4359445311363
 30
0.0
 11
528.70222910498671
 21
1271.4359445311363
 31
0.0
  0
LINE
  5
4C8
100
AcDbEntity
  8
Layer00016
  6
Continuous
 62
               7
100
AcDbLine
 10
544.77329691685213
 20
1262.4359445311363
 30
0.0
 11
535.77329691685213
 21
1271.4359445311363
 31
0.0
  0
LINE
  5
4C9
100
AcDbEntity
  8
Layer00016
  6
Continuous
 62
               7
100
AcDbLine
 10
551.84436472871766
 20
1262.4359445311363
 30
0.0
 11
542.84436472871766
 21
1271.4359445311363
 31
0.0
  0
LINE
  5
4CA
100
AcDbEntity
  8
Layer00016
  6
Continuous
 62
               7
100
AcDbLine
 10
558.91543254058308
 20
1262.4359445311363
 30
0.0
 11
549.91543254058308
 21
1271.4359445311363
 31
0.0
  0
LINE
  5
4CB
100
AcDbEntity
  8
Layer00016
  6
Continuous
 62
               7
100
AcDbLine
 10
565.98650035244862
 20
1262.4359445311363
 30
0.0
 11
556.98650035244862
 21
1271.4359445311363
 31
0.0
  0
LINE
  5
4CC
100
AcDbEntity
  8
Layer00016
  6
Continuous
 62
               7
100
AcDbLine
 10
573.05756816431403
 20
1262.4359445311363
 30
0.0
 11
564.05756816431403
 21
1271.4359445311363
 31
0.0
  0
LINE
  5
4CD
100
AcDbEntity
  8
Layer00016
  6
Continuous
 62
               7
100
AcDbLine
 10
580.12863597617957
 20
1262.4359445311363
 30
0.0
 11
571.12863597617957
 21
1271.4359445311363
 31
0.0
  0
LINE
  5
4CE
100
AcDbEntity
  8
Layer00016
  6
Continuous
 62
               7
100
AcDbLine
 10
587.19970378804499
 20
1262.4359445311363
 30
0.0
 11
578.19970378804499
 21
1271.4359445311363
 31
0.0
  0
LINE
  5
4CF
100
AcDbEntity
  8
Layer00016
  6
Continuous
 62
               7
100
AcDbLine
 10
594.27077159991052
 20
1262.4359445311363
 30
0.0
 11
585.27077159991052
 21
1271.4359445311363
 31
0.0
  0
LINE
  5
4D0
100
AcDbEntity
  8
Layer00016
  6
Continuous
 62
               7
100
AcDbLine
 10
601.34183941177594
 20
1262.4359445311363
 30
0.0
 11
592.34183941177594
 21
1271.4359445311363
 31
0.0
  0
LINE
  5
4D1
100
AcDbEntity
  8
Layer00016
  6
Continuous
 62
               7
100
AcDbLine
 10
608.41290722364147
 20
1262.4359445311363
 30
0.0
 11
599.41290722364147
 21
1271.4359445311363
 31
0.0
  0
LINE
  5
4D2
100
AcDbEntity
  8
Layer00016
  6
Continuous
 62
               7
100
AcDbLine
 10
615.483975035507
 20
1262.4359445311363
 30
0.0
 11
606.48397503550689
 21
1271.4359445311363
 31
0.0
  0
LINE
  5
4D3
100
AcDbEntity
  8
Layer00016
  6
Continuous
 62
               7
100
AcDbLine
 10
622.55504284737242
 20
1262.4359445311363
 30
0.0
 11
613.55504284737242
 21
1271.4359445311363
 31
0.0
  0
LINE
  5
4D4
100
AcDbEntity
  8
Layer00016
  6
Continuous
 62
               7
100
AcDbLine
 10
629.62611065923795
 20
1262.4359445311363
 30
0.0
 11
620.62611065923784
 21
1271.4359445311363
 31
0.0
  0
LINE
  5
4D5
100
AcDbEntity
  8
Layer00016
  6
Continuous
 62
               7
100
AcDbLine
 10
636.69717847110337
 20
1262.4359445311363
 30
0.0
 11
627.69717847110337
 21
1271.4359445311363
 31
0.0
  0
LINE
  5
4D6
100
AcDbEntity
  8
Layer00016
  6
Continuous
 62
               7
100
AcDbLine
 10
643.76824628296879
 20
1262.4359445311363
 30
0.0
 11
634.76824628296879
 21
1271.4359445311363
 31
0.0
  0
LINE
  5
4D7
100
AcDbEntity
  8
Layer00016
  6
Continuous
 62
               7
100
AcDbLine
 10
650.83931409483432
 20
1262.4359445311363
 30
0.0
 11
641.83931409483432
 21
1271.4359445311363
 31
0.0
  0
LINE
  5
4D8
100
AcDbEntity
  8
Layer00016
  6
Continuous
 62
               7
100
AcDbLine
 10
657.6504972790392
 20
1262.6958291587969
 30
0.0
 11
648.91038190669974
 21
1271.4359445311363
 31
0.0
  0
LINE
  5
4D9
100
AcDbEntity
  8
Layer00016
  6
Continuous
 62
               7
100
AcDbLine
 10
657.6504972790392
 20
1269.7668969706624
 30
0.0
 11
655.98144971856527
 21
1271.4359445311363
 31
0.0
  0
LINE
  5
4DA
100
AcDbEntity
  8
Layer00016
  6
Continuous
 62
               4
100
AcDbLine
 10
282.94955658560622
 20
865.72161325521029
 30
0.0
 11
387.94955658560622
 21
865.72161325521029
 31
0.0
  0
LINE
  5
4DB
100
AcDbEntity
  8
Layer00016
  6
DASHDOT
 62
               4
100
AcDbLine
 10
335.44955658560622
 20
895.39060204732561
 30
0.0
 11
335.44955658560622
 21
1227.6040992595865
 31
0.0
  0
LINE
  5
4DC
100
AcDbEntity
  8
Layer00016
  6
Continuous
 62
               7
100
AcDbLine
 10
396.94955658560622
 20
842.48016984392598
 30
0.0
 11
396.25327801179861
 21
841.78389127011837
 31
0.0
  0
LINE
  5
4DD
100
AcDbEntity
  8
Layer00016
  6
Continuous
 62
               7
100
AcDbLine
 10
396.94955658560622
 20
849.5512376557914
 30
0.0
 11
389.18221019993314
 21
841.78389127011837
 31
0.0
  0
LINE
  5
4DE
100
AcDbEntity
  8
Layer00016
  6
Continuous
 62
               7
100
AcDbLine
 10
396.94955658560622
 20
856.62230546765693
 30
0.0
 11
387.94955658560622
 21
847.62230546765693
 31
0.0
  0
LINE
  5
4DF
100
AcDbEntity
  8
Layer00016
  6
Continuous
 62
               7
100
AcDbLine
 10
396.94955658560622
 20
863.69337327952235
 30
0.0
 11
387.94955658560622
 21
854.69337327952235
 31
0.0
  0
LINE
  5
4E0
100
AcDbEntity
  8
Layer00016
  6
Continuous
 62
               7
100
AcDbLine
 10
396.94955658560622
 20
870.76444109138788
 30
0.0
 11
387.94955658560622
 21
861.76444109138788
 31
0.0
  0
LINE
  5
4E1
100
AcDbEntity
  8
Layer00016
  6
Continuous
 62
               7
100
AcDbLine
 10
396.94955658560622
 20
877.8355089032533
 30
0.0
 11
387.94955658560622
 21
868.8355089032533
 31
0.0
  0
LINE
  5
4E2
100
AcDbEntity
  8
Layer00016
  6
Continuous
 62
               7
100
AcDbLine
 10
396.94955658560622
 20
884.90657671511883
 30
0.0
 11
387.94955658560622
 21
875.90657671511883
 31
0.0
  0
LINE
  5
4E3
100
AcDbEntity
  8
Layer00016
  6
Continuous
 62
               7
100
AcDbLine
 10
396.94955658560622
 20
891.97764452698425
 30
0.0
 11
387.94955658560622
 21
882.97764452698425
 31
0.0
  0
LINE
  5
4E4
100
AcDbEntity
  8
Layer00016
  6
Continuous
 62
               7
100
AcDbLine
 10
396.94955658560622
 20
899.04871233884978
 30
0.0
 11
387.94955658560622
 21
890.04871233884978
 31
0.0
  0
LINE
  5
4E5
100
AcDbEntity
  8
Layer00016
  6
Continuous
 62
               7
100
AcDbLine
 10
396.94955658560622
 20
906.1197801507152
 30
0.0
 11
387.94955658560622
 21
897.1197801507152
 31
0.0
  0
LINE
  5
4E6
100
AcDbEntity
  8
Layer00016
  6
Continuous
 62
               7
100
AcDbLine
 10
396.94955658560622
 20
913.19084796258073
 30
0.0
 11
387.94955658560622
 21
904.19084796258073
 31
0.0
  0
LINE
  5
4E7
100
AcDbEntity
  8
Layer00016
  6
Continuous
 62
               7
100
AcDbLine
 10
393.12358534229617
 20
916.4359445311361
 30
0.0
 11
387.94955658560622
 21
911.26191577444615
 31
0.0
  0
LINE
  5
4E8
100
AcDbEntity
  8
Layer00016
  6
Continuous
 62
               4
100
AcDbLine
 10
524.99300495482362
 20
1157.4359445311363
 30
0.0
 11
524.99300495482362
 21
1262.4359445311363
 31
0.0
  0
LINE
  5
4E9
100
AcDbEntity
  8
Layer00016
  6
DASHDOT
 62
               4
100
AcDbLine
 10
531.79218886621982
 20
1209.9359445311363
 30
0.0
 11
755.68893663600488
 21
1209.9359445311363
 31
0.0
  0
LINE
  5
4EA
100
AcDbEntity
  8
Layer00016
  6
Continuous
 62
               7
100
AcDbLine
 10
635.93674862317459
 20
1157.15122838924
 30
0.0
 11
702.56962770326527
 21
1188.1296721720892
 31
0.0
  0
LINE
  5
4EB
100
AcDbEntity
  8
Layer00016
  6
Continuous
 62
               7
100
AcDbLine
 10
635.93674862317459
 20
1157.15122838924
 30
0.0
 11
648.23388758217743
 21
1165.7407786349152
 31
0.0
  0
LINE
  5
4EC
100
AcDbEntity
  8
Layer00016
  6
Continuous
 62
               7
100
AcDbLine
 10
635.93674862317459
 20
1157.15122838924
 30
0.0
 11
650.43007856585723
 21
1161.0168961417169
 31
0.0
  0
LINE
  5
4ED
100
AcDbEntity
  8
Layer00016
  6
Continuous
 62
               7
100
AcDbLine
 10
702.56962770326527
 20
1188.1296721720892
 30
0.0
 11
844.60286995293222
 21
1188.1296721720892
 31
0.0
  0
LINE
  5
4EE
100
AcDbEntity
  8
Layer00016
  6
Continuous
 62
               7
100
AcDbLine
 10
282.94955658560622
 20
648.17716311927609
 30
0.0
 11
273.94955658560622
 21
639.17716311927609
 31
0.0
  0
LINE
  5
4EF
100
AcDbEntity
  8
Layer00016
  6
Continuous
 62
               7
100
AcDbLine
 10
282.94955658560622
 20
641.10609530741056
 30
0.0
 11
273.94955658560622
 21
632.10609530741056
 31
0.0
  0
LINE
  5
4F0
100
AcDbEntity
  8
Layer00016
  6
Continuous
 62
               7
100
AcDbLine
 10
282.94955658560622
 20
634.03502749554514
 30
0.0
 11
273.94955658560622
 21
625.03502749554514
 31
0.0
  0
LINE
  5
4F1
100
AcDbEntity
  8
Layer00016
  6
Continuous
 62
               7
100
AcDbLine
 10
282.94955658560622
 20
626.9639596836796
 30
0.0
 11
273.94955658560622
 21
617.9639596836796
 31
0.0
  0
LINE
  5
4F2
100
AcDbEntity
  8
Layer00016
  6
Continuous
 62
               7
100
AcDbLine
 10
282.94955658560622
 20
619.89289187181419
 30
0.0
 11
273.94955658560622
 21
610.89289187181419
 31
0.0
  0
LINE
  5
4F3
100
AcDbEntity
  8
Layer00016
  6
Continuous
 62
               7
100
AcDbLine
 10
282.94955658560622
 20
612.82182405994865
 30
0.0
 11
273.94955658560622
 21
603.82182405994865
 31
0.0
  0
LINE
  5
4F4
100
AcDbEntity
  8
Layer00016
  6
Continuous
 62
               7
100
AcDbLine
 10
282.94955658560622
 20
605.75075624808323
 30
0.0
 11
273.94955658560622
 21
596.75075624808323
 31
0.0
  0
LINE
  5
4F5
100
AcDbEntity
  8
Layer00016
  6
Continuous
 62
               7
100
AcDbLine
 10
282.94955658560622
 20
598.6796884362177
 30
0.0
 11
273.94955658560622
 21
589.6796884362177
 31
0.0
  0
LINE
  5
4F6
100
AcDbEntity
  8
Layer00016
  6
Continuous
 62
               7
100
AcDbLine
 10
282.94955658560622
 20
591.60862062435228
 30
0.0
 11
273.94955658560622
 21
582.60862062435228
 31
0.0
  0
LINE
  5
4F7
100
AcDbEntity
  8
Layer00016
  6
Continuous
 62
               7
100
AcDbLine
 10
282.94955658560622
 20
584.53755281248675
 30
0.0
 11
273.94955658560622
 21
575.53755281248675
 31
0.0
  0
LINE
  5
4F8
100
AcDbEntity
  8
Layer00016
  6
Continuous
 62
               7
100
AcDbLine
 10
282.94955658560622
 20
577.46648500062133
 30
0.0
 11
276.37596345679907
 21
570.89289187181407
 31
0.0
  0
LINE
  5
4F9
100
AcDbEntity
  8
Layer00016
  6
Continuous
 62
               2
100
AcDbLine
 10
220.94955658560608
 20
718.39289187181407
 30
0.0
 11
220.94955658560608
 21
776.39289187181407
 31
0.0
  0
LINE
  5
4FA
100
AcDbEntity
  8
Layer00016
  6
Continuous
 62
               4
100
AcDbLine
 10
222.44955658560608
 20
723.39289187181407
 30
0.0
 11
222.44955658560608
 21
736.61294823286437
 31
0.0
  0
LINE
  5
4FB
100
AcDbEntity
  8
Layer00016
  6
Continuous
 62
               4
100
AcDbLine
 10
223.44955658560608
 20
718.39289187181407
 30
0.0
 11
223.44955658560608
 21
723.39289187181407
 31
0.0
  0
LINE
  5
4FC
100
AcDbEntity
  8
Layer00016
  6
Continuous
 62
               4
100
AcDbLine
 10
223.44955658560608
 20
718.39289187181407
 30
0.0
 11
220.94955658560608
 21
718.39289187181407
 31
0.0
  0
LINE
  5
4FD
100
AcDbEntity
  8
Layer00016
  6
Continuous
 62
               4
100
AcDbLine
 10
223.44955658560608
 20
723.39289187181407
 30
0.0
 11
222.44955658560608
 21
723.39289187181407
 31
0.0
  0
LINE
  5
4FE
100
AcDbEntity
  8
Layer00016
  6
Continuous
 62
               4
100
AcDbLine
 10
227.48005732745105
 20
736.61294823286437
 30
0.0
 11
222.44955658560608
 21
736.61294823286437
 31
0.0
  0
LINE
  5
4FF
100
AcDbEntity
  8
Layer00016
  6
Continuous
 62
               4
100
AcDbLine
 10
227.48005732745105
 20
738.11294823286437
 30
0.0
 11
222.44955658560608
 21
738.11294823286437
 31
0.0
  0
LINE
  5
500
100
AcDbEntity
  8
Layer00016
  6
Continuous
 62
               4
100
AcDbLine
 10
227.48005732745105
 20
738.11294823286437
 30
0.0
 11
227.48005732745105
 21
736.61294823286437
 31
0.0
  0
LINE
  5
501
100
AcDbEntity
  8
Layer00016
  6
Continuous
 62
               4
100
AcDbLine
 10
222.44955658560608
 20
738.11294823286437
 30
0.0
 11
222.44955658560608
 21
775.16318601773628
 31
0.0
  0
LINE
  5
502
100
AcDbEntity
  8
Layer00016
  6
Continuous
 62
               4
100
AcDbLine
 10
380.44955658560639
 20
762.39289187181407
 30
0.0
 11
290.44955658560622
 21
762.39289187181407
 31
0.0
  0
LINE
  5
503
100
AcDbEntity
  8
Layer00016
  6
Continuous
 62
               2
100
AcDbLine
 10
235.94952628568279
 20
779.39289187181407
 30
0.0
 11
401.09530052029982
 21
779.39289187181407
 31
0.0
  0
LINE
  5
504
100
AcDbEntity
  8
Layer00016
  6
Continuous
 62
               4
100
AcDbLine
 10
236.09808585599529
 20
777.89289187181407
 30
0.0
 11
400.94677124991068
 21
777.89289187181407
 31
0.0
  0
LINE
  5
505
100
AcDbEntity
  8
Layer00016
  6
Continuous
 62
               4
100
AcDbLine
 10
414.59530052029987
 20
775.16318601773628
 30
0.0
 11
414.59530052029987
 21
738.11294823286437
 31
0.0
  0
LINE
  5
506
100
AcDbEntity
  8
Layer00016
  6
Continuous
 62
               2
100
AcDbLine
 10
416.09530052029987
 20
776.39289187181407
 30
0.0
 11
416.09530052029987
 21
718.39289187181407
 31
0.0
  0
LINE
  5
507
100
AcDbEntity
  8
Layer00016
  6
Continuous
 62
               4
100
AcDbLine
 10
414.59530052029987
 20
718.39289187181407
 30
0.0
 11
416.09530052029987
 21
718.39289187181407
 31
0.0
  0
LINE
  5
508
100
AcDbEntity
  8
Layer00016
  6
Continuous
 62
               4
100
AcDbLine
 10
413.59530052029993
 20
718.39289187181407
 30
0.0
 11
413.59530052029993
 21
723.39289187181407
 31
0.0
  0
LINE
  5
509
100
AcDbEntity
  8
Layer00016
  6
Continuous
 62
               4
100
AcDbLine
 10
413.59530052029993
 20
718.39289187181407
 30
0.0
 11
416.09530052029993
 21
718.39289187181407
 31
0.0
  0
LINE
  5
50A
100
AcDbEntity
  8
Layer00016
  6
Continuous
 62
               4
100
AcDbLine
 10
413.59530052029993
 20
723.39289187181407
 30
0.0
 11
414.59530052029987
 21
723.39289187181407
 31
0.0
  0
LINE
  5
50B
100
AcDbEntity
  8
Layer00016
  6
Continuous
 62
               4
100
AcDbLine
 10
409.56479977845493
 20
736.61294823286437
 30
0.0
 11
414.59530052029993
 21
736.61294823286437
 31
0.0
  0
LINE
  5
50C
100
AcDbEntity
  8
Layer00016
  6
Continuous
 62
               4
100
AcDbLine
 10
409.56479977845493
 20
738.11294823286437
 30
0.0
 11
414.59530052029993
 21
738.11294823286437
 31
0.0
  0
LINE
  5
50D
100
AcDbEntity
  8
Layer00016
  6
Continuous
 62
               4
100
AcDbLine
 10
409.56479977845493
 20
738.11294823286437
 30
0.0
 11
409.56479977845493
 21
736.61294823286437
 31
0.0
  0
LINE
  5
50E
100
AcDbEntity
  8
Layer00016
  6
Continuous
 62
               4
100
AcDbLine
 10
414.59530052029987
 20
736.61294823286437
 30
0.0
 11
414.59530052029987
 21
723.39289187181407
 31
0.0
  0
LINE
  5
50F
100
AcDbEntity
  8
Layer00016
  6
Continuous
 62
               4
100
AcDbLine
 10
290.44955658560622
 20
762.39289187181407
 30
0.0
 11
290.44955658560622
 21
777.89289187181407
 31
0.0
  0
LINE
  5
510
100
AcDbEntity
  8
Layer00016
  6
Continuous
 62
               4
100
AcDbLine
 10
380.44955658560639
 20
762.39289187181407
 30
0.0
 11
380.44955658560639
 21
777.89289187181407
 31
0.0
  0
LINE
  5
511
100
AcDbEntity
  8
Layer00016
  6
Continuous
 62
               4
100
AcDbLine
 10
380.44955658560639
 20
769.39289187181407
 30
0.0
 11
290.44955658560622
 21
769.39289187181407
 31
0.0
  0
LINE
  5
512
100
AcDbEntity
  8
Layer00016
  6
Continuous
 62
               4
100
AcDbLine
 10
380.44955658560639
 20
772.39289187181407
 30
0.0
 11
290.44955658560622
 21
772.39289187181407
 31
0.0
  0
LINE
  5
513
100
AcDbEntity
  8
Layer00016
  6
Continuous
 62
               2
100
AcDbLine
 10
235.9495565856061
 20
779.39289187181407
 30
0.0
 11
220.94955658560608
 21
776.39289187181407
 31
0.0
  0
LINE
  5
514
100
AcDbEntity
  8
Layer00016
  6
Continuous
 62
               4
100
AcDbLine
 10
236.09808585599529
 20
777.89289187181407
 30
0.0
 11
222.44955658560608
 21
775.16318601773628
 31
0.0
  0
LINE
  5
515
100
AcDbEntity
  8
Layer00016
  6
Continuous
 62
               2
100
AcDbLine
 10
401.09530052029982
 20
779.39289187181407
 30
0.0
 11
416.09530052029987
 21
776.39289187181407
 31
0.0
  0
LINE
  5
516
100
AcDbEntity
  8
Layer00016
  6
Continuous
 62
               4
100
AcDbLine
 10
400.94677124991068
 20
777.89289187181407
 30
0.0
 11
414.59530052029987
 21
775.16318601773628
 31
0.0
  0
LINE
  5
517
100
AcDbEntity
  8
Layer00016
  6
Continuous
 62
               4
100
AcDbLine
 10
282.94955658560622
 20
624.39289187181407
 30
0.0
 11
387.94955658560622
 21
624.39289187181407
 31
0.0
  0
LINE
  5
518
100
AcDbEntity
  8
Layer00016
  6
DASHDOT
 62
               4
100
AcDbLine
 10
335.44955658560622
 20
656.63546268857169
 30
0.0
 11
335.44955658560622
 21
774.94767222305029
 31
0.0
  0
LINE
  5
519
100
AcDbEntity
  8
Layer00016
  6
Continuous
 62
               7
100
AcDbLine
 10
392.18090646791399
 20
720.7425313321487
 30
0.0
 11
482.81776513449478
 21
899.72298272439718
 31
0.0
  0
LINE
  5
51A
100
AcDbEntity
  8
Layer00016
  6
Continuous
 62
               7
100
AcDbLine
 10
482.81776513449478
 20
899.72298272439718
 30
0.0
 11
605.32750662710396
 21
899.72298272439718
 31
0.0
  0
LINE
  5
51B
100
AcDbEntity
  8
Layer00016
  6
Continuous
 62
               7
100
AcDbLine
 10
483.00995924757314
 20
879.72298272439718
 30
0.0
 11
605.32750662710396
 21
879.72298272439718
 31
0.0
  0
LINE
  5
51C
100
AcDbEntity
  8
Layer00016
  6
Continuous
 62
               7
100
AcDbLine
 10
483.00995924757314
 20
859.72298272439718
 30
0.0
 11
709.63153625265488
 21
859.72298272439718
 31
0.0
  0
LINE
  5
51D
100
AcDbEntity
  8
Layer00016
  6
Continuous
 62
               7
100
AcDbLine
 10
483.00995924757314
 20
839.72298272439718
 30
0.0
 11
605.32750662710396
 21
839.72298272439718
 31
0.0
  0
LINE
  5
51E
100
AcDbEntity
  8
Layer00016
  6
Continuous
 62
               7
100
AcDbLine
 10
483.00995924757314
 20
819.72298272439718
 30
0.0
 11
605.32750662710396
 21
819.72298272439718
 31
0.0
  0
LINE
  5
51F
100
AcDbEntity
  8
Layer00016
  6
Continuous
 62
               4
100
AcDbLine
 10
681.36756093935605
 20
1016.7032036129373
 30
0.0
 11
944.55421371609793
 21
1016.7032036129373
 31
0.0
  0
LINE
  5
520
100
AcDbEntity
  8
Layer00016
  6
Continuous
 62
               4
100
AcDbLine
 10
944.55421371609793
 20
1016.7032036129373
 30
0.0
 11
944.55421371609793
 21
1053.4859165311325
 31
0.0
  0
LINE
  5
521
100
AcDbEntity
  8
Layer00016
  6
Continuous
 62
               4
100
AcDbLine
 10
944.55421371609793
 20
1053.4859165311325
 30
0.0
 11
681.36756093935605
 21
1053.4859165311325
 31
0.0
  0
LINE
  5
522
100
AcDbEntity
  8
Layer00016
  6
Continuous
 62
               4
100
AcDbLine
 10
681.36756093935605
 20
1053.4859165311325
 30
0.0
 11
681.36756093935605
 21
1016.7032036129373
 31
0.0
  0
LINE
  5
523
100
AcDbEntity
  8
Layer00016
  6
Continuous
 62
               4
100
AcDbLine
 10
672.48897506255037
 20
1090.9028141548138
 30
0.0
 11
711.174242097204
 21
1090.9028141548138
 31
0.0
  0
LINE
  5
524
100
AcDbEntity
  8
Layer00016
  6
Continuous
 62
               4
100
AcDbLine
 10
672.48897506255037
 20
1090.9028141548138
 30
0.0
 11
687.26109135773345
 21
1093.5075368198179
 31
0.0
  0
LINE
  5
525
100
AcDbEntity
  8
Layer00016
  6
Continuous
 62
               4
100
AcDbLine
 10
672.48897506255037
 20
1090.9028141548138
 30
0.0
 11
687.26109135773345
 21
1088.2980914898098
 31
0.0
  0
LINE
  5
526
100
AcDbEntity
  8
Layer00016
  6
Continuous
 62
               4
100
AcDbLine
 10
711.174242097204
 20
1090.9028141548138
 30
0.0
 11
711.174242097204
 21
1053.4859165311325
 31
0.0
  0
LINE
  5
527
100
AcDbEntity
  8
Layer00016
  6
Continuous
 62
               4
100
AcDbLine
 10
463.99403562045336
 20
694.39289187181419
 30
0.0
 11
463.99403562045336
 21
756.39289187181453
 31
0.0
  0
LINE
  5
528
100
AcDbEntity
  8
Layer00016
  6
Continuous
 62
               7
100
AcDbLine
 10
436.15608676260973
 20
687.5426329326051
 30
0.0
 11
508.38089248961535
 21
776.53391141766554
 31
0.0
  0
LINE
  5
529
100
AcDbEntity
  8
Layer00016
  6
Continuous
 62
               7
100
AcDbLine
 10
436.15608676260973
 20
687.5426329326051
 30
0.0
 11
443.44255686783259
 21
700.65397738714876
 31
0.0
  0
LINE
  5
52A
100
AcDbEntity
  8
Layer00016
  6
Continuous
 62
               7
100
AcDbLine
 10
436.15608676260973
 20
687.5426329326051
 30
0.0
 11
447.48747286160005
 21
697.37114701539554
 31
0.0
  0
LINE
  5
52B
100
AcDbEntity
  8
Layer00016
  6
Continuous
 62
               4
100
AcDbLine
 10
568.61362336561274
 20
624.39289187181407
 30
0.0
 11
400.94955658560622
 21
624.39289187181407
 31
0.0
  0
LINE
  5
52C
100
AcDbEntity
  8
Layer00016
  6
DOT
 62
               6
100
AcDbLine
 10
402.66520217234518
 20
757.31716811931631
 30
0.0
 11
402.66520217234518
 21
725.63913184541889
 31
0.0
  0
LINE
  5
52D
100
AcDbEntity
  8
Layer00016
  6
Continuous
 62
               7
100
AcDbLine
 10
403.99752676789336
 20
758.36310125927662
 30
0.0
 11
403.99752676789336
 21
725.63913184541889
 31
0.0
  0
LINE
  5
52E
100
AcDbEntity
  8
Layer00016
  6
Continuous
 62
               7
100
AcDbLine
 10
403.99752676789336
 20
725.63913184541889
 30
0.0
 11
402.68535704748848
 21
722.06712069837374
 31
0.0
  0
LINE
  5
52F
100
AcDbEntity
  8
Layer00016
  6
Continuous
 62
               7
100
AcDbLine
 10
402.68535704748848
 20
722.06712069837374
 30
0.0
 11
402.68535704748848
 21
706.51790951157568
 31
0.0
  0
LINE
  5
530
100
AcDbEntity
  8
Layer00016
  6
Continuous
 62
               7
100
AcDbLine
 10
402.18535704748848
 20
722.15605230809967
 30
0.0
 11
402.18535704748848
 21
706.51790951157568
 31
0.0
  0
LINE
  5
531
100
AcDbEntity
  8
Layer00016
  6
Continuous
 62
               7
100
AcDbLine
 10
403.49752676789336
 20
725.72806345514482
 30
0.0
 11
402.18535704748848
 21
722.15605230809967
 31
0.0
  0
LINE
  5
532
100
AcDbEntity
  8
Layer00016
  6
Continuous
 62
               7
100
AcDbLine
 10
403.49752676789336
 20
758.36310125927662
 30
0.0
 11
403.49752676789336
 21
725.72806345514482
 31
0.0
  0
LINE
  5
533
100
AcDbEntity
  8
Layer00016
  6
Continuous
 62
               7
100
AcDbLine
 10
403.49752676789336
 20
758.36310125927662
 30
0.0
 11
403.99752676789336
 21
758.36310125927662
 31
0.0
  0
LINE
  5
534
100
AcDbEntity
  8
Layer00016
  6
Continuous
 62
               7
100
AcDbLine
 10
402.18535704748848
 20
706.51790951157568
 30
0.0
 11
402.68535704748848
 21
706.51790951157568
 31
0.0
  0
LINE
  5
535
100
AcDbEntity
  8
Layer00016
  6
Continuous
 62
               7
100
AcDbLine
 10
402.68535704748848
 20
706.67909659110694
 30
0.0
 11
402.52416996795728
 21
706.51790951157568
 31
0.0
  0
LINE
  5
536
100
AcDbEntity
  8
Layer00016
  6
Continuous
 62
               7
100
AcDbLine
 10
402.68535704748848
 20
707.38620337229349
 30
0.0
 11
402.18535704748848
 21
706.88620337229349
 31
0.0
  0
LINE
  5
537
100
AcDbEntity
  8
Layer00016
  6
Continuous
 62
               7
100
AcDbLine
 10
402.68535704748848
 20
708.09331015348005
 30
0.0
 11
402.18535704748848
 21
707.59331015348005
 31
0.0
  0
LINE
  5
538
100
AcDbEntity
  8
Layer00016
  6
Continuous
 62
               7
100
AcDbLine
 10
402.68535704748848
 20
708.8004169346666
 30
0.0
 11
402.18535704748848
 21
708.30041693466649
 31
0.0
  0
LINE
  5
539
100
AcDbEntity
  8
Layer00016
  6
Continuous
 62
               7
100
AcDbLine
 10
402.68535704748848
 20
709.50752371585304
 30
0.0
 11
402.18535704748848
 21
709.00752371585304
 31
0.0
  0
LINE
  5
53A
100
AcDbEntity
  8
Layer00016
  6
Continuous
 62
               7
100
AcDbLine
 10
402.68535704748848
 20
710.21463049703959
 30
0.0
 11
402.18535704748848
 21
709.71463049703959
 31
0.0
  0
LINE
  5
53B
100
AcDbEntity
  8
Layer00016
  6
Continuous
 62
               7
100
AcDbLine
 10
402.68535704748848
 20
710.92173727822615
 30
0.0
 11
402.18535704748848
 21
710.42173727822615
 31
0.0
  0
LINE
  5
53C
100
AcDbEntity
  8
Layer00016
  6
Continuous
 62
               7
100
AcDbLine
 10
402.68535704748848
 20
711.6288440594127
 30
0.0
 11
402.18535704748848
 21
711.1288440594127
 31
0.0
  0
LINE
  5
53D
100
AcDbEntity
  8
Layer00016
  6
Continuous
 62
               7
100
AcDbLine
 10
402.68535704748848
 20
712.33595084059925
 30
0.0
 11
402.18535704748848
 21
711.83595084059925
 31
0.0
  0
LINE
  5
53E
100
AcDbEntity
  8
Layer00016
  6
Continuous
 62
               7
100
AcDbLine
 10
402.68535704748848
 20
713.04305762178581
 30
0.0
 11
402.18535704748848
 21
712.54305762178581
 31
0.0
  0
LINE
  5
53F
100
AcDbEntity
  8
Layer00016
  6
Continuous
 62
               7
100
AcDbLine
 10
402.68535704748848
 20
713.75016440297236
 30
0.0
 11
402.18535704748848
 21
713.25016440297236
 31
0.0
  0
LINE
  5
540
100
AcDbEntity
  8
Layer00016
  6
Continuous
 62
               7
100
AcDbLine
 10
402.68535704748848
 20
714.45727118415891
 30
0.0
 11
402.18535704748848
 21
713.95727118415891
 31
0.0
  0
LINE
  5
541
100
AcDbEntity
  8
Layer00016
  6
Continuous
 62
               7
100
AcDbLine
 10
402.68535704748848
 20
715.16437796534547
 30
0.0
 11
402.18535704748848
 21
714.66437796534547
 31
0.0
  0
LINE
  5
542
100
AcDbEntity
  8
Layer00016
  6
Continuous
 62
               7
100
AcDbLine
 10
402.68535704748848
 20
715.87148474653202
 30
0.0
 11
402.18535704748848
 21
715.37148474653202
 31
0.0
  0
LINE
  5
543
100
AcDbEntity
  8
Layer00016
  6
Continuous
 62
               7
100
AcDbLine
 10
402.68535704748848
 20
716.57859152771857
 30
0.0
 11
402.18535704748848
 21
716.07859152771857
 31
0.0
  0
LINE
  5
544
100
AcDbEntity
  8
Layer00016
  6
Continuous
 62
               7
100
AcDbLine
 10
402.68535704748848
 20
717.28569830890513
 30
0.0
 11
402.18535704748848
 21
716.78569830890513
 31
0.0
  0
LINE
  5
545
100
AcDbEntity
  8
Layer00016
  6
Continuous
 62
               7
100
AcDbLine
 10
402.68535704748848
 20
717.99280509009168
 30
0.0
 11
402.18535704748848
 21
717.49280509009168
 31
0.0
  0
LINE
  5
546
100
AcDbEntity
  8
Layer00016
  6
Continuous
 62
               7
100
AcDbLine
 10
402.68535704748848
 20
718.69991187127823
 30
0.0
 11
402.18535704748848
 21
718.19991187127823
 31
0.0
  0
LINE
  5
547
100
AcDbEntity
  8
Layer00016
  6
Continuous
 62
               7
100
AcDbLine
 10
402.68535704748848
 20
719.40701865246479
 30
0.0
 11
402.18535704748848
 21
718.90701865246479
 31
0.0
  0
LINE
  5
548
100
AcDbEntity
  8
Layer00016
  6
Continuous
 62
               7
100
AcDbLine
 10
402.68535704748848
 20
720.11412543365134
 30
0.0
 11
402.18535704748848
 21
719.61412543365122
 31
0.0
  0
LINE
  5
549
100
AcDbEntity
  8
Layer00016
  6
Continuous
 62
               7
100
AcDbLine
 10
402.68535704748848
 20
720.82123221483778
 30
0.0
 11
402.18535704748848
 21
720.32123221483778
 31
0.0
  0
LINE
  5
54A
100
AcDbEntity
  8
Layer00016
  6
Continuous
 62
               7
100
AcDbLine
 10
402.68535704748848
 20
721.52833899602433
 30
0.0
 11
402.18535704748848
 21
721.02833899602433
 31
0.0
  0
LINE
  5
54B
100
AcDbEntity
  8
Layer00016
  6
Continuous
 62
               7
100
AcDbLine
 10
402.7830944679248
 20
722.33318319764726
 30
0.0
 11
402.18535704748848
 21
721.73544577721088
 31
0.0
  0
LINE
  5
54C
100
AcDbEntity
  8
Layer00016
  6
Continuous
 62
               7
100
AcDbLine
 10
403.19367376628969
 20
723.45086927719876
 30
0.0
 11
402.35171250451185
 21
722.60890801542087
 31
0.0
  0
LINE
  5
54D
100
AcDbEntity
  8
Layer00016
  6
Continuous
 62
               7
100
AcDbLine
 10
403.60425306465464
 20
724.56855535675015
 30
0.0
 11
402.7622918028768
 21
723.72659409497237
 31
0.0
  0
LINE
  5
54E
100
AcDbEntity
  8
Layer00016
  6
Continuous
 62
               7
100
AcDbLine
 10
403.99752676789336
 20
725.66893584117543
 30
0.0
 11
403.17287110124175
 21
724.84428017452387
 31
0.0
  0
LINE
  5
54F
100
AcDbEntity
  8
Layer00016
  6
Continuous
 62
               7
100
AcDbLine
 10
403.99752676789336
 20
726.37604262236198
 30
0.0
 11
403.49752676789336
 21
725.87604262236198
 31
0.0
  0
LINE
  5
550
100
AcDbEntity
  8
Layer00016
  6
Continuous
 62
               7
100
AcDbLine
 10
403.99752676789336
 20
727.08314940354853
 30
0.0
 11
403.49752676789336
 21
726.58314940354853
 31
0.0
  0
LINE
  5
551
100
AcDbEntity
  8
Layer00016
  6
Continuous
 62
               7
100
AcDbLine
 10
403.99752676789336
 20
727.79025618473509
 30
0.0
 11
403.49752676789336
 21
727.29025618473509
 31
0.0
  0
LINE
  5
552
100
AcDbEntity
  8
Layer00016
  6
Continuous
 62
               7
100
AcDbLine
 10
403.99752676789336
 20
728.49736296592164
 30
0.0
 11
403.49752676789336
 21
727.99736296592164
 31
0.0
  0
LINE
  5
553
100
AcDbEntity
  8
Layer00016
  6
Continuous
 62
               7
100
AcDbLine
 10
403.99752676789336
 20
729.20446974710819
 30
0.0
 11
403.49752676789336
 21
728.70446974710819
 31
0.0
  0
LINE
  5
554
100
AcDbEntity
  8
Layer00016
  6
Continuous
 62
               7
100
AcDbLine
 10
403.99752676789336
 20
729.91157652829475
 30
0.0
 11
403.49752676789336
 21
729.41157652829475
 31
0.0
  0
LINE
  5
555
100
AcDbEntity
  8
Layer00016
  6
Continuous
 62
               7
100
AcDbLine
 10
403.99752676789336
 20
730.6186833094813
 30
0.0
 11
403.49752676789336
 21
730.1186833094813
 31
0.0
  0
LINE
  5
556
100
AcDbEntity
  8
Layer00016
  6
Continuous
 62
               7
100
AcDbLine
 10
403.99752676789336
 20
731.32579009066785
 30
0.0
 11
403.49752676789336
 21
730.82579009066785
 31
0.0
  0
LINE
  5
557
100
AcDbEntity
  8
Layer00016
  6
Continuous
 62
               7
100
AcDbLine
 10
403.99752676789336
 20
732.0328968718544
 30
0.0
 11
403.49752676789336
 21
731.5328968718544
 31
0.0
  0
LINE
  5
558
100
AcDbEntity
  8
Layer00016
  6
Continuous
 62
               7
100
AcDbLine
 10
403.99752676789336
 20
732.74000365304096
 30
0.0
 11
403.49752676789336
 21
732.24000365304096
 31
0.0
  0
LINE
  5
559
100
AcDbEntity
  8
Layer00016
  6
Continuous
 62
               7
100
AcDbLine
 10
403.99752676789336
 20
733.44711043422751
 30
0.0
 11
403.49752676789336
 21
732.94711043422751
 31
0.0
  0
LINE
  5
55A
100
AcDbEntity
  8
Layer00016
  6
Continuous
 62
               7
100
AcDbLine
 10
403.99752676789336
 20
734.15421721541406
 30
0.0
 11
403.49752676789336
 21
733.65421721541406
 31
0.0
  0
LINE
  5
55B
100
AcDbEntity
  8
Layer00016
  6
Continuous
 62
               7
100
AcDbLine
 10
403.99752676789336
 20
734.8613239966005
 30
0.0
 11
403.49752676789336
 21
734.3613239966005
 31
0.0
  0
LINE
  5
55C
100
AcDbEntity
  8
Layer00016
  6
Continuous
 62
               7
100
AcDbLine
 10
403.99752676789336
 20
735.56843077778706
 30
0.0
 11
403.49752676789336
 21
735.06843077778706
 31
0.0
  0
LINE
  5
55D
100
AcDbEntity
  8
Layer00016
  6
Continuous
 62
               7
100
AcDbLine
 10
403.99752676789336
 20
736.27553755897361
 30
0.0
 11
403.49752676789336
 21
735.77553755897361
 31
0.0
  0
LINE
  5
55E
100
AcDbEntity
  8
Layer00016
  6
Continuous
 62
               7
100
AcDbLine
 10
403.99752676789336
 20
736.98264434016016
 30
0.0
 11
403.49752676789336
 21
736.48264434016016
 31
0.0
  0
LINE
  5
55F
100
AcDbEntity
  8
Layer00016
  6
Continuous
 62
               7
100
AcDbLine
 10
403.99752676789336
 20
737.68975112134672
 30
0.0
 11
403.49752676789336
 21
737.18975112134672
 31
0.0
  0
LINE
  5
560
100
AcDbEntity
  8
Layer00016
  6
Continuous
 62
               7
100
AcDbLine
 10
403.99752676789336
 20
738.39685790253327
 30
0.0
 11
403.49752676789336
 21
737.89685790253327
 31
0.0
  0
LINE
  5
561
100
AcDbEntity
  8
Layer00016
  6
Continuous
 62
               7
100
AcDbLine
 10
403.99752676789336
 20
739.10396468371982
 30
0.0
 11
403.49752676789336
 21
738.60396468371982
 31
0.0
  0
LINE
  5
562
100
AcDbEntity
  8
Layer00016
  6
Continuous
 62
               7
100
AcDbLine
 10
403.99752676789336
 20
739.81107146490638
 30
0.0
 11
403.49752676789336
 21
739.31107146490638
 31
0.0
  0
LINE
  5
563
100
AcDbEntity
  8
Layer00016
  6
Continuous
 62
               7
100
AcDbLine
 10
403.99752676789336
 20
740.51817824609293
 30
0.0
 11
403.49752676789336
 21
740.01817824609293
 31
0.0
  0
LINE
  5
564
100
AcDbEntity
  8
Layer00016
  6
Continuous
 62
               7
100
AcDbLine
 10
403.99752676789336
 20
741.22528502727948
 30
0.0
 11
403.49752676789336
 21
740.72528502727948
 31
0.0
  0
LINE
  5
565
100
AcDbEntity
  8
Layer00016
  6
Continuous
 62
               7
100
AcDbLine
 10
403.99752676789336
 20
741.93239180846604
 30
0.0
 11
403.49752676789336
 21
741.43239180846604
 31
0.0
  0
LINE
  5
566
100
AcDbEntity
  8
Layer00016
  6
Continuous
 62
               7
100
AcDbLine
 10
403.99752676789336
 20
742.63949858965259
 30
0.0
 11
403.49752676789336
 21
742.13949858965259
 31
0.0
  0
LINE
  5
567
100
AcDbEntity
  8
Layer00016
  6
Continuous
 62
               7
100
AcDbLine
 10
403.99752676789336
 20
743.34660537083914
 30
0.0
 11
403.49752676789336
 21
742.84660537083914
 31
0.0
  0
LINE
  5
568
100
AcDbEntity
  8
Layer00016
  6
Continuous
 62
               7
100
AcDbLine
 10
403.99752676789336
 20
744.0537121520257
 30
0.0
 11
403.49752676789336
 21
743.5537121520257
 31
0.0
  0
LINE
  5
569
100
AcDbEntity
  8
Layer00016
  6
Continuous
 62
               7
100
AcDbLine
 10
403.99752676789336
 20
744.76081893321225
 30
0.0
 11
403.49752676789336
 21
744.26081893321225
 31
0.0
  0
LINE
  5
56A
100
AcDbEntity
  8
Layer00016
  6
Continuous
 62
               7
100
AcDbLine
 10
403.99752676789336
 20
745.4679257143988
 30
0.0
 11
403.49752676789336
 21
744.9679257143988
 31
0.0
  0
LINE
  5
56B
100
AcDbEntity
  8
Layer00016
  6
Continuous
 62
               7
100
AcDbLine
 10
403.99752676789336
 20
746.17503249558524
 30
0.0
 11
403.49752676789336
 21
745.67503249558524
 31
0.0
  0
LINE
  5
56C
100
AcDbEntity
  8
Layer00016
  6
Continuous
 62
               7
100
AcDbLine
 10
403.99752676789336
 20
746.8821392767718
 30
0.0
 11
403.49752676789336
 21
746.3821392767718
 31
0.0
  0
LINE
  5
56D
100
AcDbEntity
  8
Layer00016
  6
Continuous
 62
               7
100
AcDbLine
 10
403.99752676789336
 20
747.58924605795835
 30
0.0
 11
403.49752676789336
 21
747.08924605795835
 31
0.0
  0
LINE
  5
56E
100
AcDbEntity
  8
Layer00016
  6
Continuous
 62
               7
100
AcDbLine
 10
403.99752676789336
 20
748.2963528391449
 30
0.0
 11
403.49752676789336
 21
747.7963528391449
 31
0.0
  0
LINE
  5
56F
100
AcDbEntity
  8
Layer00016
  6
Continuous
 62
               7
100
AcDbLine
 10
403.99752676789336
 20
749.00345962033145
 30
0.0
 11
403.49752676789336
 21
748.50345962033145
 31
0.0
  0
LINE
  5
570
100
AcDbEntity
  8
Layer00016
  6
Continuous
 62
               7
100
AcDbLine
 10
403.99752676789336
 20
749.71056640151801
 30
0.0
 11
403.49752676789336
 21
749.21056640151801
 31
0.0
  0
LINE
  5
571
100
AcDbEntity
  8
Layer00016
  6
Continuous
 62
               7
100
AcDbLine
 10
403.99752676789336
 20
750.41767318270456
 30
0.0
 11
403.49752676789336
 21
749.91767318270456
 31
0.0
  0
LINE
  5
572
100
AcDbEntity
  8
Layer00016
  6
Continuous
 62
               7
100
AcDbLine
 10
403.99752676789336
 20
751.12477996389111
 30
0.0
 11
403.49752676789336
 21
750.62477996389111
 31
0.0
  0
LINE
  5
573
100
AcDbEntity
  8
Layer00016
  6
Continuous
 62
               7
100
AcDbLine
 10
403.99752676789336
 20
751.83188674507767
 30
0.0
 11
403.49752676789336
 21
751.33188674507767
 31
0.0
  0
LINE
  5
574
100
AcDbEntity
  8
Layer00016
  6
Continuous
 62
               7
100
AcDbLine
 10
403.99752676789336
 20
752.53899352626422
 30
0.0
 11
403.49752676789336
 21
752.03899352626422
 31
0.0
  0
LINE
  5
575
100
AcDbEntity
  8
Layer00016
  6
Continuous
 62
               7
100
AcDbLine
 10
403.99752676789336
 20
753.24610030745077
 30
0.0
 11
403.49752676789336
 21
752.74610030745077
 31
0.0
  0
LINE
  5
576
100
AcDbEntity
  8
Layer00016
  6
Continuous
 62
               7
100
AcDbLine
 10
403.99752676789336
 20
753.95320708863733
 30
0.0
 11
403.49752676789336
 21
753.45320708863733
 31
0.0
  0
LINE
  5
577
100
AcDbEntity
  8
Layer00016
  6
Continuous
 62
               7
100
AcDbLine
 10
403.99752676789336
 20
754.66031386982388
 30
0.0
 11
403.49752676789336
 21
754.16031386982388
 31
0.0
  0
LINE
  5
578
100
AcDbEntity
  8
Layer00016
  6
Continuous
 62
               7
100
AcDbLine
 10
403.99752676789336
 20
755.36742065101043
 30
0.0
 11
403.49752676789336
 21
754.86742065101043
 31
0.0
  0
LINE
  5
579
100
AcDbEntity
  8
Layer00016
  6
Continuous
 62
               7
100
AcDbLine
 10
403.99752676789336
 20
756.07452743219699
 30
0.0
 11
403.49752676789336
 21
755.57452743219699
 31
0.0
  0
LINE
  5
57A
100
AcDbEntity
  8
Layer00016
  6
Continuous
 62
               7
100
AcDbLine
 10
403.99752676789336
 20
756.78163421338354
 30
0.0
 11
403.49752676789336
 21
756.28163421338354
 31
0.0
  0
LINE
  5
57B
100
AcDbEntity
  8
Layer00016
  6
Continuous
 62
               7
100
AcDbLine
 10
403.99752676789336
 20
757.48874099456998
 30
0.0
 11
403.49752676789336
 21
756.98874099456998
 31
0.0
  0
LINE
  5
57C
100
AcDbEntity
  8
Layer00016
  6
Continuous
 62
               7
100
AcDbLine
 10
403.99752676789336
 20
758.19584777575653
 30
0.0
 11
403.49752676789336
 21
757.69584777575653
 31
0.0
  0
LINE
  5
57D
100
AcDbEntity
  8
Layer00016
  6
Continuous
 62
               2
100
AcDbLine
 10
568.61362336561274
 20
575.69205356442967
 30
0.0
 11
924.45143878899103
 21
582.80880987289811
 31
0.0
  0
LINE
  5
57E
100
AcDbEntity
  8
Layer00016
  6
Continuous
 62
               4
100
AcDbLine
 10
562.15786524739849
 20
575.69205356442967
 30
0.0
 11
534.12051138442234
 21
575.69205356442967
 31
0.0
  0
LINE
  5
57F
100
AcDbEntity
  8
Layer00016
  6
Continuous
 62
               4
100
AcDbLine
 10
537.55905478271188
 20
487.30986775265387
 30
0.0
 11
537.55905478271188
 21
575.69205356442967
 31
0.0
  0
LINE
  5
580
100
AcDbEntity
  8
Layer00016
  6
Continuous
 62
               4
100
AcDbLine
 10
570.84499541305081
 20
572.07038189602747
 30
0.0
 11
712.38545625797326
 21
574.90119111292313
 31
0.0
  0
LINE
  5
581
100
AcDbEntity
  8
Layer00016
  6
DOT
 62
               6
100
AcDbLine
 10
666.65659649993131
 20
575.68869594542218
 30
0.0
 11
713.91166268522716
 21
576.39189633508431
 31
0.0
  0
LINE
  5
582
100
AcDbEntity
  8
Layer00016
  6
DOT
 62
               6
100
AcDbLine
 10
713.91166268522716
 20
576.39189633508431
 30
0.0
 11
756.27374386243218
 21
574.17895179597656
 31
0.0
  0
LINE
  5
583
100
AcDbEntity
  8
Layer00016
  6
DOT
 62
               6
100
AcDbLine
 10
924.49673475537202
 20
577.54341161383945
 30
0.0
 11
756.27374386243218
 21
574.17895179597656
 31
0.0
  0
LINE
  5
584
100
AcDbEntity
  8
Layer00016
  6
Continuous
 62
               4
100
AcDbLine
 10
717.43745575689661
 20
572.35121116775667
 30
0.0
 11
603.94955658560616
 21
570.08145318433913
 31
0.0
  0
LINE
  5
585
100
AcDbEntity
  8
Layer00016
  6
Continuous
 62
               4
100
AcDbLine
 10
570.84499541305081
 20
572.07038189602747
 30
0.0
 11
570.84499541305081
 21
543.32957286748217
 31
0.0
  0
LINE
  5
586
100
AcDbEntity
  8
Layer00016
  6
Continuous
 62
               2
100
AcDbLine
 10
572.14870306832461
 20
544.26922449052677
 30
0.0
 11
573.520187682406
 21
556.61258601725842
 31
0.0
  0
CIRCLE
  5
587
100
AcDbEntity
  8
Layer00016
  6
Continuous
 62
               4
100
AcDbCircle
 10
255.94955658560625
 20
624.39289187181407
 30
0.0
 40
2.5
  0
CIRCLE
  5
588
100
AcDbEntity
  8
Layer00016
  6
Continuous
 62
               4
100
AcDbCircle
 10
273.94955658560622
 20
624.39289187181407
 30
0.0
 40
2.5
  0
CIRCLE
  5
589
100
AcDbEntity
  8
Layer00016
  6
Continuous
 62
               7
100
AcDbCircle
 10
389.33565385106334
 20
396.50791865637098
 30
0.0
 40
0.5
  0
CIRCLE
  5
58A
100
AcDbEntity
  8
Layer00016
  6
Continuous
 62
               7
100
AcDbCircle
 10
397.98280752067035
 20
386.92134639875223
 30
0.0
 40
0.5
  0
CIRCLE
  5
58B
100
AcDbEntity
  8
Layer00016
  6
Continuous
 62
               7
100
AcDbCircle
 10
394.18624656040504
 20
375.96555619912937
 30
0.0
 40
0.5
  0
CIRCLE
  5
58C
100
AcDbEntity
  8
Layer00016
  6
Continuous
 62
               7
100
AcDbCircle
 10
397.65738800979045
 20
364.14198063716026
 30
0.0
 40
0.5
  0
CIRCLE
  5
58D
100
AcDbEntity
  8
Layer00016
  6
Continuous
 62
               7
100
AcDbCircle
 10
390.71510511101957
 20
355.46412701369667
 30
0.0
 40
0.5
  0
CIRCLE
  5
58E
100
AcDbEntity
  8
Layer00016
  6
Continuous
 62
               7
100
AcDbCircle
 10
392.45067583571233
 20
341.5795612161549
 30
0.0
 40
0.5
  0
CIRCLE
  5
58F
100
AcDbEntity
  8
Layer00016
  6
Continuous
 62
               7
100
AcDbCircle
 10
392.45067583571233
 20
341.5795612161549
 30
0.0
 40
0.5
  0
CIRCLE
  5
590
100
AcDbEntity
  8
Layer00016
  6
Continuous
 62
               7
100
AcDbCircle
 10
397.98785969572515
 20
329.41184337692647
 30
0.0
 40
0.5
  0
CIRCLE
  5
591
100
AcDbEntity
  8
Layer00016
  6
Continuous
 62
               7
100
AcDbCircle
 10
389.88535965496789
 20
314.69039964090268
 30
0.0
 40
0.5
  0
CIRCLE
  5
592
100
AcDbEntity
  8
Layer00016
  6
Continuous
 62
               7
100
AcDbCircle
 10
395.36310616139531
 20
297.34420237054917
 30
0.0
 40
0.5
  0
CIRCLE
  5
593
100
AcDbEntity
  8
Layer00016
  6
Continuous
 62
               4
100
AcDbCircle
 10
680.3093690035555
 20
459.39289187181407
 30
0.0
 40
2.5
  0
CIRCLE
  5
594
100
AcDbEntity
  8
Layer00016
  6
Continuous
 62
               4
100
AcDbCircle
 10
680.3093690035555
 20
474.39289187181407
 30
0.0
 40
2.5
  0
CIRCLE
  5
595
100
AcDbEntity
  8
Layer00016
  6
Continuous
 62
               4
100
AcDbCircle
 10
647.55690839695819
 20
556.39289187181419
 30
0.0
 40
2.5
  0
CIRCLE
  5
596
100
AcDbEntity
  8
Layer00016
  6
Continuous
 62
               4
100
AcDbCircle
 10
647.55690839695819
 20
568.39049259157423
 30
0.0
 40
2.5
  0
CIRCLE
  5
597
100
AcDbEntity
  8
Layer00016
  6
Continuous
 62
               4
100
AcDbCircle
 10
673.55794307052747
 20
969.93594453113633
 30
0.0
 40
2.5
  0
CIRCLE
  5
598
100
AcDbEntity
  8
Layer00016
  6
Continuous
 62
               4
100
AcDbCircle
 10
673.55794307052747
 20
1209.9359445311363
 30
0.0
 40
2.5
  0
CIRCLE
  5
599
100
AcDbEntity
  8
Layer00016
  6
Continuous
 62
               4
100
AcDbCircle
 10
463.99403562045336
 20
759.39289187181407
 30
0.0
 40
2.5
  0
CIRCLE
  5
59A
100
AcDbEntity
  8
Layer00016
  6
Continuous
 62
               4
100
AcDbCircle
 10
463.99403562045336
 20
756.39289187181453
 30
0.0
 40
2.5
  0
CIRCLE
  5
59B
100
AcDbEntity
  8
Layer00016
  6
Continuous
 62
               4
100
AcDbCircle
 10
463.99403562045336
 20
674.39289187181419
 30
0.0
 40
2.5
  0
CIRCLE
  5
59C
100
AcDbEntity
  8
Layer00016
  6
Continuous
 62
               4
100
AcDbCircle
 10
463.99403562045336
 20
694.39289187181419
 30
0.0
 40
2.5
  0
CIRCLE
  5
59D
100
AcDbEntity
  8
Layer00016
  6
Continuous
 62
               4
100
AcDbCircle
 10
108.90600906734434
 20
459.39289187181407
 30
0.0
 40
2.5
  0
CIRCLE
  5
59E
100
AcDbEntity
  8
Layer00016
  6
Continuous
 62
               4
100
AcDbCircle
 10
108.90600906734434
 20
759.39289187181441
 30
0.0
 40
2.5
  0
CIRCLE
  5
59F
100
AcDbEntity
  8
Layer00016
  6
Continuous
 62
               4
100
AcDbCircle
 10
403.94955658560622
 20
824.21808306969888
 30
0.0
 40
2.5
  0
CIRCLE
  5
5A0
100
AcDbEntity
  8
Layer00016
  6
Continuous
 62
               4
100
AcDbCircle
 10
183.37602556458936
 20
824.21808306969888
 30
0.0
 40
2.5
  0
CIRCLE
  5
5A1
100
AcDbEntity
  8
Layer00016
  6
Continuous
 62
               4
100
AcDbCircle
 10
140.59315497462097
 20
919.9359445311361
 30
0.0
 40
2.5
  0
CIRCLE
  5
5A2
100
AcDbEntity
  8
Layer00016
  6
Continuous
 62
               4
100
AcDbCircle
 10
140.59315497462097
 20
1019.9359445311364
 30
0.0
 40
2.5
  0
CIRCLE
  5
5A3
100
AcDbEntity
  8
Layer00016
  6
Continuous
 62
               4
100
AcDbCircle
 10
201.5959784881432
 20
486.30986775265387
 30
0.0
 40
2.5
  0
CIRCLE
  5
5A4
100
AcDbEntity
  8
Layer00016
  6
Continuous
 62
               4
100
AcDbCircle
 10
201.5959784881432
 20
551.30986775265387
 30
0.0
 40
2.5
  0
CIRCLE
  5
5A5
100
AcDbEntity
  8
Layer00016
  6
Continuous
 62
               4
100
AcDbCircle
 10
603.94955658560616
 20
423.78621816546547
 30
0.0
 40
2.5
  0
CIRCLE
  5
5A6
100
AcDbEntity
  8
Layer00016
  6
Continuous
 62
               4
100
AcDbCircle
 10
403.44955658560622
 20
423.78621816546547
 30
0.0
 40
2.5
  0
CIRCLE
  5
5A7
100
AcDbEntity
  8
Layer00016
  6
Continuous
 62
               4
100
AcDbCircle
 10
403.44955658560622
 20
423.78621816546547
 30
0.0
 40
2.5
  0
CIRCLE
  5
5A8
100
AcDbEntity
  8
Layer00016
  6
Continuous
 62
               4
100
AcDbCircle
 10
183.94955658560625
 20
423.78621816546547
 30
0.0
 40
2.5
  0
CIRCLE
  5
5A9
100
AcDbEntity
  8
Layer00016
  6
Continuous
 62
               4
100
AcDbCircle
 10
647.55690839695819
 20
544.39289187181419
 30
0.0
 40
2.5
  0
CIRCLE
  5
5AA
100
AcDbEntity
  8
Layer00016
  6
Continuous
 62
               4
100
AcDbCircle
 10
647.55690839695819
 20
556.39049259157423
 30
0.0
 40
2.5
  0
CIRCLE
  5
5AB
100
AcDbEntity
  8
Layer00016
  6
Continuous
 62
               4
100
AcDbCircle
 10
647.55690839695819
 20
474.39289187181407
 30
0.0
 40
2.5
  0
CIRCLE
  5
5AC
100
AcDbEntity
  8
Layer00016
  6
Continuous
 62
               4
100
AcDbCircle
 10
647.55690839695819
 20
544.39289187181407
 30
0.0
 40
2.5
  0
CIRCLE
  5
5AD
100
AcDbEntity
  8
Layer00016
  6
Continuous
 62
               4
100
AcDbCircle
 10
667.39659104529903
 20
539.11278897169109
 30
0.0
 40
2.0
  0
CIRCLE
  5
5AE
100
AcDbEntity
  8
Layer00016
  6
Continuous
 62
               4
100
AcDbCircle
 10
669.22107249281908
 20
552.4122984707185
 30
0.0
 40
2.0
  0
CIRCLE
  5
5AF
100
AcDbEntity
  8
Layer00016
  6
Continuous
 62
               4
100
AcDbCircle
 10
670.87214109577963
 20
564.44771960282571
 30
0.0
 40
2.0
  0
CIRCLE
  5
5B0
100
AcDbEntity
  8
Layer00016
  6
Continuous
 62
               4
100
AcDbCircle
 10
282.94955658560622
 20
865.72161325521029
 30
0.0
 40
2.5
  0
CIRCLE
  5
5B1
100
AcDbEntity
  8
Layer00016
  6
Continuous
 62
               4
100
AcDbCircle
 10
387.94955658560622
 20
865.72161325521029
 30
0.0
 40
2.5
  0
CIRCLE
  5
5B2
100
AcDbEntity
  8
Layer00016
  6
Continuous
 62
               4
100
AcDbCircle
 10
524.99300495482362
 20
1157.4359445311363
 30
0.0
 40
2.5
  0
CIRCLE
  5
5B3
100
AcDbEntity
  8
Layer00016
  6
Continuous
 62
               4
100
AcDbCircle
 10
524.99300495482362
 20
1262.4359445311363
 30
0.0
 40
2.5
  0
CIRCLE
  5
5B4
100
AcDbEntity
  8
Layer00016
  6
Continuous
 62
               4
100
AcDbCircle
 10
282.94955658560622
 20
624.39289187181407
 30
0.0
 40
2.5
  0
CIRCLE
  5
5B5
100
AcDbEntity
  8
Layer00016
  6
Continuous
 62
               4
100
AcDbCircle
 10
387.94955658560622
 20
624.39289187181407
 30
0.0
 40
2.5
  0
CIRCLE
  5
5B6
100
AcDbEntity
  8
Layer00016
  6
Continuous
 62
               7
100
AcDbCircle
 10
416.09530052029987
 20
767.96624478865124
 30
0.0
 40
1.4709455809741221
  0
CIRCLE
  5
5B7
100
AcDbEntity
  8
Layer00016
  6
Continuous
 62
               7
100
AcDbCircle
 10
392.18090646791399
 20
720.7425313321487
 30
0.0
 40
1.1873817688959329
  0
CIRCLE
  5
5B8
100
AcDbEntity
  8
Layer00016
  6
Continuous
 62
               4
100
AcDbCircle
 10
463.99403562045336
 20
694.39289187181419
 30
0.0
 40
2.5
  0
CIRCLE
  5
5B9
100
AcDbEntity
  8
Layer00016
  6
Continuous
 62
               4
100
AcDbCircle
 10
463.99403562045336
 20
756.39289187181453
 30
0.0
 40
2.5
  0
CIRCLE
  5
5BA
100
AcDbEntity
  8
Layer00016
  6
Continuous
 62
               4
100
AcDbCircle
 10
568.61362336561274
 20
624.39289187181407
 30
0.0
 40
2.5
  0
CIRCLE
  5
5BB
100
AcDbEntity
  8
Layer00016
  6
Continuous
 62
               4
100
AcDbCircle
 10
400.94955658560622
 20
624.39289187181407
 30
0.0
 40
2.5
  0
CIRCLE
  5
5BC
100
AcDbEntity
  8
Layer00016
  6
Continuous
 62
               7
100
AcDbCircle
 10
400.94955658560622
 20
738.05796987728354
 30
0.0
 40
1.1873817688959329
  0
CIRCLE
  5
5BD
100
AcDbEntity
  8
Layer00016
  6
Continuous
 62
               7
100
AcDbCircle
 10
402.66520217234518
 20
741.44585231342626
 30
0.0
 40
1.1873817688959329
  0
CIRCLE
  5
5BE
100
AcDbEntity
  8
Layer00016
  6
Continuous
 62
               7
100
AcDbCircle
 10
406.44955658560627
 20
748.9188105676983
 30
0.0
 40
1.1873817688959329
  0
CIRCLE
  5
5BF
100
AcDbEntity
  8
Layer00016
  6
Continuous
 62
               4
100
AcDbCircle
 10
537.55905478271188
 20
487.30986775265387
 30
0.0
 40
2.5
  0
CIRCLE
  5
5C0
100
AcDbEntity
  8
Layer00016
  6
Continuous
 62
               4
100
AcDbCircle
 10
537.55905478271188
 20
575.69205356442967
 30
0.0
 40
2.5
  0
CIRCLE
  5
5C1
100
AcDbEntity
  8
Layer00016
  6
Continuous
 62
               4
100
AcDbCircle
 10
672.42600233278438
 20
575.77455019888725
 30
0.0
 40
2.0
  0
CIRCLE
  5
5C2
100
AcDbEntity
  8
Layer00016
  6
Continuous
 62
               4
100
AcDbCircle
 10
672.70026578451359
 20
577.77378641280791
 30
0.0
 40
2.0
  0
ARC
  5
5C3
100
AcDbEntity
  8
Layer00016
  6
Continuous
 62
               4
100
AcDbCircle
 10
435.94955658560616
 20
674.8928918718143
 30
0.0
 40
0.500000000000114
100
AcDbArc
 50
180.0
 51
0.0
  0
ARC
  5
5C4
100
AcDbEntity
  8
Layer00016
  6
Continuous
 62
               4
100
AcDbCircle
 10
406.94955658560616
 20
755.89289187181419
 30
0.0
 40
0.499999999999886
100
AcDbArc
 50
0.0
 51
180.0
  0
ARC
  5
5C5
100
AcDbEntity
  8
Layer00016
  6
Continuous
 62
               2
100
AcDbCircle
 10
259.57000336791026
 20
563.51049119507752
 30
0.0
 40
11.24948551064559
100
AcDbArc
 50
271.96740028734416
 51
0.0000248019395036
  0
ARC
  5
5C6
100
AcDbEntity
  8
Layer00016
  6
Continuous
 62
               2
100
AcDbCircle
 10
261.12405125793856
 20
474.85829367915892
 30
0.0
 40
9.7180895937871181
100
AcDbArc
 50
8.3343379069653398
 51
90.999999999999943
  0
ARC
  5
5C7
100
AcDbEntity
  8
Layer00016
  6
Continuous
 62
               4
100
AcDbCircle
 10
195.69352860601023
 20
481.14377192400633
 30
0.0
 40
35.336948341490199
100
AcDbArc
 50
356.12175778826753
 51
6.8487451623111664
  0
ARC
  5
5C8
100
AcDbEntity
  8
Layer00016
  6
Continuous
 62
               4
100
AcDbCircle
 10
263.39082611904189
 20
481.54410335978912
 30
0.0
 40
7.9472512714451291
100
AcDbArc
 50
147.53666961084434
 51
200.55550548004965
  0
ARC
  5
5C9
100
AcDbEntity
  8
Layer00016
  6
Continuous
 62
               4
100
AcDbCircle
 10
209.73627439578732
 20
556.49961975171402
 30
0.0
 40
21.963073989669518
100
AcDbArc
 50
346.33206286073255
 51
15.01428792551771
  0
ARC
  5
5CA
100
AcDbEntity
  8
Layer00016
  6
Continuous
 62
               2
100
AcDbCircle
 10
259.6468119732898
 20
1032.63656797356
 30
0.0
 40
11.24948551064559
100
AcDbArc
 50
271.96740028734416
 51
0.0000248019395036
  0
ARC
  5
5CB
100
AcDbEntity
  8
Layer00016
  6
Continuous
 62
               4
100
AcDbCircle
 10
209.81308300116692
 20
1025.6256965301966
 30
0.0
 40
21.963073989669518
100
AcDbArc
 50
344.98571207448236
 51
15.01428792551771
  0
ARC
  5
5CC
100
AcDbEntity
  8
Layer00016
  6
Continuous
 62
               2
100
AcDbCircle
 10
259.6468119732898
 20
907.23532108871245
 30
0.0
 40
11.24948551064559
100
AcDbArc
 50
359.99997519806044
 51
88.032599712655838
  0
ARC
  5
5CD
100
AcDbEntity
  8
Layer00016
  6
Continuous
 62
               4
100
AcDbCircle
 10
209.81308300116692
 20
914.24619253207595
 30
0.0
 40
21.963073989669518
100
AcDbArc
 50
344.98571207448225
 51
15.014287925517609
  0
ARC
  5
5CE
100
AcDbEntity
  8
Layer00016
  6
DOT
 62
               6
100
AcDbCircle
 10
399.66520217234518
 20
757.31716811931631
 30
0.0
 40
3.0
100
AcDbArc
 50
0.0
 51
89.999999999999957
  0
ARC
  5
5CF
100
AcDbEntity
  8
Layer00016
  6
DOT
 62
               6
100
AcDbCircle
 10
272.94955658560622
 20
757.31716811931631
 30
0.0
 40
3.0
100
AcDbArc
 50
89.999999999999957
 51
180.0
  0
ARC
  5
5D0
100
AcDbEntity
  8
Layer00016
  6
Continuous
 62
               2
100
AcDbCircle
 10
570.3865851693713
 20
544.46501536818823
 30
0.0
 40
1.772961803758633
100
AcDbArc
 50
180.0
 51
353.65980825408997
  0
TEXT
  5
5D1
100
AcDbEntity
  8
Layer00016
 62
               7
100
AcDbText
 10
51.6025390625
 20
462.48379516601562
 30
0.0
 40
15.000000000000016
  1
▽梁高
 41
0.7695
  7
FontTableH_0
 72
               5
 11
96.602539062500043
 21
462.48379516601562
 31
0.0
100
AcDbText
  0
TEXT
  5
5D2
100
AcDbEntity
  8
Layer00016
 62
               7
100
AcDbText
 10
641.361328125
 20
738.43096923828125
 30
0.0
 40
15.000000000000016
  1
軒先唐草：屋根同材（屋根工事）
 41
0.7695
  7
FontTableH_0
 72
               5
 11
866.36132812500023
 21
738.43096923828125
 31
0.0
100
AcDbText
  0
TEXT
  5
5D3
100
AcDbEntity
  8
Layer00016
 62
               7
100
AcDbText
 10
646.372802734375
 20
404.43096923828125
 30
0.0
 40
15.000000000000016
  1
箱樋：屋根同材（屋根工事）
 41
0.7695
  7
FontTableH_0
 72
               5
 11
841.37280273437523
 21
404.43096923828125
 31
0.0
100
AcDbText
  0
TEXT
  5
5D4
100
AcDbEntity
  8
Layer00016
 62
               7
100
AcDbText
 10
257.451171875
 20
626.8946533203125
 30
0.0
 40
15.000000000000016
  1
18
 41
0.7695
  7
FontTableH_0
 72
               5
 11
272.451171875
 21
626.8946533203125
 31
0.0
100
AcDbText
  0
TEXT
  5
5D5
100
AcDbEntity
  8
Layer00016
 62
               7
100
AcDbText
 10
767.8001708984375
 20
592.3751220703125
 30
0.0
 40
15.000000000000016
  1
100
 41
0.7695
  7
FontTableH_0
 72
               5
 11
790.3001708984375
 21
592.3751220703125
 31
0.0
100
AcDbText
  0
TEXT
  5
5D6
100
AcDbEntity
  8
Layer00016
 62
               7
100
AcDbText
 10
727.2501220703125
 20
583.35467529296875
 30
0.0
 40
15.000000000000016
  1
2
 41
0.7695
  7
FontTableH_0
 72
               5
 11
734.7501220703125
 21
583.35467529296875
 31
0.0
100
AcDbText
  0
TEXT
  5
5D7
100
AcDbEntity
  8
Layer00016
 62
               7
100
AcDbText
 10
677.8106689453125
 20
459.39340209960938
 30
0.0
 40
15.000000000000016
  1
15
 50
90.000002504478189
 41
0.7695
  7
FontTableH_0
 72
               5
 11
677.81066828964163
 21
474.39340209960937
 31
0.0
100
AcDbText
  0
TEXT
  5
5D8
100
AcDbEntity
  8
Layer00016
 62
               7
100
AcDbText
 10
645.0595703125
 20
554.89447021484375
 30
0.0
 40
15.000000000000016
  1
12
 50
90.000002504478189
 41
0.7695
  7
FontTableH_0
 72
               5
 11
645.05956965682913
 21
569.89447021484375
 31
0.0
100
AcDbText
  0
TEXT
  5
5D9
100
AcDbEntity
  8
Layer00016
 62
               7
100
AcDbText
 10
685.3895263671875
 20
1029.89697265625
 30
0.0
 40
15.000000000000016
  1
＊落とし口位置屋根伏図上に明記の事
 41
0.7695
  7
FontTableH_0
 72
               5
 11
940.38952636718773
 21
1029.89697265625
 31
0.0
100
AcDbText
  0
TEXT
  5
5DA
100
AcDbEntity
  8
Layer00016
 62
               7
100
AcDbText
 10
581.206298828125
 20
1213.3670654296875
 30
0.0
 40
15.000000000000016
  1
▽壁芯
 41
0.7695
  7
FontTableH_0
 72
               5
 11
626.206298828125
 21
1213.3670654296875
 31
0.0
100
AcDbText
  0
TEXT
  5
5DB
100
AcDbEntity
  8
Layer00016
 62
               7
100
AcDbText
 10
461.49560546875
 20
769.14385986328125
 30
0.0
 40
15.000000000000016
  1
3
 50
90.000002504478189
 41
0.7695
  7
FontTableH_0
 72
               5
 11
461.49560514091456
 21
776.64385986328125
 31
0.0
100
AcDbText
  0
TEXT
  5
5DC
100
AcDbEntity
  8
Layer00016
 62
               7
100
AcDbText
 10
461.49560546875
 20
676.89385986328125
 30
0.0
 40
15.000000000000016
  1
20
 50
90.000002504478189
 41
0.7695
  7
FontTableH_0
 72
               5
 11
461.49560481307913
 21
691.89385986328125
 31
0.0
100
AcDbText
  0
TEXT
  5
5DD
100
AcDbEntity
  8
Layer00016
 62
               7
100
AcDbText
 10
655.5501708984375
 20
709.31280517578125
 30
0.0
 40
15.000000000000016
  1
プロムナールーフ:塩ビ鋼板t0.4(屋根工事)
 41
0.7695
  7
FontTableH_0
 72
               5
 11
948.05017089843784
 21
709.31280517578125
 31
0.0
100
AcDbText
  0
TEXT
  5
5DE
100
AcDbEntity
  8
Layer00016
 62
               7
100
AcDbText
 10
691.5418701171875
 20
687.7576904296875
 30
0.0
 40
15.000000000000016
  1
ライナールーフィング (屋根工事)
 41
0.7695
  7
FontTableH_0
 72
               5
 11
924.04187011718773
 21
687.7576904296875
 31
0.0
100
AcDbText
  0
TEXT
  5
5DF
100
AcDbEntity
  8
Layer00016
 62
               7
100
AcDbText
 10
692.008544921875
 20
667.3292236328125
 30
0.0
 40
15.000000000000016
  1
構造用針葉樹合板t12(屋根工事)
 41
0.7695
  7
FontTableH_0
 72
               5
 11
909.50854492187523
 21
667.3292236328125
 31
0.0
100
AcDbText
  0
TEXT
  5
5E0
100
AcDbEntity
  8
Layer00016
 62
               7
100
AcDbText
 10
689.739501953125
 20
624.60516357421875
 30
0.0
 40
15.000000000000016
  1
押出発泡ポリスチレン(屋根工事)
 41
0.7695
  7
FontTableH_0
 72
               5
 11
914.73950195312523
 21
624.60516357421875
 31
0.0
100
AcDbText
  0
TEXT
  5
5E1
100
AcDbEntity
  8
Layer00016
 62
               7
100
AcDbText
 10
106.4073486328125
 20
598.14300537109375
 30
0.0
 40
15.000000000000016
  1
300
 50
90.000002504478189
 41
0.7695
  7
FontTableH_0
 72
               5
 11
106.40734764930622
 21
620.64300537109375
 31
0.0
100
AcDbText
  0
TEXT
  5
5E2
100
AcDbEntity
  8
Layer00016
 62
               7
100
AcDbText
 10
140.8062744140625
 20
350.65081787109375
 30
0.0
 40
15.000000000000016
  1
防水テープ
 41
0.7695
  7
FontTableH_0
 72
               5
 11
215.80627441406259
 21
350.65081787109375
 31
0.0
100
AcDbText
  0
TEXT
  5
5E3
100
AcDbEntity
  8
Layer00016
 62
               7
100
AcDbText
 10
115.2906494140625
 20
383.04718017578125
 30
0.0
 40
15.000000000000016
  1
シーリング
 41
0.7695
  7
FontTableH_0
 72
               5
 11
190.29064941406259
 21
383.04718017578125
 31
0.0
100
AcDbText
  0
TEXT
  5
5E4
100
AcDbEntity
  8
Layer00016
 62
               7
100
AcDbText
 10
511.0977783203125
 20
778.999755859375
 30
0.0
 40
15.000000000000016
  1
水切:屋根同材 (屋根工事)
 41
0.7695
  7
FontTableH_0
 72
               5
 11
691.09777832031273
 21
778.999755859375
 31
0.0
100
AcDbText
  0
TEXT
  5
5E5
100
AcDbEntity
  8
Layer00016
 62
               7
100
AcDbText
 10
413.67120361328125
 20
1321.3648681640625
 30
0.0
 40
17.500000000000021
  1
樋部
 41
0.7695
  7
FontTableH_0
 72
               5
 11
448.67120361328131
 21
1321.3648681640625
 31
0.0
100
AcDbText
  0
TEXT
  5
5E6
100
AcDbEntity
  8
Layer00016
 62
               7
100
AcDbText
 10
465.7125244140625
 20
589.71759033203125
 30
0.0
 40
15.000000000000016
  1
防塵網
 41
0.7695
  7
FontTableH_0
 72
               5
 11
510.71252441406256
 21
589.71759033203125
 31
0.0
100
AcDbText
  0
TEXT
  5
5E7
100
AcDbEntity
  8
Layer00016
 62
               7
100
AcDbText
 10
690.4932861328125
 20
645.85321044921875
 30
0.0
 40
15.000000000000016
  1
構造用針葉樹合板t12(屋根工事)
 41
0.7695
  7
FontTableH_0
 72
               5
 11
907.99328613281273
 21
645.85321044921875
 31
0.0
100
AcDbText
  0
TEXT
  5
5E8
100
AcDbEntity
  8
Layer00016
 62
               7
100
AcDbText
 10
282.414306640625
 20
826.71905517578125
 30
0.0
 40
15.000000000000016
  1
220
 41
0.7695
  7
FontTableH_0
 72
               5
 11
304.914306640625
 21
826.71905517578125
 31
0.0
100
AcDbText
  0
TEXT
  5
5E9
100
AcDbEntity
  8
Layer00016
 62
               7
100
AcDbText
 10
138.0946044921875
 20
958.687255859375
 30
0.0
 40
15.000000000000016
  1
100
 50
90.000002504478189
 41
0.7695
  7
FontTableH_0
 72
               5
 11
138.09460350868122
 21
981.187255859375
 31
0.0
100
AcDbText
  0
TEXT
  5
5EA
100
AcDbEntity
  8
Layer00016
 62
               7
100
AcDbText
 10
112.3421630859375
 20
579.274169921875
 30
0.0
 40
15.000000000000016
  1
出口 角100x65
 41
0.7695
  7
FontTableH_0
 72
               5
 11
209.84216308593761
 21
579.274169921875
 31
0.0
100
AcDbText
  0
TEXT
  5
5EB
100
AcDbEntity
  8
Layer00016
 62
               7
100
AcDbText
 10
199.0975341796875
 20
511.31106567382812
 30
0.0
 40
15.000000000000016
  1
65
 50
90.000002504478189
 41
0.7695
  7
FontTableH_0
 72
               5
 11
199.09753352401665
 21
526.31106567382812
 31
0.0
100
AcDbText
  0
TEXT
  5
5EC
100
AcDbEntity
  8
Layer00016
 62
               7
100
AcDbText
 10
492.45166015625
 20
426.28704833984375
 30
0.0
 40
15.000000000000016
  1
200
 41
0.7695
  7
FontTableH_0
 72
               5
 11
514.95166015625
 21
426.28704833984375
 31
0.0
100
AcDbText
  0
TEXT
  5
5ED
100
AcDbEntity
  8
Layer00016
 62
               7
100
AcDbText
 10
282.4510498046875
 20
426.28671264648437
 30
0.0
 40
15.000000000000016
  1
220
 41
0.7695
  7
FontTableH_0
 72
               5
 11
304.9510498046875
 21
426.28671264648437
 31
0.0
100
AcDbText
  0
TEXT
  5
5EE
100
AcDbEntity
  8
Layer00016
 62
               7
100
AcDbText
 10
645.0595703125
 20
542.89447021484375
 30
0.0
 40
15.000000000000016
  1
12
 50
90.000002504478189
 41
0.7695
  7
FontTableH_0
 72
               5
 11
645.05956965682913
 21
557.89447021484375
 31
0.0
100
AcDbText
  0
TEXT
  5
5EF
100
AcDbEntity
  8
Layer00016
 62
               7
100
AcDbText
 10
645.0584716796875
 20
501.89401245117187
 30
0.0
 40
15.000000000000016
  1
70
 50
90.000002504478189
 41
0.7695
  7
FontTableH_0
 72
               5
 11
645.05847102401663
 21
516.89401245117187
 31
0.0
100
AcDbText
  0
TEXT
  5
5F0
100
AcDbEntity
  8
Layer00016
 62
               7
100
AcDbText
 10
558.28399658203125
 20
365.60488891601562
 30
0.0
 40
15.000000000000016
  1
樋下地
 41
0.7695
  7
FontTableH_0
 72
               5
 11
603.28399658203125
 21
365.60488891601562
 31
0.0
100
AcDbText
  0
TEXT
  5
5F1
100
AcDbEntity
  8
Layer00016
 62
               7
100
AcDbText
 10
305.4508056640625
 20
868.2225341796875
 30
0.0
 40
15.000000000000016
  1
105(120)
 41
0.7695
  7
FontTableH_0
 72
               5
 11
365.45080566406256
 21
868.2225341796875
 31
0.0
100
AcDbText
  0
TEXT
  5
5F2
100
AcDbEntity
  8
Layer00016
 62
               7
100
AcDbText
 10
522.4942626953125
 20
1179.93701171875
 30
0.0
 40
15.000000000000016
  1
105(120)
 50
90.000002504478189
 41
0.7695
  7
FontTableH_0
 72
               5
 11
522.49426007262912
 21
1239.93701171875
 31
0.0
100
AcDbText
  0
TEXT
  5
5F3
100
AcDbEntity
  8
Layer00016
 62
               7
100
AcDbText
 10
705.86181640625
 20
1191.1717529296875
 30
0.0
 40
15.000000000000016
  1
ダイライト9mm(12mm)
 41
0.7695
  7
FontTableH_0
 72
               5
 11
848.36181640625011
 21
1191.1717529296875
 31
0.0
100
AcDbText
  0
TEXT
  5
5F4
100
AcDbEntity
  8
Layer00016
 62
               7
100
AcDbText
 10
305.4508056640625
 20
626.893798828125
 30
0.0
 40
15.000000000000016
  1
105(120)
 41
0.7695
  7
FontTableH_0
 72
               5
 11
365.45080566406256
 21
626.893798828125
 31
0.0
100
AcDbText
  0
TEXT
  5
5F5
100
AcDbEntity
  8
Layer00016
 62
               7
100
AcDbText
 10
487.5421142578125
 20
901.51177978515625
 30
0.0
 40
15.000000000000016
  1
アルミ笠木
 41
0.7695
  7
FontTableH_0
 72
               5
 11
562.54211425781261
 21
901.51177978515625
 31
0.0
100
AcDbText
  0
TEXT
  5
5F6
100
AcDbEntity
  8
Layer00016
 62
               7
100
AcDbText
 10
487.5421142578125
 20
881.51177978515625
 30
0.0
 40
15.000000000000016
  1
水切(屋根工事)
 41
0.7695
  7
FontTableH_0
 72
               5
 11
592.54211425781261
 21
881.51177978515625
 31
0.0
100
AcDbText
  0
TEXT
  5
5F7
100
AcDbEntity
  8
Layer00016
 62
               7
100
AcDbText
 10
487.5421142578125
 20
861.51177978515625
 30
0.0
 40
15.000000000000016
  1
ライナールーフィング(屋根工事)
 41
0.7695
  7
FontTableH_0
 72
               5
 11
712.54211425781273
 21
861.51177978515625
 31
0.0
100
AcDbText
  0
TEXT
  5
5F8
100
AcDbEntity
  8
Layer00016
 62
               7
100
AcDbText
 10
487.5421142578125
 20
841.51177978515625
 30
0.0
 40
15.000000000000016
  1
樋 (屋根工事)
 41
0.7695
  7
FontTableH_0
 72
               5
 11
585.04211425781261
 21
841.51177978515625
 31
0.0
100
AcDbText
  0
TEXT
  5
5F9
100
AcDbEntity
  8
Layer00016
 62
               7
100
AcDbText
 10
487.5421142578125
 20
821.51177978515625
 30
0.0
 40
15.000000000000016
  1
ダイライト9mm(12mm)
 41
0.7695
  7
FontTableH_0
 72
               5
 11
630.04211425781261
 21
821.51177978515625
 31
0.0
100
AcDbText
  0
TEXT
  5
5FA
100
AcDbEntity
  8
Layer00016
 62
               7
100
AcDbText
 10
457.30755615234375
 20
1321.643798828125
 30
0.0
 40
17.500000000000021
  1
(横抜き)
 41
0.7695
  7
FontTableH_0
 72
               5
 11
527.30755615234386
 21
1321.643798828125
 31
0.0
100
AcDbText
  0
TEXT
  5
5FB
100
AcDbEntity
  8
Layer00016
 62
               7
100
AcDbText
 10
461.49404907226563
 20
717.89288330078125
 30
0.0
 40
15.000000000000016
  1
62
 50
90.000002504478189
 41
0.7695
  7
FontTableH_0
 72
               5
 11
461.49404841659475
 21
732.89288330078125
 31
0.0
100
AcDbText
  0
TEXT
  5
5FC
100
AcDbEntity
  8
Layer00016
 62
               7
100
AcDbText
 10
154.95584106445312
 20
1356.9940185546875
 30
0.0
 40
17.500000000000021
  1
各部断面図
 41
0.7695
  7
FontTableH_0
 72
               5
 11
242.45584106445324
 21
1356.9940185546875
 31
0.0
100
AcDbText
  0
TEXT
  5
5FD
100
AcDbEntity
  8
Layer00016
 62
               7
100
AcDbText
 10
473.5321044921875
 20
626.893310546875
 30
0.0
 40
15.000000000000016
  1
165
 41
0.7695
  7
FontTableH_0
 72
               5
 11
496.0321044921875
 21
626.893310546875
 31
0.0
100
AcDbText
  0
TEXT
  5
5FE
100
AcDbEntity
  8
Layer00016
 62
               7
100
AcDbText
 10
535.0596923828125
 20
524.00140380859375
 30
0.0
 40
15.000000000000016
  1
80
 50
90.000002504478189
 41
0.7695
  7
FontTableH_0
 72
               5
 11
535.05969172714163
 21
539.00140380859375
 31
0.0
100
AcDbText
  0
ENDSEC
  0
SECTION
  2
OBJECTS
  0
DICTIONARY
  5
19
100
AcDbDictionary
  3
ACAD_GROUP
350
1A
  3
ACAD_MLINESTYLE
350
1B
  3
DWGPROPS
350
5FF
  0
DICTIONARY
  5
1A
102
{ACAD_REACTORS
330
19
102
}
100
AcDbDictionary
  0
DICTIONARY
  5
1B
102
{ACAD_REACTORS
330
19
102
}
100
AcDbDictionary
  3
STANDARD
350
1C
  0
MLINESTYLE
  5
1C
102
{ACAD_REACTORS
330
1B
102
}
100
AcDbMlineStyle
  2
Standard
 70
               0
  3

 62
               0
 51
90.0
 52
90.0
 71
               2
 49
0.5
 62
             256
  6
ByLayer
 49
-0.5
 62
             256
  6
ByLayer
  0
XRECORD
  5
5FF
100
AcDbXrecord
  1
DWGPROPS COOKIE
  2

  3

  4

  6

  7

  0
ENDSEC
  0
EOF
