  0
SECTION
  2
HEADER
  9
$ACADVER
  1
AC1014
  9
$ACADMAINTVER
 70
               0
  9
$DWGCODEPAGE
  3
ANSI_932
  9
$INSBASE
 10
0.0
 20
0.0
 30
0.0
  9
$EXTMIN
 10
0.0
 20
0.0
 30
0.0
  9
$EXTMAX
 10
891.00000000000091
 20
630.00000000000068
 30
0.0
  9
$LIMMIN
 10
0.0
 20
0.0
  9
$LIMMAX
 10
891.00000000000091
 20
630.00000000000068
  9
$ORTHOMODE
 70
               0
  9
$REGENMODE
 70
               1
  9
$FILLMODE
 70
               1
  9
$QTEXTMODE
 70
               0
  9
$MIRRTEXT
 70
               1
  9
$DRAGMODE
 70
               2
  9
$LTSCALE
 40
3.0000000000000031
  9
$OSMODE
 70
               0
  9
$ATTMODE
 70
               1
  9
$TEXTSIZE
 40
0.2
  9
$TRACEWID
 40
0.05
  9
$TEXTSTYLE
  7
Standard
  9
$CLAYER
  8
0
  9
$CELTYPE
  6
Continuous
  9
$CECOLOR
 62
             256
  9
$CELTSCALE
 40
1.0
  9
$DELOBJ
 70
               1
  9
$DISPSILH
 70
               0
  9
$DIMSCALE
 40
1.0
  9
$DIMASZ
 40
0.18
  9
$DIMEXO
 40
0.0625
  9
$DIMDLI
 40
0.38
  9
$DIMRND
 40
0.0
  9
$DIMDLE
 40
0.0
  9
$DIMEXE
 40
0.18
  9
$DIMTP
 40
0.0
  9
$DIMTM
 40
0.0
  9
$DIMTXT
 40
0.18
  9
$DIMCEN
 40
0.09
  9
$DIMTSZ
 40
0.0
  9
$DIMTOL
 70
               0
  9
$DIMLIM
 70
               0
  9
$DIMTIH
 70
               1
  9
$DIMTOH
 70
               1
  9
$DIMSE1
 70
               0
  9
$DIMSE2
 70
               0
  9
$DIMTAD
 70
               0
  9
$DIMZIN
 70
               0
  9
$DIMBLK
  1

  9
$DIMASO
 70
               1
  9
$DIMSHO
 70
               1
  9
$DIMPOST
  1

  9
$DIMAPOST
  1

  9
$DIMALT
 70
               0
  9
$DIMALTD
 70
               2
  9
$DIMALTF
 40
25.399999999999999
  9
$DIMLFAC
 40
1.0
  9
$DIMTOFL
 70
               0
  9
$DIMTVP
 40
0.0
  9
$DIMTIX
 70
               0
  9
$DIMSOXD
 70
               0
  9
$DIMSAH
 70
               0
  9
$DIMBLK1
  1

  9
$DIMBLK2
  1

  9
$DIMSTYLE
  2
Standard
  9
$DIMCLRD
 70
               0
  9
$DIMCLRE
 70
               0
  9
$DIMCLRT
 70
               0
  9
$DIMTFAC
 40
1.0
  9
$DIMGAP
 40
0.09
  9
$DIMJUST
 70
               0
  9
$DIMSD1
 70
               0
  9
$DIMSD2
 70
               0
  9
$DIMTOLJ
 70
               1
  9
$DIMTZIN
 70
               0
  9
$DIMALTZ
 70
               0
  9
$DIMALTTZ
 70
               0
  9
$DIMFIT
 70
               3
  9
$DIMUPT
 70
               0
  9
$DIMUNIT
 70
               2
  9
$DIMDEC
 70
               4
  9
$DIMTDEC
 70
               4
  9
$DIMALTU
 70
               2
  9
$DIMALTTD
 70
               2
  9
$DIMTXSTY
  7
Standard
  9
$DIMAUNIT
 70
               0
  9
$LUNITS
 70
               2
  9
$LUPREC
 70
               4
  9
$SKETCHINC
 40
0.1
  9
$FILLETRAD
 40
0.0
  9
$AUNITS
 70
               0
  9
$AUPREC
 70
               0
  9
$MENU
  1
acad
  9
$ELEVATION
 40
0.0
  9
$PELEVATION
 40
0.0
  9
$THICKNESS
 40
0.0
  9
$LIMCHECK
 70
               0
  9
$BLIPMODE
 70
               1
  9
$CHAMFERA
 40
0.0
  9
$CHAMFERB
 40
0.0
  9
$CHAMFERC
 40
0.0
  9
$CHAMFERD
 40
0.0
  9
$SKPOLY
 70
               0
  9
$TDCREATE
 40
0.000000000
  9
$TDUPDATE
 40
0.000000000
  9
$TDINDWG
 40
0.0000000000
  9
$TDUSRTIMER
 40
0.0000000000
  9
$USRTIMER
 70
               1
  9
$ANGBASE
 50
0.0
  9
$ANGDIR
 70
               0
  9
$PDMODE
 70
               0
  9
$PDSIZE
 40
0.0
  9
$PLINEWID
 40
0.0
  9
$COORDS
 70
               0
  9
$SPLFRAME
 70
               0
  9
$SPLINETYPE
 70
               6
  9
$SPLINESEGS
 70
               8
  9
$ATTDIA
 70
               0
  9
$ATTREQ
 70
               1
  9
$HANDLING
 70
               1
  9
$HANDSEED
  5
241
  9
$SURFTAB1
 70
               6
  9
$SURFTAB2
 70
               6
  9
$SURFTYPE
 70
               6
  9
$SURFU
 70
               6
  9
$SURFV
 70
               6
  9
$UCSNAME
  2

  9
$UCSORG
 10
0.0
 20
0.0
 30
0.0
  9
$UCSXDIR
 10
1.0
 20
0.0
 30
0.0
  9
$UCSYDIR
 10
0.0
 20
1.0
 30
0.0
  9
$PUCSNAME
  2

  9
$PUCSORG
 10
0.0
 20
0.0
 30
0.0
  9
$PUCSXDIR
 10
1.0
 20
0.0
 30
0.0
  9
$PUCSYDIR
 10
0.0
 20
1.0
 30
0.0
  9
$USERI1
 70
               0
  9
$USERI2
 70
               0
  9
$USERI3
 70
               0
  9
$USERI4
 70
               0
  9
$USERI5
 70
               0
  9
$USERR1
 40
0.0
  9
$USERR2
 40
0.0
  9
$USERR3
 40
0.0
  9
$USERR4
 40
0.0
  9
$USERR5
 40
0.0
  9
$WORLDVIEW
 70
               1
  9
$SHADEDGE
 70
               3
  9
$SHADEDIF
 70
              70
  9
$TILEMODE
 70
               1
  9
$MAXACTVP
 70
              16
  9
$PINSBASE
 10
0.0
 20
0.0
 30
0.0
  9
$PLIMCHECK
 70
               0
  9
$PEXTMIN
 10
1.0000000000000000E+20
 20
1.0000000000000000E+20
 30
1.0000000000000000E+20
  9
$PEXTMAX
 10
-1.0000000000000000E+20
 20
-1.0000000000000000E+20
 30
-1.0000000000000000E+20
  9
$PLIMMIN
 10
0.0
 20
0.0
  9
$PLIMMAX
 10
12.0
 20
9.0
  9
$UNITMODE
 70
               0
  9
$VISRETAIN
 70
               0
  9
$PLINEGEN
 70
               1
  9
$PSLTSCALE
 70
               0
  9
$TREEDEPTH
 70
            3020
  9
$PICKSTYLE
 70
               1
  9
$CMLSTYLE
  2
Standard
  9
$CMLJUST
 70
               0
  9
$CMLSCALE
 40
1.0
  9
$PROXYGRAPHICS
 70
               0
  9
$MEASUREMENT
 70
               0
  0
ENDSEC
  0
SECTION
  2
CLASSES
  0
CLASS
  1
LWPOLYLINE
  2
AcDbPolyline
  3
"AutoCAD"
 90
        0
280
               0
281
               1
  0
CLASS
  1
IMAGE
  2
AcDbRasterImage
  3
ISM
 90
      127
280
               0
281
               1
  0
CLASS
  1
OLE2FRAME
  2
AcDbOle2Frame
  3
""
 90
        0
280
               0
281
               1
  0
CLASS
  1
HATCH
  2
AcDbHatch
  3
"ACAD_SEDONA"
 90
        0
280
               0
281
               1
  0
CLASS
  1
DICTIONARYVAR
  2
AcDbDictionaryVar
  3
"AutoCAD"
 90
        0
280
               0
281
               0
  0
CLASS
  1
RASTERVARIABLES
  2
AcDbRasterVariables
  3
ISM
 90
        0
280
               0
281
               0
  0
CLASS
  1
IMAGEDEF
  2
AcDbRasterImageDef
  3
ISM
 90
        0
280
               0
281
               0
  0
CLASS
  1
IMAGEDEF_REACTOR
  2
AcDbRasterImageDefReactor
  3
ISM
 90
        1
280
               0
281
               0
  0
CLASS
  1
IDBUFFER
  2
AcDbIdBuffer
  3
"Acad"
 90
        0
280
               0
281
               0
  0
CLASS
  1
SPATIAL_FILTER
  2
AcDbSpatialFilter
  3
"Acad"
 90
        0
280
               0
281
               0
  0
CLASS
  1
XRECORD
  2
AcDbXrecord
  3
"<Built In>"
 90
        0
280
               0
281
               0
  0
CLASS
  1
SORTENTSTABLE
  2
AcDbSortentsTable
  3
"AutoCAD"
 90
        0
280
               0
281
               0
  0
CLASS
  1
LAYER_INDEX
  2
AcDbLayerIndex
  3
"Acad"
 90
        0
280
               0
281
               0
  0
CLASS
  1
SPATIAL_INDEX
  2
AcDbSpatialIndex
  3
"Acad"
 90
        0
280
               0
281
               0
  0
CLASS
  1
OBJECT_PTR
  2
CAseDLPNTableRecord
  3
"ASE-LPNTableRecord"
 90
        1
280
               0
281
               0
  0
CLASS
  1
LAYOUT
  2
AcDbLayout
  3
"AutoCAD 2000"
 90
        0
280
               0
281
               0
  0
CLASS
  1
PLOTSETTINGS
  2
AcDbPlotSettings
  3
"AutoCAD 2000"
 90
        0
280
               0
281
               0
  0
CLASS
  1
ACDBDICTIONARYWDFLT
  2
AcDbDictionaryWithDefault
  3
"AutoCAD 2000"
 90
        0
280
               0
281
               0
  0
CLASS
  1
ACDBPLACEHOLDER
  2
AcDbPlaceHolder
  3
"AutoCAD 2000"
 90
        0
280
               0
281
               0
  0
CLASS
  1
VBA_PROJECT
  2
AcDbVbaProject
  3
"acadvba"
 90
        0
280
               0
281
               0
  0
CLASS
  1
WIPEOUT
  2
AcDbWipeout
  3
WipeOut|AutoCAD Express Tool|expresstools@autodesk.com
 90
      127
280
               0
281
               1
  0
CLASS
  1
WIPEOUTVARIABLES
  2
AcDbWipeoutVariables
  3
WipeOut|AutoCAD Express Tool|expresstools@autodesk.com
 90
        0
280
               0
281
               0
  0
CLASS
  1
RTEXT
  2
RText
  3
RText|AutoCAD Express Tool|expresstools@autodesk.com
 90
        0
280
               0
281
               1
  0
CLASS
  1
ARCALIGNEDTEXT
  2
AcDbArcAlignedText
  3
ATEXT|AutoCAD Express Tool|expresstools@autodesk.com
 90
        0
280
               0
281
               1
  0
ENDSEC
  0
SECTION
  2
TABLES
  0
TABLE
  2
VPORT
  5
7
100
AcDbSymbolTable
 70
               1
  0
VPORT
  5
15
100
AcDbSymbolTableRecord
100
AcDbViewportTableRecord
  2
*ACTIVE
 70
               0
 10
0.0
 20
0.0
 11
1.0
 21
1.0
 12
445.50000000000045
 22
315.00000000000034
 13
0.0
 23
0.0
 14
10.0
 24
10.0
 15
10.0
 25
10.0
 16
0.0
 26
0.0
 36
1.0
 17
0.0
 27
0.0
 37
0.0
 40
630.00000000000068
 41
1.4142857142857141
 42
50.0
 43
0.0
 44
0.0
 50
0.0
 51
0.0
 71
               0
 72
             100
 73
               1
 74
               1
 75
               0
 76
               0
 77
               0
 78
               0
  0
ENDTAB
  0
TABLE
  2
LTYPE
  5
4
100
AcDbSymbolTable
 70
              24
  0
LTYPE
  5
11
100
AcDbSymbolTableRecord
100
AcDbLinetypeTableRecord
  2
ByBlock
 70
              64
  3

 72
              65
 73
               0
 40
0.0
  0
LTYPE
  5
12
100
AcDbSymbolTableRecord
100
AcDbLinetypeTableRecord
  2
ByLayer
 70
              64
  3

 72
              65
 73
               0
 40
0.0
  0
LTYPE
  5
13
100
AcDbSymbolTableRecord
100
AcDbLinetypeTableRecord
  2
Continuous
 70
              64
  3
Solid line
 72
              65
 73
               0
 40
0.0
  0
LTYPE
  5
1D
100
AcDbSymbolTableRecord
100
AcDbLinetypeTableRecord
  2
DOT
 70
              64
  3
Dot . . . . . . . . . . . . . . . . . . . . . .
 72
              65
 73
               2
 40
6.3499999999999996
 49
0.35
 74
               0
 49
-6.0
 74
               0
  0
LTYPE
  5
1E
100
AcDbSymbolTableRecord
100
AcDbLinetypeTableRecord
  2
DASHED
 70
              64
  3
Dashed __ __ __ __ __ __ __ __ __ __ __ __ __ _
 72
              65
 73
               2
 40
12.699999999999999
 49
6.3499999999999996
 74
               0
 49
-6.3499999999999996
 74
               0
  0
LTYPE
  5
1F
100
AcDbSymbolTableRecord
100
AcDbLinetypeTableRecord
  2
DASHDOT
 70
              64
  3
Dash dot __ . __ . __ . __ . __ . __ . __ . __
 72
              65
 73
               4
 40
25.399999999999999
 49
12.699999999999999
 74
               0
 49
-6.0
 74
               0
 49
0.7
 74
               0
 49
-6.0
 74
               0
  0
LTYPE
  5
20
100
AcDbSymbolTableRecord
100
AcDbLinetypeTableRecord
  2
DIVIDE
 70
              64
  3
Divide ____ . . ____ . . ____ . . ____ . . ____
 72
              65
 73
               6
 40
31.75
 49
12.699999999999999
 74
               0
 49
-6.0
 74
               0
 49
0.875
 74
               0
 49
-6.0
 74
               0
 49
0.875
 74
               0
 49
-6.0
 74
               0
  0
LTYPE
  5
21
100
AcDbSymbolTableRecord
100
AcDbLinetypeTableRecord
  2
HIDDEN
 70
              64
  3
Hidden __ __ __ __ __ __ __ __ __ __ __ __ __ _
 72
              65
 73
               2
 40
9.5250000000000004
 49
6.3499999999999996
 74
               0
 49
-3.1749999999999998
 74
               0
  0
LTYPE
  5
22
100
AcDbSymbolTableRecord
100
AcDbLinetypeTableRecord
  2
CENTER
 70
              64
  3
Center ____ _ ____ _ ____ _ ____ _ ____ _ ____
 72
              65
 73
               4
 40
50.799999999999997
 49
31.75
 74
               0
 49
-6.3499999999999996
 74
               0
 49
6.3499999999999996
 74
               0
 49
-6.3499999999999996
 74
               0
  0
LTYPE
  5
23
100
AcDbSymbolTableRecord
100
AcDbLinetypeTableRecord
  2
PHANTOM
 70
              64
  3
Phantom ______  __  __  ______  __  __  ______
 72
              65
 73
               6
 40
63.5
 49
31.75
 74
               0
 49
-6.3499999999999996
 74
               0
 49
6.3499999999999996
 74
               0
 49
-6.3499999999999996
 74
               0
 49
6.3499999999999996
 74
               0
 49
-6.3499999999999996
 74
               0
  0
LTYPE
  5
24
100
AcDbSymbolTableRecord
100
AcDbLinetypeTableRecord
  2
ACAD_ISO02W100
 70
              64
  3
ISO dash __ __ __ __ __ __ __ __ __ __ __ __ __
 72
              65
 73
               2
 40
15.0
 49
12.0
 74
               0
 49
-3.0
 74
               0
  0
LTYPE
  5
25
100
AcDbSymbolTableRecord
100
AcDbLinetypeTableRecord
  2
ACAD_ISO03W100
 70
              64
  3
ISO dash space __ __ __ __ __ __ __ __ __ __ __ __ __ __
 72
              65
 73
               2
 40
30.0
 49
12.0
 74
               0
 49
-18.0
 74
               0
  0
LTYPE
  5
26
100
AcDbSymbolTableRecord
100
AcDbLinetypeTableRecord
  2
ACAD_ISO04W100
 70
              64
  3
ISO long-dash dot ____ . ____ . ____ . ____ . _
 72
              65
 73
               4
 40
30.0
 49
24.0
 74
               0
 49
-3.0
 74
               0
 49
0.0
 74
               0
 49
-3.0
 74
               0
  0
LTYPE
  5
27
100
AcDbSymbolTableRecord
100
AcDbLinetypeTableRecord
  2
ACAD_ISO05W100
 70
              64
  3
ISO long-dash double-dot ____ .. ____ .. ____ .
 72
              65
 73
               6
 40
33.0
 49
24.0
 74
               0
 49
-3.0
 74
               0
 49
0.0
 74
               0
 49
-3.0
 74
               0
 49
0.0
 74
               0
 49
-3.0
 74
               0
  0
LTYPE
  5
28
100
AcDbSymbolTableRecord
100
AcDbLinetypeTableRecord
  2
ACAD_ISO06W100
 70
              64
  3
ISO long-dash triple-dot ____ ... ____ ... ____
 72
              65
 73
               8
 40
36.0
 49
24.0
 74
               0
 49
-3.0
 74
               0
 49
0.0
 74
               0
 49
-3.0
 74
               0
 49
0.0
 74
               0
 49
-3.0
 74
               0
 49
0.0
 74
               0
 49
-3.0
 74
               0
  0
LTYPE
  5
29
100
AcDbSymbolTableRecord
100
AcDbLinetypeTableRecord
  2
ACAD_ISO07W100
 70
              64
  3
ISO dot . . . . . . . . . . . . . . . . . . . .
 72
              65
 73
               2
 40
3.0
 49
0.0
 74
               0
 49
-3.0
 74
               0
  0
LTYPE
  5
2A
100
AcDbSymbolTableRecord
100
AcDbLinetypeTableRecord
  2
ACAD_ISO08W100
 70
              64
  3
ISO long-dash short-dash ____ __ ____ __ ____ _
 72
              65
 73
               4
 40
36.0
 49
24.0
 74
               0
 49
-3.0
 74
               0
 49
6.0
 74
               0
 49
-3.0
 74
               0
  0
LTYPE
  5
2B
100
AcDbSymbolTableRecord
100
AcDbLinetypeTableRecord
  2
ACAD_ISO09W100
 70
              64
  3
ISO long-dash double-short-dash ____ __ __ ____
 72
              65
 73
               6
 40
45.0
 49
24.0
 74
               0
 49
-3.0
 74
               0
 49
6.0
 74
               0
 49
-3.0
 74
               0
 49
6.0
 74
               0
 49
-3.0
 74
               0
  0
LTYPE
  5
2C
100
AcDbSymbolTableRecord
100
AcDbLinetypeTableRecord
  2
ACAD_ISO10W100
 70
              64
  3
ISO dash dot __ . __ . __ . __ . __ . __ . __ .
 72
              65
 73
               4
 40
18.0
 49
12.0
 74
               0
 49
-3.0
 74
               0
 49
0.0
 74
               0
 49
-3.0
 74
               0
  0
LTYPE
  5
2D
100
AcDbSymbolTableRecord
100
AcDbLinetypeTableRecord
  2
ACAD_ISO11W100
 70
              64
  3
ISO double-dash dot __ __ . __ __ . __ __ . __ 
 72
              65
 73
               6
 40
33.0
 49
12.0
 74
               0
 49
-3.0
 74
               0
 49
12.0
 74
               0
 49
-3.0
 74
               0
 49
0.0
 74
               0
 49
-3.0
 74
               0
  0
LTYPE
  5
2E
100
AcDbSymbolTableRecord
100
AcDbLinetypeTableRecord
  2
ACAD_ISO12W100
 70
              64
  3
ISO dash double-dot __ . . __ . . __ . . __ . .
 72
              65
 73
               6
 40
21.0
 49
12.0
 74
               0
 49
-3.0
 74
               0
 49
0.0
 74
               0
 49
-3.0
 74
               0
 49
0.0
 74
               0
 49
-3.0
 74
               0
  0
LTYPE
  5
2F
100
AcDbSymbolTableRecord
100
AcDbLinetypeTableRecord
  2
ACAD_ISO13W100
 70
              64
  3
ISO double-dash double-dot __ __ . . __ __ . . 
 72
              65
 73
               8
 40
36.0
 49
12.0
 74
               0
 49
-3.0
 74
               0
 49
12.0
 74
               0
 49
-3.0
 74
               0
 49
0.0
 74
               0
 49
-3.0
 74
               0
 49
0.0
 74
               0
 49
-3.0
 74
               0
  0
LTYPE
  5
30
100
AcDbSymbolTableRecord
100
AcDbLinetypeTableRecord
  2
ACAD_ISO14W100
 70
              64
  3
ISO dash triple-dot __ . . . __ . . . __ . . . 
 72
              65
 73
               8
 40
24.0
 49
12.0
 74
               0
 49
-3.0
 74
               0
 49
0.0
 74
               0
 49
-3.0
 74
               0
 49
0.0
 74
               0
 49
-3.0
 74
               0
 49
0.0
 74
               0
 49
-3.0
 74
               0
  0
LTYPE
  5
31
100
AcDbSymbolTableRecord
100
AcDbLinetypeTableRecord
  2
ACAD_ISO15W100
 70
              64
  3
ISO double-dash double-dot __ __ . . __ __ . . 
 72
              65
 73
              10
 40
39.0
 49
12.0
 74
               0
 49
-3.0
 74
               0
 49
12.0
 74
               0
 49
-3.0
 74
               0
 49
0.0
 74
               0
 49
-3.0
 74
               0
 49
0.0
 74
               0
 49
-3.0
 74
               0
 49
0.0
 74
               0
 49
-3.0
 74
               0
  0
ENDTAB
  0
TABLE
  2
LAYER
  5
2
100
AcDbSymbolTable
 70
              16
  0
LAYER
  5
14
100
AcDbSymbolTableRecord
100
AcDbLayerTableRecord
  2
0
 70
               0
 62
               7
  6
Continuous
  0
LAYER
  5
35
100
AcDbSymbolTableRecord
100
AcDbLayerTableRecord
  2
Layer00001
 70
               0
 62
               7
  6
Continuous
  0
LAYER
  5
36
100
AcDbSymbolTableRecord
100
AcDbLayerTableRecord
  2
Layer00002
 70
               0
 62
               7
  6
Continuous
  0
LAYER
  5
37
100
AcDbSymbolTableRecord
100
AcDbLayerTableRecord
  2
Layer00003
 70
               0
 62
               7
  6
Continuous
  0
LAYER
  5
38
100
AcDbSymbolTableRecord
100
AcDbLayerTableRecord
  2
Layer00004
 70
               0
 62
               7
  6
Continuous
  0
LAYER
  5
39
100
AcDbSymbolTableRecord
100
AcDbLayerTableRecord
  2
Layer00005
 70
               0
 62
               7
  6
Continuous
  0
LAYER
  5
3A
100
AcDbSymbolTableRecord
100
AcDbLayerTableRecord
  2
Layer00006
 70
               0
 62
               7
  6
Continuous
  0
LAYER
  5
3B
100
AcDbSymbolTableRecord
100
AcDbLayerTableRecord
  2
Layer00007
 70
               0
 62
               7
  6
Continuous
  0
LAYER
  5
3C
100
AcDbSymbolTableRecord
100
AcDbLayerTableRecord
  2
Layer00008
 70
               0
 62
               7
  6
Continuous
  0
LAYER
  5
3D
100
AcDbSymbolTableRecord
100
AcDbLayerTableRecord
  2
Layer00009
 70
               0
 62
               7
  6
Continuous
  0
LAYER
  5
3E
100
AcDbSymbolTableRecord
100
AcDbLayerTableRecord
  2
Layer00010
 70
               0
 62
               7
  6
Continuous
  0
LAYER
  5
3F
100
AcDbSymbolTableRecord
100
AcDbLayerTableRecord
  2
Layer00011
 70
               0
 62
               7
  6
Continuous
  0
LAYER
  5
40
100
AcDbSymbolTableRecord
100
AcDbLayerTableRecord
  2
Layer00012
 70
               0
 62
               7
  6
Continuous
  0
LAYER
  5
41
100
AcDbSymbolTableRecord
100
AcDbLayerTableRecord
  2
Layer00013
 70
               0
 62
               7
  6
Continuous
  0
LAYER
  5
42
100
AcDbSymbolTableRecord
100
AcDbLayerTableRecord
  2
Layer00014
 70
               0
 62
               7
  6
Continuous
  0
LAYER
  5
43
100
AcDbSymbolTableRecord
100
AcDbLayerTableRecord
  2
Layer00015
 70
               0
 62
               7
  6
Continuous
  0
ENDTAB
  0
TABLE
  2
STYLE
  5
3
100
AcDbSymbolTable
 70
               4
  0
STYLE
  5
17
100
AcDbSymbolTableRecord
100
AcDbTextStyleTableRecord
  2
Standard
 70
               0
 40
0.0
 41
1.0
 50
0.0
 71
               0
 42
0.0
  3
txt.shx
  4
bigfont.shx
  0
STYLE
  5
32
100
AcDbSymbolTableRecord
100
AcDbTextStyleTableRecord
  2
STANDARD_T
 70
               4
 40
0.0
 41
1.0
 50
0.0
 71
               0
 42
0.0
  3
txt.shx
  4
bigfont.shx
  0
STYLE
  5
33
100
AcDbSymbolTableRecord
100
AcDbTextStyleTableRecord
  2
FontTableH_0
 70
               0
 40
0.0
 41
1.0
 50
0.0
 71
               0
 42
0.0
  3
MS Gothic.ttf
  4

1001
ACAD
1000
MS Gothic
1071
    32817
  0
STYLE
  5
34
100
AcDbSymbolTableRecord
100
AcDbTextStyleTableRecord
  2
FontTableV_0
 70
               0
 40
0.0
 41
1.0
 50
0.0
 71
               0
 42
0.0
  3
@MS Gothic.ttf
  4

1001
ACAD
1000
@MS Gothic
1071
    32817
  0
ENDTAB
  0
TABLE
  2
VIEW
  5
5
100
AcDbSymbolTable
 70
               0
  0
ENDTAB
  0
TABLE
  2
UCS
  5
6
100
AcDbSymbolTable
 70
               0
  0
ENDTAB
  0
TABLE
  2
APPID
  5
8
100
AcDbSymbolTable
 70
               1
  0
APPID
  5
16
100
AcDbSymbolTableRecord
100
AcDbRegAppTableRecord
  2
ACAD
 70
               0
  0
ENDTAB
  0
TABLE
  2
DIMSTYLE
  5
9
100
AcDbSymbolTable
 70
               1
  0
DIMSTYLE
105
18
100
AcDbSymbolTableRecord
100
AcDbDimStyleTableRecord
  2
Standard
 70
               0
  3

  4

  5

  6

  7

 40
1.0
 41
0.18
 42
0.0625
 43
0.38
 44
0.18
 45
0.0
 46
0.0
 47
0.0
 48
0.0
 71
               0
 72
               0
 73
               1
 74
               1
 75
               0
 76
               0
 77
               0
 78
               0
140
0.18
141
0.09
142
0.0
143
25.399999999999999
144
1.0
145
0.0
146
1.0
147
0.09
170
               0
171
               2
172
               0
173
               0
174
               0
175
               0
176
               0
177
               0
178
               0
270
               2
271
               4
272
               4
273
               2
274
               2
275
               0
280
               0
281
               0
282
               0
283
               1
284
               0
285
               0
286
               0
287
               0
288
               0
340
17
  0
ENDTAB
  0
TABLE
  2
BLOCK_RECORD
  5
1
100
AcDbSymbolTable
 70
               0
  0
BLOCK_RECORD
  5
A
100
AcDbSymbolTableRecord
100
AcDbBlockTableRecord
  2
*MODEL_SPACE
  0
BLOCK_RECORD
  5
B
100
AcDbSymbolTableRecord
100
AcDbBlockTableRecord
  2
*PAPER_SPACE
  0
ENDTAB
  0
ENDSEC
  0
SECTION
  2
BLOCKS
  0
BLOCK
  5
D
100
AcDbEntity
  8
0
100
AcDbBlockBegin
  2
*MODEL_SPACE
 70
               0
 10
0.0
 20
0.0
 30
0.0
  3
*MODEL_SPACE
  1

  0
ENDBLK
  5
E
100
AcDbEntity
  8
0
100
AcDbBlockEnd
  0
BLOCK
  5
F
100
AcDbEntity
 67
               1
  8
0
100
AcDbBlockBegin
  2
*PAPER_SPACE
 70
               0
 10
0.0
 20
0.0
 30
0.0
  3
*PAPER_SPACE
  1

  0
ENDBLK
  5
10
100
AcDbEntity
 67
               1
  8
0
100
AcDbBlockEnd
  0
ENDSEC
  0
SECTION
  2
ENTITIES
  0
LINE
  5
44
100
AcDbEntity
  8
0
  6
DASHDOT
 62
               4
100
AcDbLine
 10
367.48908657954206
 20
285.55608767473728
 30
0.0
 11
367.48908657954206
 21
322.09955173928978
 31
0.0
  0
LINE
  5
45
100
AcDbEntity
  8
0
  6
Continuous
 62
               3
100
AcDbLine
 10
247.48908657954206
 20
291.55608767473728
 30
0.0
 11
646.48908657954223
 21
291.55608767473728
 31
0.0
  0
LINE
  5
46
100
AcDbEntity
  8
0
  6
Continuous
 62
               3
100
AcDbLine
 10
247.48908657954206
 20
279.55608767473728
 30
0.0
 11
646.48908657954223
 21
279.55608767473728
 31
0.0
  0
LINE
  5
47
100
AcDbEntity
  8
0
  6
Continuous
 62
               6
100
AcDbLine
 10
642.88908667490966
 20
279.55608767473728
 30
0.0
 11
602.08908648417457
 21
279.55608767473728
 31
0.0
  0
LINE
  5
48
100
AcDbEntity
  8
0
  6
Continuous
 62
               6
100
AcDbLine
 10
597.489086579542
 20
274.95608777010472
 30
0.0
 11
597.489086579542
 21
259.55608767473728
 31
0.0
  0
LINE
  5
49
100
AcDbEntity
  8
0
  6
Continuous
 62
               6
100
AcDbLine
 10
597.489086579542
 20
259.55608767473728
 30
0.0
 11
599.78908653185829
 21
259.55608767473728
 31
0.0
  0
LINE
  5
4A
100
AcDbEntity
  8
0
  6
Continuous
 62
               6
100
AcDbLine
 10
599.78908653185829
 20
259.55608767473728
 30
0.0
 11
599.78908653185829
 21
274.95608777010472
 31
0.0
  0
LINE
  5
4B
100
AcDbEntity
  8
0
  6
Continuous
 62
               6
100
AcDbLine
 10
602.08908648417457
 20
277.256087722421
 30
0.0
 11
642.88908667490966
 21
277.256087722421
 31
0.0
  0
LINE
  5
4C
100
AcDbEntity
  8
0
  6
Continuous
 62
               6
100
AcDbLine
 10
645.18908662722595
 20
274.95608777010472
 30
0.0
 11
645.18908662722595
 21
184.15608757936991
 31
0.0
  0
LINE
  5
4D
100
AcDbEntity
  8
0
  6
Continuous
 62
               6
100
AcDbLine
 10
642.88908667490966
 20
181.85608762705363
 30
0.0
 11
602.08908648417457
 21
181.85608762705363
 31
0.0
  0
LINE
  5
4E
100
AcDbEntity
  8
0
  6
Continuous
 62
               6
100
AcDbLine
 10
599.78908653185829
 20
184.15608757936991
 30
0.0
 11
599.78908653185829
 21
199.55608767473728
 31
0.0
  0
LINE
  5
4F
100
AcDbEntity
  8
0
  6
Continuous
 62
               6
100
AcDbLine
 10
599.78908653185829
 20
199.55608767473728
 30
0.0
 11
597.489086579542
 21
199.55608767473728
 31
0.0
  0
LINE
  5
50
100
AcDbEntity
  8
0
  6
Continuous
 62
               6
100
AcDbLine
 10
597.489086579542
 20
199.55608767473728
 30
0.0
 11
597.489086579542
 21
184.15608757936991
 31
0.0
  0
LINE
  5
51
100
AcDbEntity
  8
0
  6
Continuous
 62
               6
100
AcDbLine
 10
602.08908648417457
 20
179.55608767473728
 30
0.0
 11
642.88908667490966
 21
179.55608767473728
 31
0.0
  0
LINE
  5
52
100
AcDbEntity
  8
0
  6
Continuous
 62
               6
100
AcDbLine
 10
647.48908657954223
 20
184.15608757936991
 30
0.0
 11
647.48908657954223
 21
274.95608777010472
 31
0.0
  0
LINE
  5
53
100
AcDbEntity
  8
0
  6
DASHED
 62
               6
100
AcDbLine
 10
443.98908657954206
 20
305.55608767473728
 30
0.0
 11
645.98908657954223
 21
305.55608767473728
 31
0.0
  0
LINE
  5
54
100
AcDbEntity
  8
0
  6
DASHED
 62
               6
100
AcDbLine
 10
438.98908657954206
 20
304.55608767473728
 30
0.0
 11
443.98908657954206
 21
305.55608767473728
 31
0.0
  0
LINE
  5
55
100
AcDbEntity
  8
0
  6
DASHED
 62
               6
100
AcDbLine
 10
290.98908657954206
 20
305.55608767473728
 30
0.0
 11
247.48908657954206
 21
305.55608767473728
 31
0.0
  0
LINE
  5
56
100
AcDbEntity
  8
0
  6
DASHED
 62
               6
100
AcDbLine
 10
295.98908657954206
 20
304.55608767473728
 30
0.0
 11
290.98908657954206
 21
305.55608767473728
 31
0.0
  0
LINE
  5
57
100
AcDbEntity
  8
0
  6
Continuous
 62
               7
100
AcDbLine
 10
612.78345909477082
 20
303.55608767473728
 30
0.0
 11
600.78345909477082
 21
291.55608767473728
 31
0.0
  0
LINE
  5
58
100
AcDbEntity
  8
0
  6
Continuous
 62
               7
100
AcDbLine
 10
605.71239128290529
 20
303.55608767473728
 30
0.0
 11
593.71239128290529
 21
291.55608767473728
 31
0.0
  0
LINE
  5
59
100
AcDbEntity
  8
0
  6
Continuous
 62
               7
100
AcDbLine
 10
598.64132347103975
 20
303.55608767473728
 30
0.0
 11
586.64132347103975
 21
291.55608767473728
 31
0.0
  0
LINE
  5
5A
100
AcDbEntity
  8
0
  6
Continuous
 62
               7
100
AcDbLine
 10
591.57025565917422
 20
303.55608767473728
 30
0.0
 11
579.57025565917422
 21
291.55608767473728
 31
0.0
  0
LINE
  5
5B
100
AcDbEntity
  8
0
  6
Continuous
 62
               7
100
AcDbLine
 10
584.49918784730892
 20
303.55608767473728
 30
0.0
 11
572.49918784730892
 21
291.55608767473728
 31
0.0
  0
LINE
  5
5C
100
AcDbEntity
  8
0
  6
Continuous
 62
               7
100
AcDbLine
 10
577.42812003544338
 20
303.55608767473728
 30
0.0
 11
565.42812003544338
 21
291.55608767473728
 31
0.0
  0
LINE
  5
5D
100
AcDbEntity
  8
0
  6
Continuous
 62
               7
100
AcDbLine
 10
570.35705222357785
 20
303.55608767473728
 30
0.0
 11
558.35705222357785
 21
291.55608767473728
 31
0.0
  0
LINE
  5
5E
100
AcDbEntity
  8
0
  6
Continuous
 62
               7
100
AcDbLine
 10
563.28598441171232
 20
303.55608767473728
 30
0.0
 11
551.28598441171232
 21
291.55608767473728
 31
0.0
  0
LINE
  5
5F
100
AcDbEntity
  8
0
  6
Continuous
 62
               7
100
AcDbLine
 10
556.21491659984679
 20
303.55608767473728
 30
0.0
 11
544.21491659984679
 21
291.55608767473728
 31
0.0
  0
LINE
  5
60
100
AcDbEntity
  8
0
  6
Continuous
 62
               7
100
AcDbLine
 10
549.14384878798148
 20
303.55608767473728
 30
0.0
 11
537.14384878798148
 21
291.55608767473728
 31
0.0
  0
LINE
  5
61
100
AcDbEntity
  8
0
  6
Continuous
 62
               7
100
AcDbLine
 10
542.07278097611595
 20
303.55608767473728
 30
0.0
 11
530.07278097611595
 21
291.55608767473728
 31
0.0
  0
LINE
  5
62
100
AcDbEntity
  8
0
  6
Continuous
 62
               7
100
AcDbLine
 10
535.00171316425042
 20
303.55608767473728
 30
0.0
 11
523.00171316425042
 21
291.55608767473728
 31
0.0
  0
LINE
  5
63
100
AcDbEntity
  8
0
  6
Continuous
 62
               7
100
AcDbLine
 10
527.93064535238489
 20
303.55608767473728
 30
0.0
 11
522.78027688455143
 21
298.40571920690383
 31
0.0
  0
LINE
  5
64
100
AcDbEntity
  8
0
  6
Continuous
 62
               7
100
AcDbLine
 10
490.59915472279505
 20
294.50886829260929
 30
0.0
 11
487.64637410492304
 21
291.55608767473728
 31
0.0
  0
LINE
  5
65
100
AcDbEntity
  8
0
  6
Continuous
 62
               7
100
AcDbLine
 10
490.59915472279505
 20
301.57993610447483
 30
0.0
 11
480.57530629305762
 21
291.55608767473728
 31
0.0
  0
LINE
  5
66
100
AcDbEntity
  8
0
  6
Continuous
 62
               7
100
AcDbLine
 10
485.50423848119209
 20
303.55608767473728
 30
0.0
 11
473.50423848119209
 21
291.55608767473728
 31
0.0
  0
LINE
  5
67
100
AcDbEntity
  8
0
  6
Continuous
 62
               7
100
AcDbLine
 10
478.43317066932667
 20
303.55608767473728
 30
0.0
 11
466.43317066932667
 21
291.55608767473728
 31
0.0
  0
LINE
  5
68
100
AcDbEntity
  8
0
  6
Continuous
 62
               7
100
AcDbLine
 10
471.36210285746114
 20
303.55608767473728
 30
0.0
 11
459.36210285746114
 21
291.55608767473728
 31
0.0
  0
LINE
  5
69
100
AcDbEntity
  8
0
  6
Continuous
 62
               7
100
AcDbLine
 10
464.29103504559572
 20
303.55608767473728
 30
0.0
 11
452.29103504559572
 21
291.55608767473728
 31
0.0
  0
LINE
  5
6A
100
AcDbEntity
  8
0
  6
Continuous
 62
               7
100
AcDbLine
 10
457.21996723373019
 20
303.55608767473728
 30
0.0
 11
445.21996723373019
 21
291.55608767473728
 31
0.0
  0
LINE
  5
6B
100
AcDbEntity
  8
0
  6
Continuous
 62
               7
100
AcDbLine
 10
450.14889942186477
 20
303.55608767473728
 30
0.0
 11
438.14889942186477
 21
291.55608767473728
 31
0.0
  0
LINE
  5
6C
100
AcDbEntity
  8
0
  6
Continuous
 62
               7
100
AcDbLine
 10
443.07783160999924
 20
303.55608767473728
 30
0.0
 11
431.07783160999924
 21
291.55608767473728
 31
0.0
  0
LINE
  5
6D
100
AcDbEntity
  8
0
  6
Continuous
 62
               7
100
AcDbLine
 10
436.00676379813382
 20
303.55608767473728
 30
0.0
 11
424.00676379813382
 21
291.55608767473728
 31
0.0
  0
LINE
  5
6E
100
AcDbEntity
  8
0
  6
Continuous
 62
               7
100
AcDbLine
 10
301.65647537268978
 20
303.55608767473728
 30
0.0
 11
289.65647537268978
 21
291.55608767473728
 31
0.0
  0
LINE
  5
6F
100
AcDbEntity
  8
0
  6
Continuous
 62
               7
100
AcDbLine
 10
294.58540756082425
 20
303.55608767473728
 30
0.0
 11
282.58540756082425
 21
291.55608767473728
 31
0.0
  0
LINE
  5
70
100
AcDbEntity
  8
0
  6
Continuous
 62
               7
100
AcDbLine
 10
287.51433974895878
 20
303.55608767473728
 30
0.0
 11
275.51433974895878
 21
291.55608767473728
 31
0.0
  0
LINE
  5
71
100
AcDbEntity
  8
0
  6
Continuous
 62
               7
100
AcDbLine
 10
280.44327193709336
 20
303.55608767473728
 30
0.0
 11
268.44327193709324
 21
291.55608767473728
 31
0.0
  0
LINE
  5
72
100
AcDbEntity
  8
0
  6
Continuous
 62
               7
100
AcDbLine
 10
273.37220412522788
 20
303.55608767473728
 30
0.0
 11
261.37220412522788
 21
291.55608767473728
 31
0.0
  0
LINE
  5
73
100
AcDbEntity
  8
0
  6
Continuous
 62
               7
100
AcDbLine
 10
266.30113631336235
 20
303.55608767473728
 30
0.0
 11
254.30113631336235
 21
291.55608767473728
 31
0.0
  0
LINE
  5
74
100
AcDbEntity
  8
0
  6
Continuous
 62
               7
100
AcDbLine
 10
259.23006850149687
 20
303.55608767473728
 30
0.0
 11
247.48908657954206
 21
291.81510575278253
 31
0.0
  0
LINE
  5
75
100
AcDbEntity
  8
0
  6
Continuous
 62
               7
100
AcDbLine
 10
252.15900068963145
 20
303.55608767473728
 30
0.0
 11
247.48908657954206
 21
298.886173564648
 31
0.0
  0
LINE
  5
76
100
AcDbEntity
  8
0
  6
Continuous
 62
               7
100
AcDbLine
 10
250.14384878798148
 20
279.55608767473728
 30
0.0
 11
247.48908657954206
 21
282.21084988317659
 31
0.0
  0
LINE
  5
77
100
AcDbEntity
  8
0
  6
Continuous
 62
               7
100
AcDbLine
 10
257.21491659984684
 20
279.55608767473728
 30
0.0
 11
247.48908657954206
 21
289.28191769504213
 31
0.0
  0
LINE
  5
78
100
AcDbEntity
  8
0
  6
Continuous
 62
               7
100
AcDbLine
 10
264.28598441171238
 20
279.55608767473728
 30
0.0
 11
252.28598441171238
 21
291.55608767473728
 31
0.0
  0
LINE
  5
79
100
AcDbEntity
  8
0
  6
Continuous
 62
               7
100
AcDbLine
 10
271.35705222357785
 20
279.55608767473728
 30
0.0
 11
259.35705222357785
 21
291.55608767473728
 31
0.0
  0
LINE
  5
7A
100
AcDbEntity
  8
0
  6
Continuous
 62
               7
100
AcDbLine
 10
278.42812003544338
 20
279.55608767473728
 30
0.0
 11
266.42812003544338
 21
291.55608767473728
 31
0.0
  0
LINE
  5
7B
100
AcDbEntity
  8
0
  6
Continuous
 62
               7
100
AcDbLine
 10
285.49918784730875
 20
279.55608767473728
 30
0.0
 11
273.49918784730875
 21
291.55608767473728
 31
0.0
  0
LINE
  5
7C
100
AcDbEntity
  8
0
  6
Continuous
 62
               7
100
AcDbLine
 10
292.57025565917428
 20
279.55608767473728
 30
0.0
 11
280.57025565917428
 21
291.55608767473728
 31
0.0
  0
LINE
  5
7D
100
AcDbEntity
  8
0
  6
Continuous
 62
               7
100
AcDbLine
 10
299.64132347103975
 20
279.55608767473728
 30
0.0
 11
287.64132347103975
 21
291.55608767473728
 31
0.0
  0
LINE
  5
7E
100
AcDbEntity
  8
0
  6
Continuous
 62
               7
100
AcDbLine
 10
306.71239128290529
 20
279.55608767473728
 30
0.0
 11
294.71239128290529
 21
291.55608767473728
 31
0.0
  0
LINE
  5
7F
100
AcDbEntity
  8
0
  6
Continuous
 62
               7
100
AcDbLine
 10
313.78345909477065
 20
279.55608767473728
 30
0.0
 11
301.78345909477065
 21
291.55608767473728
 31
0.0
  0
LINE
  5
80
100
AcDbEntity
  8
0
  6
Continuous
 62
               7
100
AcDbLine
 10
320.85452690663618
 20
279.55608767473728
 30
0.0
 11
308.85452690663618
 21
291.55608767473728
 31
0.0
  0
LINE
  5
81
100
AcDbEntity
  8
0
  6
Continuous
 62
               7
100
AcDbLine
 10
327.92559471850166
 20
279.55608767473728
 30
0.0
 11
315.92559471850166
 21
291.55608767473728
 31
0.0
  0
LINE
  5
82
100
AcDbEntity
  8
0
  6
Continuous
 62
               7
100
AcDbLine
 10
334.99666253036719
 20
279.55608767473728
 30
0.0
 11
322.99666253036719
 21
291.55608767473728
 31
0.0
  0
LINE
  5
83
100
AcDbEntity
  8
0
  6
Continuous
 62
               7
100
AcDbLine
 10
342.06773034223255
 20
279.55608767473728
 30
0.0
 11
330.06773034223255
 21
291.55608767473728
 31
0.0
  0
LINE
  5
84
100
AcDbEntity
  8
0
  6
Continuous
 62
               7
100
AcDbLine
 10
349.13879815409808
 20
279.55608767473728
 30
0.0
 11
337.13879815409808
 21
291.55608767473728
 31
0.0
  0
LINE
  5
85
100
AcDbEntity
  8
0
  6
Continuous
 62
               7
100
AcDbLine
 10
356.2098659659635
 20
279.55608767473728
 30
0.0
 11
344.20986596596356
 21
291.55608767473728
 31
0.0
  0
LINE
  5
86
100
AcDbEntity
  8
0
  6
Continuous
 62
               7
100
AcDbLine
 10
363.28093377782903
 20
279.55608767473728
 30
0.0
 11
351.28093377782903
 21
291.55608767473728
 31
0.0
  0
LINE
  5
87
100
AcDbEntity
  8
0
  6
Continuous
 62
               7
100
AcDbLine
 10
370.35200158969457
 20
279.55608767473728
 30
0.0
 11
358.35200158969457
 21
291.55608767473728
 31
0.0
  0
LINE
  5
88
100
AcDbEntity
  8
0
  6
Continuous
 62
               7
100
AcDbLine
 10
377.42306940155999
 20
279.55608767473728
 30
0.0
 11
365.42306940155999
 21
291.55608767473728
 31
0.0
  0
LINE
  5
89
100
AcDbEntity
  8
0
  6
Continuous
 62
               7
100
AcDbLine
 10
384.4941372134254
 20
279.55608767473728
 30
0.0
 11
372.4941372134254
 21
291.55608767473728
 31
0.0
  0
LINE
  5
8A
100
AcDbEntity
  8
0
  6
Continuous
 62
               7
100
AcDbLine
 10
391.56520502529094
 20
279.55608767473728
 30
0.0
 11
379.56520502529094
 21
291.55608767473728
 31
0.0
  0
LINE
  5
8B
100
AcDbEntity
  8
0
  6
Continuous
 62
               7
100
AcDbLine
 10
398.63627283715647
 20
279.55608767473728
 30
0.0
 11
386.63627283715647
 21
291.55608767473728
 31
0.0
  0
LINE
  5
8C
100
AcDbEntity
  8
0
  6
Continuous
 62
               7
100
AcDbLine
 10
405.70734064902189
 20
279.55608767473728
 30
0.0
 11
393.70734064902189
 21
291.55608767473728
 31
0.0
  0
LINE
  5
8D
100
AcDbEntity
  8
0
  6
Continuous
 62
               7
100
AcDbLine
 10
412.77840846088731
 20
279.55608767473728
 30
0.0
 11
400.77840846088731
 21
291.55608767473728
 31
0.0
  0
LINE
  5
8E
100
AcDbEntity
  8
0
  6
Continuous
 62
               7
100
AcDbLine
 10
419.84947627275284
 20
279.55608767473728
 30
0.0
 11
407.84947627275284
 21
291.55608767473728
 31
0.0
  0
LINE
  5
8F
100
AcDbEntity
  8
0
  6
Continuous
 62
               7
100
AcDbLine
 10
426.92054408461837
 20
279.55608767473728
 30
0.0
 11
414.92054408461837
 21
291.55608767473728
 31
0.0
  0
LINE
  5
90
100
AcDbEntity
  8
0
  6
Continuous
 62
               7
100
AcDbLine
 10
433.99161189648379
 20
279.55608767473728
 30
0.0
 11
421.99161189648379
 21
291.55608767473728
 31
0.0
  0
LINE
  5
91
100
AcDbEntity
  8
0
  6
Continuous
 62
               7
100
AcDbLine
 10
441.06267970834932
 20
279.55608767473728
 30
0.0
 11
429.06267970834932
 21
291.55608767473728
 31
0.0
  0
LINE
  5
92
100
AcDbEntity
  8
0
  6
Continuous
 62
               7
100
AcDbLine
 10
448.13374752021474
 20
279.55608767473728
 30
0.0
 11
436.13374752021474
 21
291.55608767473728
 31
0.0
  0
LINE
  5
93
100
AcDbEntity
  8
0
  6
Continuous
 62
               7
100
AcDbLine
 10
455.20481533208027
 20
279.55608767473728
 30
0.0
 11
443.20481533208027
 21
291.55608767473728
 31
0.0
  0
LINE
  5
94
100
AcDbEntity
  8
0
  6
Continuous
 62
               7
100
AcDbLine
 10
462.27588314394569
 20
279.55608767473728
 30
0.0
 11
450.27588314394569
 21
291.55608767473728
 31
0.0
  0
LINE
  5
95
100
AcDbEntity
  8
0
  6
Continuous
 62
               7
100
AcDbLine
 10
469.34695095581122
 20
279.55608767473728
 30
0.0
 11
457.34695095581122
 21
291.55608767473728
 31
0.0
  0
LINE
  5
96
100
AcDbEntity
  8
0
  6
Continuous
 62
               7
100
AcDbLine
 10
476.41801876767664
 20
279.55608767473728
 30
0.0
 11
464.41801876767664
 21
291.55608767473728
 31
0.0
  0
LINE
  5
97
100
AcDbEntity
  8
0
  6
Continuous
 62
               7
100
AcDbLine
 10
483.48908657954217
 20
279.55608767473728
 30
0.0
 11
471.48908657954217
 21
291.55608767473728
 31
0.0
  0
LINE
  5
98
100
AcDbEntity
  8
0
  6
Continuous
 62
               7
100
AcDbLine
 10
490.56015439140759
 20
279.55608767473728
 30
0.0
 11
478.56015439140759
 21
291.55608767473728
 31
0.0
  0
LINE
  5
99
100
AcDbEntity
  8
0
  6
Continuous
 62
               7
100
AcDbLine
 10
490.59915472279505
 20
286.58815515521542
 30
0.0
 11
485.63122220327313
 21
291.55608767473728
 31
0.0
  0
LINE
  5
9A
100
AcDbEntity
  8
0
  6
Continuous
 62
               7
100
AcDbLine
 10
525.91549345073497
 20
279.55608767473728
 30
0.0
 11
522.78027688455143
 21
282.69130424092089
 31
0.0
  0
LINE
  5
9B
100
AcDbEntity
  8
0
  6
Continuous
 62
               7
100
AcDbLine
 10
532.9865612626005
 20
279.55608767473728
 30
0.0
 11
522.78027688455143
 21
289.76237205278642
 31
0.0
  0
LINE
  5
9C
100
AcDbEntity
  8
0
  6
Continuous
 62
               7
100
AcDbLine
 10
540.05762907446604
 20
279.55608767473728
 30
0.0
 11
528.05762907446604
 21
291.55608767473728
 31
0.0
  0
LINE
  5
9D
100
AcDbEntity
  8
0
  6
Continuous
 62
               7
100
AcDbLine
 10
547.12869688633134
 20
279.55608767473728
 30
0.0
 11
535.12869688633134
 21
291.55608767473728
 31
0.0
  0
LINE
  5
9E
100
AcDbEntity
  8
0
  6
Continuous
 62
               7
100
AcDbLine
 10
554.19976469819687
 20
279.55608767473728
 30
0.0
 11
542.19976469819687
 21
291.55608767473728
 31
0.0
  0
LINE
  5
9F
100
AcDbEntity
  8
0
  6
Continuous
 62
               7
100
AcDbLine
 10
561.27083251006241
 20
279.55608767473728
 30
0.0
 11
549.27083251006241
 21
291.55608767473728
 31
0.0
  0
LINE
  5
A0
100
AcDbEntity
  8
0
  6
Continuous
 62
               7
100
AcDbLine
 10
568.34190032192794
 20
279.55608767473728
 30
0.0
 11
556.34190032192794
 21
291.55608767473728
 31
0.0
  0
LINE
  5
A1
100
AcDbEntity
  8
0
  6
Continuous
 62
               7
100
AcDbLine
 10
575.41296813379347
 20
279.55608767473728
 30
0.0
 11
563.41296813379324
 21
291.55608767473728
 31
0.0
  0
LINE
  5
A2
100
AcDbEntity
  8
0
  6
Continuous
 62
               7
100
AcDbLine
 10
582.48403594565877
 20
279.55608767473728
 30
0.0
 11
570.48403594565877
 21
291.55608767473728
 31
0.0
  0
LINE
  5
A3
100
AcDbEntity
  8
0
  6
Continuous
 62
               7
100
AcDbLine
 10
589.55510375752431
 20
279.55608767473728
 30
0.0
 11
577.55510375752431
 21
291.55608767473728
 31
0.0
  0
LINE
  5
A4
100
AcDbEntity
  8
0
  6
Continuous
 62
               7
100
AcDbLine
 10
596.62617156938984
 20
279.55608767473728
 30
0.0
 11
584.62617156938984
 21
291.55608767473728
 31
0.0
  0
LINE
  5
A5
100
AcDbEntity
  8
0
  6
Continuous
 62
               7
100
AcDbLine
 10
603.69723938125537
 20
279.55608767473728
 30
0.0
 11
591.69723938125537
 21
291.55608767473728
 31
0.0
  0
LINE
  5
A6
100
AcDbEntity
  8
0
  6
Continuous
 62
               7
100
AcDbLine
 10
610.7683071931209
 20
279.55608767473728
 30
0.0
 11
598.76830719312068
 21
291.55608767473728
 31
0.0
  0
LINE
  5
A7
100
AcDbEntity
  8
0
  6
Continuous
 62
               4
100
AcDbLine
 10
367.48908657954206
 20
374.55608767473751
 30
0.0
 11
367.48908657954206
 21
325.09955173928978
 31
0.0
  0
LINE
  5
A8
100
AcDbEntity
  8
0
  6
Continuous
 62
               4
100
AcDbLine
 10
647.48908657954223
 20
371.55608767473751
 30
0.0
 11
367.48908657954206
 21
371.55608767473751
 31
0.0
  0
LINE
  5
A9
100
AcDbEntity
  8
0
  6
Continuous
 62
               4
100
AcDbLine
 10
367.48908657954206
 20
371.55608767473751
 30
0.0
 11
267.48908657954206
 21
371.55608767473751
 31
0.0
  0
LINE
  5
AA
100
AcDbEntity
  8
0
  6
Continuous
 62
               4
100
AcDbLine
 10
267.48908657954206
 20
371.55608767473751
 30
0.0
 11
276.35235635665197
 21
373.11892127373983
 31
0.0
  0
LINE
  5
AB
100
AcDbEntity
  8
0
  6
Continuous
 62
               4
100
AcDbLine
 10
267.48908657954206
 20
371.55608767473751
 30
0.0
 11
276.35235635665197
 21
369.99325407573508
 31
0.0
  0
LINE
  5
AC
100
AcDbEntity
  8
0
  6
Continuous
 62
               4
100
AcDbLine
 10
395.9642951936101
 20
401.55608767473746
 30
0.0
 11
236.24505658664867
 21
401.55608767473746
 31
0.0
  0
LINE
  5
AD
100
AcDbEntity
  8
0
  6
Continuous
 62
               4
100
AcDbLine
 10
386.72669088657602
 20
417.55608767473746
 30
0.0
 11
236.24505658664867
 21
417.55608767473746
 31
0.0
  0
LINE
  5
AE
100
AcDbEntity
  8
0
  6
Continuous
 62
               4
100
AcDbLine
 10
377.48908657954206
 20
433.55608767473746
 30
0.0
 11
236.24505658664867
 21
433.55608767473746
 31
0.0
  0
LINE
  5
AF
100
AcDbEntity
  8
0
  6
Continuous
 62
               6
100
AcDbLine
 10
597.489086579542
 20
279.55608767473728
 30
0.0
 11
597.489086579542
 21
179.55608767473728
 31
0.0
  0
LINE
  5
B0
100
AcDbEntity
  8
0
  6
Continuous
 62
               6
100
AcDbLine
 10
247.48908657954206
 20
179.55608767473728
 30
0.0
 11
597.489086579542
 21
179.55608767473728
 31
0.0
  0
LINE
  5
B1
100
AcDbEntity
  8
0
  6
Continuous
 62
               6
100
AcDbLine
 10
247.48908657954206
 20
199.55608767473728
 30
0.0
 11
597.489086579542
 21
199.55608767473728
 31
0.0
  0
LINE
  5
B2
100
AcDbEntity
  8
0
  6
Continuous
 62
               6
100
AcDbLine
 10
247.48908657954206
 20
259.55608767473728
 30
0.0
 11
597.489086579542
 21
259.55608767473728
 31
0.0
  0
LINE
  5
B3
100
AcDbEntity
  8
0
  6
DASHED
 62
               6
100
AcDbLine
 10
247.48908657954206
 20
277.25608767473727
 30
0.0
 11
597.489086579542
 21
277.25608767473727
 31
0.0
  0
LINE
  5
B4
100
AcDbEntity
  8
0
  6
DASHED
 62
               6
100
AcDbLine
 10
247.48908657954206
 20
181.8560876747373
 30
0.0
 11
597.489086579542
 21
181.8560876747373
 31
0.0
  0
LINE
  5
B5
100
AcDbEntity
  8
0
  6
Continuous
 62
               2
100
AcDbLine
 10
627.48908657954223
 20
316.55608767473728
 30
0.0
 11
627.48908657954223
 21
416.55608767473746
 31
0.0
  0
LINE
  5
B6
100
AcDbEntity
  8
0
  6
Continuous
 62
               2
100
AcDbLine
 10
627.48908657954223
 20
416.55608767473746
 30
0.0
 11
644.48908657954223
 21
416.55608767473746
 31
0.0
  0
LINE
  5
B7
100
AcDbEntity
  8
0
  6
Continuous
 62
               7
100
AcDbLine
 10
632.48908657954223
 20
436.55608767473746
 30
0.0
 11
647.48908657954223
 21
436.55608767473746
 31
0.0
  0
LINE
  5
B8
100
AcDbEntity
  8
0
  6
Continuous
 62
               7
100
AcDbLine
 10
632.48908657954223
 20
436.55608767473746
 30
0.0
 11
632.48908657954223
 21
466.55608767473746
 31
0.0
  0
LINE
  5
B9
100
AcDbEntity
  8
0
  6
Continuous
 62
               2
100
AcDbLine
 10
627.48908657954223
 20
316.55608767473728
 30
0.0
 11
578.2307164736809
 21
311.63025066415122
 31
0.0
  0
LINE
  5
BA
100
AcDbEntity
  8
0
  6
Continuous
 62
               2
100
AcDbLine
 10
587.45103356045968
 20
309.1845302472608
 30
0.0
 11
578.24088600855828
 21
309.99031374745323
 31
0.0
  0
LINE
  5
BB
100
AcDbEntity
  8
0
  6
Continuous
 62
               4
100
AcDbLine
 10
586.0943715137945
 20
310.05608767473728
 30
0.0
 11
641.83376726037534
 21
310.05608767473728
 31
0.0
  0
LINE
  5
BC
100
AcDbEntity
  8
0
  6
Continuous
 62
               4
100
AcDbLine
 10
577.98908657954223
 20
310.7652082211319
 30
0.0
 11
586.0943715137945
 21
310.05608767473728
 31
0.0
  0
LINE
  5
BD
100
AcDbEntity
  8
0
  6
Continuous
 62
               6
100
AcDbLine
 10
626.17285276361588
 20
310.05608767473728
 30
0.0
 11
624.67285276361565
 21
308.55608767473728
 31
0.0
  0
LINE
  5
BE
100
AcDbEntity
  8
0
  6
Continuous
 62
               6
100
AcDbLine
 10
624.05153242005611
 20
310.05608767473728
 30
0.0
 11
622.55153242005611
 21
308.55608767473728
 31
0.0
  0
LINE
  5
BF
100
AcDbEntity
  8
0
  6
Continuous
 62
               6
100
AcDbLine
 10
621.93021207649633
 20
310.05608767473728
 30
0.0
 11
620.43021207649633
 21
308.55608767473728
 31
0.0
  0
LINE
  5
C0
100
AcDbEntity
  8
0
  6
Continuous
 62
               6
100
AcDbLine
 10
619.80889173293679
 20
310.05608767473728
 30
0.0
 11
618.30889173293679
 21
308.55608767473728
 31
0.0
  0
LINE
  5
C1
100
AcDbEntity
  8
0
  6
Continuous
 62
               6
100
AcDbLine
 10
617.68757138937701
 20
310.05608767473728
 30
0.0
 11
616.18757138937701
 21
308.55608767473728
 31
0.0
  0
LINE
  5
C2
100
AcDbEntity
  8
0
  6
Continuous
 62
               6
100
AcDbLine
 10
615.56625104581747
 20
310.05608767473728
 30
0.0
 11
614.06625104581747
 21
308.55608767473728
 31
0.0
  0
LINE
  5
C3
100
AcDbEntity
  8
0
  6
Continuous
 62
               6
100
AcDbLine
 10
613.44493070225792
 20
310.05608767473728
 30
0.0
 11
611.94493070225792
 21
308.55608767473728
 31
0.0
  0
LINE
  5
C4
100
AcDbEntity
  8
0
  6
Continuous
 62
               6
100
AcDbLine
 10
611.32361035869815
 20
310.05608767473728
 30
0.0
 11
609.82361035869815
 21
308.55608767473728
 31
0.0
  0
LINE
  5
C5
100
AcDbEntity
  8
0
  6
Continuous
 62
               6
100
AcDbLine
 10
609.2022900151386
 20
310.05608767473728
 30
0.0
 11
607.7022900151386
 21
308.55608767473728
 31
0.0
  0
LINE
  5
C6
100
AcDbEntity
  8
0
  6
Continuous
 62
               6
100
AcDbLine
 10
607.08096967157883
 20
310.05608767473728
 30
0.0
 11
605.58096967157883
 21
308.55608767473728
 31
0.0
  0
LINE
  5
C7
100
AcDbEntity
  8
0
  6
Continuous
 62
               6
100
AcDbLine
 10
604.95964932801928
 20
310.05608767473728
 30
0.0
 11
603.45964932801928
 21
308.55608767473728
 31
0.0
  0
LINE
  5
C8
100
AcDbEntity
  8
0
  6
Continuous
 62
               6
100
AcDbLine
 10
602.83832898445951
 20
310.05608767473728
 30
0.0
 11
601.33832898445951
 21
308.55608767473728
 31
0.0
  0
LINE
  5
C9
100
AcDbEntity
  8
0
  6
Continuous
 62
               6
100
AcDbLine
 10
600.71700864089996
 20
310.05608767473728
 30
0.0
 11
599.21700864089996
 21
308.55608767473728
 31
0.0
  0
LINE
  5
CA
100
AcDbEntity
  8
0
  6
Continuous
 62
               6
100
AcDbLine
 10
598.59568829734042
 20
310.05608767473728
 30
0.0
 11
597.09568829734019
 21
308.55608767473728
 31
0.0
  0
LINE
  5
CB
100
AcDbEntity
  8
0
  6
Continuous
 62
               6
100
AcDbLine
 10
596.47436795378064
 20
310.05608767473728
 30
0.0
 11
594.97436795378064
 21
308.55608767473728
 31
0.0
  0
LINE
  5
CC
100
AcDbEntity
  8
0
  6
Continuous
 62
               6
100
AcDbLine
 10
594.3530476102211
 20
310.05608767473728
 30
0.0
 11
592.8530476102211
 21
308.55608767473728
 31
0.0
  0
LINE
  5
CD
100
AcDbEntity
  8
0
  6
Continuous
 62
               6
100
AcDbLine
 10
592.23172726666132
 20
310.05608767473728
 30
0.0
 11
590.73172726666132
 21
308.55608767473728
 31
0.0
  0
LINE
  5
CE
100
AcDbEntity
  8
0
  6
Continuous
 62
               6
100
AcDbLine
 10
590.11040692310178
 20
310.05608767473728
 30
0.0
 11
588.61040692310178
 21
308.55608767473728
 31
0.0
  0
LINE
  5
CF
100
AcDbEntity
  8
0
  6
Continuous
 62
               7
100
AcDbLine
 10
647.48908657954223
 20
159.55608767473728
 30
0.0
 11
647.48908657954223
 21
466.55608767473746
 31
0.0
  0
LINE
  5
D0
100
AcDbEntity
  8
0
  6
Continuous
 62
               2
100
AcDbLine
 10
644.48908657954223
 20
416.55608339500509
 30
0.0
 11
644.48908657954223
 21
435.05608767473746
 31
0.0
  0
LINE
  5
D1
100
AcDbEntity
  8
0
  6
Continuous
 62
               7
100
AcDbLine
 10
633.99666253036742
 20
303.55608767473728
 30
0.0
 11
621.99666253036719
 21
291.55608767473728
 31
0.0
  0
LINE
  5
D2
100
AcDbEntity
  8
0
  6
Continuous
 62
               7
100
AcDbLine
 10
626.92559471850188
 20
303.55608767473728
 30
0.0
 11
614.92559471850166
 21
291.55608767473728
 31
0.0
  0
LINE
  5
D3
100
AcDbEntity
  8
0
  6
Continuous
 62
               7
100
AcDbLine
 10
619.85452690663635
 20
303.55608767473728
 30
0.0
 11
607.85452690663635
 21
291.55608767473728
 31
0.0
  0
LINE
  5
D4
100
AcDbEntity
  8
0
  6
Continuous
 62
               7
100
AcDbLine
 10
617.83937500498621
 20
279.55608767473728
 30
0.0
 11
605.83937500498621
 21
291.55608767473728
 31
0.0
  0
LINE
  5
D5
100
AcDbEntity
  8
0
  6
Continuous
 62
               7
100
AcDbLine
 10
624.91044281685197
 20
279.55608767473728
 30
0.0
 11
612.91044281685174
 21
291.55608767473728
 31
0.0
  0
LINE
  5
D6
100
AcDbEntity
  8
0
  6
Continuous
 62
               7
100
AcDbLine
 10
631.9815106287175
 20
279.55608767473728
 30
0.0
 11
619.98151062871727
 21
291.55608767473728
 31
0.0
  0
LINE
  5
D7
100
AcDbEntity
  8
0
  6
Continuous
 62
               7
100
AcDbLine
 10
646.48908657954223
 20
294.83530828831562
 30
0.0
 11
643.20986596596379
 21
291.55608767473728
 31
0.0
  0
LINE
  5
D8
100
AcDbEntity
  8
0
  6
Continuous
 62
               7
100
AcDbLine
 10
646.48908657954223
 20
301.90637610018109
 30
0.0
 11
636.13879815409825
 21
291.55608767473728
 31
0.0
  0
LINE
  5
D9
100
AcDbEntity
  8
0
  6
Continuous
 62
               7
100
AcDbLine
 10
641.06773034223295
 20
303.55608767473728
 30
0.0
 11
629.06773034223295
 21
291.55608767473728
 31
0.0
  0
LINE
  5
DA
100
AcDbEntity
  8
0
  6
Continuous
 62
               7
100
AcDbLine
 10
639.05257844058281
 20
279.55608767473728
 30
0.0
 11
627.05257844058281
 21
291.55608767473728
 31
0.0
  0
LINE
  5
DB
100
AcDbEntity
  8
0
  6
Continuous
 62
               7
100
AcDbLine
 10
646.12364625244857
 20
279.55608767473728
 30
0.0
 11
634.12364625244834
 21
291.55608767473728
 31
0.0
  0
LINE
  5
DC
100
AcDbEntity
  8
0
  6
Continuous
 62
               7
100
AcDbLine
 10
646.48908657954223
 20
286.26171515950898
 30
0.0
 11
641.19471406431387
 21
291.55608767473728
 31
0.0
  0
LINE
  5
DD
100
AcDbEntity
  8
0
  6
Continuous
 62
               7
100
AcDbLine
 10
642.48908657954223
 20
436.55608767473746
 30
0.0
 11
642.48908657954223
 21
444.55608767473746
 31
0.0
  0
LINE
  5
DE
100
AcDbEntity
  8
0
  6
Continuous
 62
               6
100
AcDbLine
 10
635.97436795378087
 20
416.55608767473746
 30
0.0
 11
633.21180540310922
 21
419.31865022540899
 31
0.0
  0
LINE
  5
DF
100
AcDbEntity
  8
0
  6
Continuous
 62
               6
100
AcDbLine
 10
640.21700864089996
 20
416.55608767473746
 30
0.0
 11
633.80021107392838
 21
422.97288524170915
 31
0.0
  0
LINE
  5
E0
100
AcDbEntity
  8
0
  6
Continuous
 62
               6
100
AcDbLine
 10
642.48908657954223
 20
418.52665042321462
 30
0.0
 11
633.98579242974063
 21
427.02994457301611
 31
0.0
  0
LINE
  5
E1
100
AcDbEntity
  8
0
  6
Continuous
 62
               6
100
AcDbLine
 10
642.48908657954223
 20
422.76929111033394
 30
0.0
 11
633.60590924174892
 21
431.65246844812714
 31
0.0
  0
LINE
  5
E2
100
AcDbEntity
  8
0
  6
Continuous
 62
               6
100
AcDbLine
 10
642.48908657954223
 20
427.01193179745326
 30
0.0
 11
632.94493070225792
 21
436.55608767473746
 31
0.0
  0
LINE
  5
E3
100
AcDbEntity
  8
0
  6
Continuous
 62
               6
100
AcDbLine
 10
642.48908657954223
 20
431.25457248457246
 30
0.0
 11
637.18757138937724
 21
436.55608767473746
 31
0.0
  0
LINE
  5
E4
100
AcDbEntity
  8
0
  6
Continuous
 62
               6
100
AcDbLine
 10
642.48908657954223
 20
435.49721317169178
 30
0.0
 11
641.43021207649656
 21
436.55608767473746
 31
0.0
  0
LINE
  5
E5
100
AcDbEntity
  8
0
  6
Continuous
 62
               6
100
AcDbLine
 10
642.48908657954223
 20
418.8281656133795
 30
0.0
 11
640.21700864089996
 21
416.55608767473746
 31
0.0
  0
LINE
  5
E6
100
AcDbEntity
  8
0
  6
Continuous
 62
               6
100
AcDbLine
 10
642.48908657954223
 20
423.07080630049882
 30
0.0
 11
635.97436795378064
 21
416.55608767473746
 31
0.0
  0
LINE
  5
E7
100
AcDbEntity
  8
0
  6
Continuous
 62
               6
100
AcDbLine
 10
642.48908657954223
 20
427.31344698761814
 30
0.0
 11
632.79721177268732
 21
417.62157218076311
 31
0.0
  0
LINE
  5
E8
100
AcDbEntity
  8
0
  6
Continuous
 62
               6
100
AcDbLine
 10
642.48908657954223
 20
431.55608767473746
 30
0.0
 11
633.78748516934286
 21
422.8544862645382
 31
0.0
  0
LINE
  5
E9
100
AcDbEntity
  8
0
  6
Continuous
 62
               6
100
AcDbLine
 10
642.48908657954223
 20
435.79872836185666
 30
0.0
 11
633.98116661955248
 21
427.29080840186691
 31
0.0
  0
LINE
  5
EA
100
AcDbEntity
  8
0
  6
Continuous
 62
               6
100
AcDbLine
 10
639.00380520530359
 20
436.55608767473746
 30
0.0
 11
633.66838504564373
 21
431.22066751507748
 31
0.0
  0
LINE
  5
EB
100
AcDbEntity
  8
0
  6
Continuous
 62
               6
100
AcDbLine
 10
634.76116451818427
 20
436.55608767473746
 30
0.0
 11
632.98264623135867
 21
434.77756938791174
 31
0.0
  0
LINE
  5
EC
100
AcDbEntity
  8
0
  6
Continuous
 62
               4
100
AcDbLine
 10
625.10099737469443
 20
340.43697972321559
 30
0.0
 11
626.89206426541625
 21
322.52631081599731
 31
0.0
  0
LINE
  5
ED
100
AcDbEntity
  8
0
  6
Continuous
 62
               4
100
AcDbLine
 10
575.02313546011931
 20
335.42919353175807
 30
0.0
 11
576.89615153171246
 21
316.69903281582611
 31
0.0
  0
LINE
  5
EE
100
AcDbEntity
  8
0
  6
Continuous
 62
               4
100
AcDbLine
 10
625.39950853175731
 20
337.45186815258558
 30
0.0
 11
575.32164661718218
 21
332.44408196112812
 31
0.0
  0
LINE
  5
EF
100
AcDbEntity
  8
0
  6
Continuous
 62
               4
100
AcDbLine
 10
603.48908657954223
 20
316.55608767473728
 30
0.0
 11
621.48908657954223
 21
316.55608767473728
 31
0.0
  0
LINE
  5
F0
100
AcDbEntity
  8
0
  6
Continuous
 62
               4
100
AcDbLine
 10
603.48908657954223
 20
416.55608767473746
 30
0.0
 11
621.48908657954223
 21
416.55608767473746
 31
0.0
  0
LINE
  5
F1
100
AcDbEntity
  8
0
  6
Continuous
 62
               4
100
AcDbLine
 10
606.48908657954223
 20
316.55608767473728
 30
0.0
 11
606.48908657954223
 21
416.55608767473746
 31
0.0
  0
LINE
  5
F2
100
AcDbEntity
  8
0
  6
Continuous
 62
               4
100
AcDbLine
 10
603.48908657954223
 20
436.55608767473746
 30
0.0
 11
626.48908657954223
 21
436.55608767473746
 31
0.0
  0
LINE
  5
F3
100
AcDbEntity
  8
0
  6
Continuous
 62
               4
100
AcDbLine
 10
606.48908657954223
 20
416.55608767473746
 30
0.0
 11
606.48908657954223
 21
436.55608767473746
 31
0.0
  0
LINE
  5
F4
100
AcDbEntity
  8
0
  6
Continuous
 62
               7
100
AcDbLine
 10
640.98908657954223
 20
446.05608767473746
 30
0.0
 11
640.98908657954223
 21
466.55608767473746
 31
0.0
  0
LINE
  5
F5
100
AcDbEntity
  8
0
  6
Continuous
 62
               6
100
AcDbLine
 10
634.76116451818427
 20
436.55608767473746
 30
0.0
 11
632.98264623135867
 21
434.77756938791174
 31
0.0
  0
LINE
  5
F6
100
AcDbEntity
  8
0
  6
Continuous
 62
               4
100
AcDbLine
 10
595.30817422336884
 20
310.05608767473728
 30
0.0
 11
573.12547061967223
 21
348.47765736558108
 31
0.0
  0
LINE
  5
F7
100
AcDbEntity
  8
0
  6
Continuous
 62
               4
100
AcDbLine
 10
627.48908657954223
 20
352.97736647776873
 30
0.0
 11
593.66864612768825
 21
411.55608767473734
 31
0.0
  0
LINE
  5
F8
100
AcDbEntity
  8
0
  6
Continuous
 62
               4
100
AcDbLine
 10
633.98908657954223
 20
426.55608767473746
 30
0.0
 11
616.66857850385338
 21
456.55608767473746
 31
0.0
  0
LINE
  5
F9
100
AcDbEntity
  8
0
  6
Continuous
 62
               4
100
AcDbLine
 10
616.66857850385338
 20
456.55608767473746
 30
0.0
 11
507.46779196047589
 21
456.55608767473746
 31
0.0
  0
LINE
  5
FA
100
AcDbEntity
  8
0
  6
Continuous
 62
               4
100
AcDbLine
 10
633.98908657954223
 20
426.55608767473746
 30
0.0
 11
628.20399809236335
 21
433.4504876628082
 31
0.0
  0
LINE
  5
FB
100
AcDbEntity
  8
0
  6
Continuous
 62
               4
100
AcDbLine
 10
633.98908657954223
 20
426.55608767473746
 30
0.0
 11
630.91090528961115
 21
435.01332126181057
 31
0.0
  0
LINE
  5
FC
100
AcDbEntity
  8
0
  6
Continuous
 62
               4
100
AcDbLine
 10
627.48908657954223
 20
352.97736647776873
 30
0.0
 11
621.70399809236335
 21
359.87176646583953
 31
0.0
  0
LINE
  5
FD
100
AcDbEntity
  8
0
  6
Continuous
 62
               4
100
AcDbLine
 10
627.48908657954223
 20
352.97736647776873
 30
0.0
 11
624.41090528961115
 21
361.43460006484179
 31
0.0
  0
LINE
  5
FE
100
AcDbEntity
  8
0
  6
Continuous
 62
               4
100
AcDbLine
 10
595.30817422336884
 20
310.05608767473728
 30
0.0
 11
589.52308573618996
 21
316.95048766280809
 31
0.0
  0
LINE
  5
FF
100
AcDbEntity
  8
0
  6
Continuous
 62
               4
100
AcDbLine
 10
595.30817422336884
 20
310.05608767473728
 30
0.0
 11
592.22999293343776
 21
318.51332126181052
 31
0.0
  0
LINE
  5
100
100
AcDbEntity
  8
0
  6
Continuous
 62
               4
100
AcDbLine
 10
462.93692641960666
 20
285.55608767473728
 30
0.0
 11
377.48908657954206
 21
433.55608767473746
 31
0.0
  0
LINE
  5
101
100
AcDbEntity
  8
0
  6
Continuous
 62
               4
100
AcDbLine
 10
573.12547061967223
 20
348.47765736558108
 30
0.0
 11
436.42768559266693
 21
348.47765736558108
 31
0.0
  0
LINE
  5
102
100
AcDbEntity
  8
0
  6
Continuous
 62
               4
100
AcDbLine
 10
593.66864612768825
 20
411.55608767473734
 30
0.0
 11
511.82197947909879
 21
411.55608767473734
 31
0.0
  0
LINE
  5
103
100
AcDbEntity
  8
0
  6
Continuous
 62
               6
100
AcDbLine
 10
647.48908657954223
 20
400.73968684453303
 30
0.0
 11
697.48908657954223
 21
450.73968684453303
 31
0.0
  0
LINE
  5
104
100
AcDbEntity
  8
0
  6
Continuous
 62
               6
100
AcDbLine
 10
647.48908657954223
 20
393.66861903266761
 30
0.0
 11
697.48908657954223
 21
443.66861903266761
 31
0.0
  0
LINE
  5
105
100
AcDbEntity
  8
0
  6
Continuous
 62
               6
100
AcDbLine
 10
647.48908657954223
 20
386.59755122080207
 30
0.0
 11
697.48908657954223
 21
436.59755122080207
 31
0.0
  0
LINE
  5
106
100
AcDbEntity
  8
0
  6
Continuous
 62
               6
100
AcDbLine
 10
647.48908657954223
 20
231.03405935976161
 30
0.0
 11
697.48908657954223
 21
281.03405935976161
 31
0.0
  0
LINE
  5
107
100
AcDbEntity
  8
0
  6
Continuous
 62
               6
100
AcDbLine
 10
647.48908657954223
 20
223.96299154789608
 30
0.0
 11
697.48908657954223
 21
273.96299154789608
 31
0.0
  0
LINE
  5
108
100
AcDbEntity
  8
0
  6
Continuous
 62
               6
100
AcDbLine
 10
647.48908657954223
 20
216.89192373603072
 30
0.0
 11
697.48908657954223
 21
266.89192373603072
 31
0.0
  0
LINE
  5
109
100
AcDbEntity
  8
0
  6
Continuous
 62
               4
100
AcDbLine
 10
502.98908657954206
 20
303.55608767473728
 30
0.0
 11
502.98908657954206
 21
291.55608767473728
 31
0.0
  0
LINE
  5
10A
100
AcDbEntity
  8
0
  6
Continuous
 62
               4
100
AcDbLine
 10
502.98908657954206
 20
291.55608767473728
 30
0.0
 11
502.98908657954206
 21
279.55608767473728
 31
0.0
  0
LINE
  5
10B
100
AcDbEntity
  8
0
  6
Continuous
 62
               4
100
AcDbLine
 10
518.989086579542
 20
279.55608767473728
 30
0.0
 11
518.989086579542
 21
308.55608767473728
 31
0.0
  0
LINE
  5
10C
100
AcDbEntity
  8
0
  6
Continuous
 62
               4
100
AcDbLine
 10
502.98908657954206
 20
303.55608767473728
 30
0.0
 11
502.98908657954206
 21
308.55608767473728
 31
0.0
  0
LINE
  5
10D
100
AcDbEntity
  8
0
  6
Continuous
 62
               4
100
AcDbLine
 10
502.98908657954206
 20
308.55608767473728
 30
0.0
 11
502.98908657954206
 21
314.45608287072179
 31
0.0
  0
LINE
  5
10E
100
AcDbEntity
  8
0
  6
Continuous
 62
               7
100
AcDbLine
 10
315.79861099642079
 20
303.55608767473728
 30
0.0
 11
303.79861099642068
 21
291.55608767473728
 31
0.0
  0
LINE
  5
10F
100
AcDbEntity
  8
0
  6
Continuous
 62
               7
100
AcDbLine
 10
308.72754318455526
 20
303.55608767473728
 30
0.0
 11
296.72754318455526
 21
291.55608767473728
 31
0.0
  0
LINE
  5
110
100
AcDbEntity
  8
0
  6
Continuous
 62
               3
100
AcDbLine
 10
646.48908657954223
 20
279.55608767473728
 30
0.0
 11
646.48908657954223
 21
303.55608767473728
 31
0.0
  0
LINE
  5
111
100
AcDbEntity
  8
0
  6
DASHED
 62
               6
100
AcDbLine
 10
645.98908657954223
 20
305.55608767473728
 30
0.0
 11
645.98908657954223
 21
435.73429862779608
 31
0.0
  0
LINE
  5
112
100
AcDbEntity
  8
0
  6
Continuous
 62
               2
100
AcDbLine
 10
644.48908657954223
 20
308.55608767473728
 30
0.0
 11
644.48908657954223
 21
414.55608767473746
 31
0.0
  0
LINE
  5
113
100
AcDbEntity
  8
0
  6
Continuous
 62
               6
100
AcDbLine
 10
628.29417310717542
 20
310.05608767473728
 30
0.0
 11
626.79417310717542
 21
308.55608767473728
 31
0.0
  0
LINE
  5
114
100
AcDbEntity
  8
0
  6
Continuous
 62
               6
100
AcDbLine
 10
630.4154934507352
 20
310.05608767473728
 30
0.0
 11
628.9154934507352
 21
308.55608767473728
 31
0.0
  0
LINE
  5
115
100
AcDbEntity
  8
0
  6
Continuous
 62
               6
100
AcDbLine
 10
632.53681379429497
 20
310.05608767473728
 30
0.0
 11
631.03681379429474
 21
308.55608767473728
 31
0.0
  0
LINE
  5
116
100
AcDbEntity
  8
0
  6
Continuous
 62
               6
100
AcDbLine
 10
634.65813413785474
 20
310.05608767473728
 30
0.0
 11
633.15813413785452
 21
308.55608767473728
 31
0.0
  0
LINE
  5
117
100
AcDbEntity
  8
0
  6
Continuous
 62
               6
100
AcDbLine
 10
636.77945448141429
 20
310.05608767473728
 30
0.0
 11
635.27945448141429
 21
308.55608767473728
 31
0.0
  0
LINE
  5
118
100
AcDbEntity
  8
0
  6
Continuous
 62
               6
100
AcDbLine
 10
638.90077482497406
 20
310.05608767473728
 30
0.0
 11
637.40077482497406
 21
308.55608767473728
 31
0.0
  0
LINE
  5
119
100
AcDbEntity
  8
0
  6
Continuous
 62
               6
100
AcDbLine
 10
639.64740173760208
 20
310.05608767473728
 30
0.0
 11
639.64740173760208
 21
308.55608767473728
 31
0.0
  0
LINE
  5
11A
100
AcDbEntity
  8
0
  6
Continuous
 62
               7
100
AcDbLine
 10
643.28563492433489
 20
423.79261171669145
 30
0.0
 11
643.28563492433443
 21
429.19261171669177
 31
0.0
  0
LINE
  5
11B
100
AcDbEntity
  8
0
  6
Continuous
 62
               7
100
AcDbLine
 10
643.78563492433375
 20
430.99261171669127
 30
0.0
 11
643.7856349243342
 21
421.99261171669173
 31
0.0
  0
LINE
  5
11C
100
AcDbEntity
  8
0
  6
Continuous
 62
               7
100
AcDbLine
 10
643.58563492433439
 20
429.49261171669161
 30
0.0
 11
643.78563492433352
 21
429.49261171669184
 31
0.0
  0
LINE
  5
11D
100
AcDbEntity
  8
0
  6
Continuous
 62
               7
100
AcDbLine
 10
643.58563492433461
 20
423.49261171669093
 30
0.0
 11
643.78563492433352
 21
423.49261171669195
 31
0.0
  0
LINE
  5
11E
100
AcDbEntity
  8
0
  6
Continuous
 62
               7
100
AcDbLine
 10
673.63189407100515
 20
427.99261171669286
 30
0.0
 11
675.28563492433489
 21
427.99261171669173
 31
0.0
  0
LINE
  5
11F
100
AcDbEntity
  8
0
  6
Continuous
 62
               7
100
AcDbLine
 10
673.63189407100197
 20
424.99261171669355
 30
0.0
 11
675.28563492433352
 21
424.99261171669229
 31
0.0
  0
LINE
  5
120
100
AcDbEntity
  8
0
  6
Continuous
 62
               7
100
AcDbLine
 10
644.23909143985054
 20
430.99261171669184
 30
0.0
 11
643.78563492433375
 21
430.99261171669127
 31
0.0
  0
LINE
  5
121
100
AcDbEntity
  8
0
  6
Continuous
 62
               7
100
AcDbLine
 10
644.23909143985077
 20
421.99261171669218
 30
0.0
 11
643.7856349243342
 21
421.99261171669173
 31
0.0
  0
LINE
  5
122
100
AcDbEntity
  8
0
  6
Continuous
 62
               7
100
AcDbLine
 10
645.28563492433284
 20
428.99261171669218
 30
0.0
 11
662.78563492433398
 21
428.99261171669184
 31
0.0
  0
LINE
  5
123
100
AcDbEntity
  8
0
  6
Continuous
 62
               7
100
AcDbLine
 10
645.28563492433352
 20
423.99261171669161
 30
0.0
 11
662.78563492433443
 21
423.99261171669207
 31
0.0
  0
LINE
  5
124
100
AcDbEntity
  8
0
  6
Continuous
 62
               7
100
AcDbLine
 10
644.91819118995261
 20
430.46238665421765
 30
0.0
 11
645.28563492433284
 21
428.99261171669218
 31
0.0
  0
LINE
  5
125
100
AcDbEntity
  8
0
  6
Continuous
 62
               7
100
AcDbLine
 10
644.91819118995238
 20
422.5228367791666
 30
0.0
 11
645.28563492433352
 21
423.99261171669161
 31
0.0
  0
LINE
  5
126
100
AcDbEntity
  8
0
  6
Continuous
 62
               7
100
AcDbLine
 10
675.83774512609955
 20
429.39698938501488
 30
0.0
 11
676.01139330376543
 21
428.41218163200324
 31
0.0
  0
LINE
  5
127
100
AcDbEntity
  8
0
  6
Continuous
 62
               7
100
AcDbLine
 10
676.01139330376543
 20
424.57304180138135
 30
0.0
 11
668.24765430686523
 21
425.94199845771368
 31
0.0
  0
LINE
  5
128
100
AcDbEntity
  8
0
  6
Continuous
 62
               7
100
AcDbLine
 10
676.01139330376543
 20
428.41218163200324
 30
0.0
 11
668.24765430686614
 21
427.04322497567091
 31
0.0
  0
LINE
  5
129
100
AcDbEntity
  8
0
  6
Continuous
 62
               7
100
AcDbLine
 10
675.83774512609955
 20
423.58823404836858
 30
0.0
 11
676.01139330376543
 21
424.57304180138135
 31
0.0
  0
LINE
  5
12A
100
AcDbEntity
  8
0
  6
Continuous
 62
               7
100
AcDbLine
 10
674.1868853189136
 20
430.12132487152758
 30
0.0
 11
667.7856349243342
 21
428.99261171669241
 31
0.0
  0
LINE
  5
12B
100
AcDbEntity
  8
0
  6
Continuous
 62
               7
100
AcDbLine
 10
674.18688531891405
 20
422.86389856185701
 30
0.0
 11
667.78563492433375
 21
423.99261171669218
 31
0.0
  0
LINE
  5
12C
100
AcDbEntity
  8
0
  6
Continuous
 62
               7
100
AcDbLine
 10
675.83774512609955
 20
423.58823404836858
 30
0.0
 11
674.18688531891405
 21
422.86389856185701
 31
0.0
  0
LINE
  5
12D
100
AcDbEntity
  8
0
  6
Continuous
 62
               7
100
AcDbLine
 10
675.83774512609955
 20
429.39698938501488
 30
0.0
 11
674.1868853189136
 21
430.12132487152758
 31
0.0
  0
LINE
  5
12E
100
AcDbEntity
  8
0
  6
Continuous
 62
               7
100
AcDbLine
 10
665.78563492433466
 20
428.99261171669264
 30
0.0
 11
665.78563492433511
 21
428.49261171669229
 31
0.0
  0
LINE
  5
12F
100
AcDbEntity
  8
0
  6
Continuous
 62
               7
100
AcDbLine
 10
662.78563492433398
 20
428.99261171669184
 30
0.0
 11
662.78563492433489
 21
428.49261171669275
 31
0.0
  0
LINE
  5
130
100
AcDbEntity
  8
0
  6
Continuous
 62
               7
100
AcDbLine
 10
663.7856349243342
 20
428.99261171669252
 30
0.0
 11
663.78563492433466
 21
428.49261171669309
 31
0.0
  0
LINE
  5
131
100
AcDbEntity
  8
0
  6
Continuous
 62
               7
100
AcDbLine
 10
664.78563492433398
 20
428.99261171669286
 30
0.0
 11
664.78563492433489
 21
428.49261171669173
 31
0.0
  0
LINE
  5
132
100
AcDbEntity
  8
0
  6
Continuous
 62
               7
100
AcDbLine
 10
662.78563492433375
 20
424.4926117166932
 30
0.0
 11
663.78563492433511
 21
424.49261171669229
 31
0.0
  0
LINE
  5
133
100
AcDbEntity
  8
0
  6
Continuous
 62
               7
100
AcDbLine
 10
662.78563492433489
 20
428.49261171669275
 30
0.0
 11
663.78563492433466
 21
428.49261171669309
 31
0.0
  0
LINE
  5
134
100
AcDbEntity
  8
0
  6
Continuous
 62
               7
100
AcDbLine
 10
665.78563492433466
 20
424.49261171669207
 30
0.0
 11
665.7856349243342
 21
423.99261171669241
 31
0.0
  0
LINE
  5
135
100
AcDbEntity
  8
0
  6
Continuous
 62
               7
100
AcDbLine
 10
662.78563492433375
 20
424.4926117166932
 30
0.0
 11
662.78563492433443
 21
423.99261171669207
 31
0.0
  0
LINE
  5
136
100
AcDbEntity
  8
0
  6
Continuous
 62
               7
100
AcDbLine
 10
663.78563492433511
 20
424.49261171669229
 30
0.0
 11
663.78563492433489
 21
423.99261171669173
 31
0.0
  0
LINE
  5
137
100
AcDbEntity
  8
0
  6
Continuous
 62
               7
100
AcDbLine
 10
664.78563492433443
 20
424.49261171669252
 30
0.0
 11
664.78563492433534
 21
423.99261171669229
 31
0.0
  0
LINE
  5
138
100
AcDbEntity
  8
0
  6
Continuous
 62
               7
100
AcDbLine
 10
665.78563492433466
 20
428.99261171669264
 30
0.0
 11
667.7856349243342
 21
428.99261171669241
 31
0.0
  0
LINE
  5
139
100
AcDbEntity
  8
0
  6
Continuous
 62
               7
100
AcDbLine
 10
665.7856349243342
 20
423.99261171669241
 30
0.0
 11
667.78563492433375
 21
423.99261171669218
 31
0.0
  0
LINE
  5
13A
100
AcDbEntity
  8
0
  6
Continuous
 62
               7
100
AcDbLine
 10
663.7856349243342
 20
428.99261171669252
 30
0.0
 11
664.78563492433398
 21
428.99261171669286
 31
0.0
  0
LINE
  5
13B
100
AcDbEntity
  8
0
  6
Continuous
 62
               7
100
AcDbLine
 10
663.78563492433489
 20
423.99261171669173
 30
0.0
 11
664.78563492433534
 21
423.99261171669229
 31
0.0
  0
LINE
  5
13C
100
AcDbEntity
  8
0
  6
Continuous
 62
               7
100
AcDbLine
 10
664.78563492433443
 20
424.49261171669252
 30
0.0
 11
665.78563492433466
 21
424.49261171669207
 31
0.0
  0
LINE
  5
13D
100
AcDbEntity
  8
0
  6
Continuous
 62
               7
100
AcDbLine
 10
664.78563492433489
 20
428.49261171669173
 30
0.0
 11
665.78563492433511
 21
428.49261171669229
 31
0.0
  0
LINE
  5
13E
100
AcDbEntity
  8
0
  6
Continuous
 62
               7
100
AcDbLine
 10
675.02316893375576
 20
427.99261171669298
 30
0.0
 11
675.28563492433352
 21
424.99261171669229
 31
0.0
  0
LINE
  5
13F
100
AcDbEntity
  8
0
  6
Continuous
 62
               7
100
AcDbLine
 10
674.01934909621343
 20
427.99261171669241
 30
0.0
 11
674.28181508679006
 21
424.99261171669332
 31
0.0
  0
LINE
  5
140
100
AcDbEntity
  8
0
  6
Continuous
 62
               7
100
AcDbLine
 10
673.02489322513418
 20
427.885581090252
 30
0.0
 11
673.27245024890851
 21
425.05599136057674
 31
0.0
  0
LINE
  5
141
100
AcDbEntity
  8
0
  6
Continuous
 62
               7
100
AcDbLine
 10
672.0363236664931
 20
427.71126960475669
 30
0.0
 11
672.25290223993363
 21
425.23576518268669
 31
0.0
  0
LINE
  5
142
100
AcDbEntity
  8
0
  6
Continuous
 62
               7
100
AcDbLine
 10
671.04775410785317
 20
427.53695811926093
 30
0.0
 11
671.23335423095602
 21
425.41553900479744
 31
0.0
  0
LINE
  5
143
100
AcDbEntity
  8
0
  6
Continuous
 62
               7
100
AcDbLine
 10
670.05918454921414
 20
427.36264663376653
 30
0.0
 11
670.21380622197955
 21
425.59531282690762
 31
0.0
  0
LINE
  5
144
100
AcDbEntity
  8
0
  6
Continuous
 62
               7
100
AcDbLine
 10
669.07061499057261
 20
427.18833514827111
 30
0.0
 11
669.19425821300331
 21
425.77508664901688
 31
0.0
  0
LINE
  5
145
100
AcDbEntity
  8
0
  6
Continuous
 62
               7
100
AcDbLine
 10
668.08204543193426
 20
427.01402366277512
 30
0.0
 11
668.17471020402797
 21
425.95486047112752
 31
0.0
  0
LINE
  5
146
100
AcDbEntity
  8
0
  6
Continuous
 62
               7
100
AcDbLine
 10
679.28563492433375
 20
426.74261171669366
 30
0.0
 11
679.2856349243342
 21
426.2426117166932
 31
0.0
  0
LINE
  5
147
100
AcDbEntity
  8
0
  6
Continuous
 62
               7
100
AcDbLine
 10
675.28563492433352
 20
424.99261171669229
 30
0.0
 11
679.2856349243342
 21
426.2426117166932
 31
0.0
  0
LINE
  5
148
100
AcDbEntity
  8
0
  6
Continuous
 62
               7
100
AcDbLine
 10
679.28563492433375
 20
426.74261171669366
 30
0.0
 11
675.28563492433489
 21
427.99261171669173
 31
0.0
  0
LINE
  5
149
100
AcDbEntity
  8
0
  6
Continuous
 62
               7
100
AcDbLine
 10
643.36050866296785
 20
393.70405300649429
 30
0.0
 11
643.36050866296739
 21
399.10405300649461
 31
0.0
  0
LINE
  5
14A
100
AcDbEntity
  8
0
  6
Continuous
 62
               7
100
AcDbLine
 10
643.86050866296671
 20
400.90405300649411
 30
0.0
 11
643.86050866296716
 21
391.90405300649462
 31
0.0
  0
LINE
  5
14B
100
AcDbEntity
  8
0
  6
Continuous
 62
               7
100
AcDbLine
 10
643.66050866296735
 20
399.40405300649456
 30
0.0
 11
643.86050866296648
 21
399.40405300649479
 31
0.0
  0
LINE
  5
14C
100
AcDbEntity
  8
0
  6
Continuous
 62
               7
100
AcDbLine
 10
643.66050866296757
 20
393.40405300649383
 30
0.0
 11
643.86050866296648
 21
393.40405300649479
 31
0.0
  0
LINE
  5
14D
100
AcDbEntity
  8
0
  6
Continuous
 62
               7
100
AcDbLine
 10
673.70676780963811
 20
397.9040530064957
 30
0.0
 11
675.36050866296785
 21
397.90405300649456
 31
0.0
  0
LINE
  5
14E
100
AcDbEntity
  8
0
  6
Continuous
 62
               7
100
AcDbLine
 10
673.70676780963493
 20
394.90405300649638
 30
0.0
 11
675.36050866296648
 21
394.90405300649513
 31
0.0
  0
LINE
  5
14F
100
AcDbEntity
  8
0
  6
Continuous
 62
               7
100
AcDbLine
 10
644.3139651784835
 20
400.90405300649479
 30
0.0
 11
643.86050866296671
 21
400.90405300649411
 31
0.0
  0
LINE
  5
150
100
AcDbEntity
  8
0
  6
Continuous
 62
               7
100
AcDbLine
 10
644.31396517848373
 20
391.90405300649502
 30
0.0
 11
643.86050866296716
 21
391.90405300649462
 31
0.0
  0
LINE
  5
151
100
AcDbEntity
  8
0
  6
Continuous
 62
               7
100
AcDbLine
 10
645.3605086629658
 20
398.90405300649502
 30
0.0
 11
662.86050866296694
 21
398.90405300649468
 31
0.0
  0
LINE
  5
152
100
AcDbEntity
  8
0
  6
Continuous
 62
               7
100
AcDbLine
 10
645.36050866296648
 20
393.90405300649456
 30
0.0
 11
662.86050866296739
 21
393.90405300649491
 31
0.0
  0
LINE
  5
153
100
AcDbEntity
  8
0
  6
Continuous
 62
               7
100
AcDbLine
 10
644.99306492858557
 20
400.37382794402049
 30
0.0
 11
645.3605086629658
 21
398.90405300649502
 31
0.0
  0
LINE
  5
154
100
AcDbEntity
  8
0
  6
Continuous
 62
               7
100
AcDbLine
 10
644.99306492858534
 20
392.43427806896938
 30
0.0
 11
645.36050866296648
 21
393.90405300649456
 31
0.0
  0
LINE
  5
155
100
AcDbEntity
  8
0
  6
Continuous
 62
               7
100
AcDbLine
 10
675.91261886473251
 20
399.30843067481771
 30
0.0
 11
676.08626704239839
 21
398.32362292180608
 31
0.0
  0
LINE
  5
156
100
AcDbEntity
  8
0
  6
Continuous
 62
               7
100
AcDbLine
 10
676.08626704239839
 20
394.48448309118419
 30
0.0
 11
668.32252804549819
 21
395.85343974751652
 31
0.0
  0
LINE
  5
157
100
AcDbEntity
  8
0
  6
Continuous
 62
               7
100
AcDbLine
 10
676.08626704239839
 20
398.32362292180608
 30
0.0
 11
668.3225280454991
 21
396.95466626547375
 31
0.0
  0
LINE
  5
158
100
AcDbEntity
  8
0
  6
Continuous
 62
               7
100
AcDbLine
 10
675.91261886473251
 20
393.49967533817153
 30
0.0
 11
676.08626704239839
 21
394.48448309118419
 31
0.0
  0
LINE
  5
159
100
AcDbEntity
  8
0
  6
Continuous
 62
               7
100
AcDbLine
 10
674.26175905754656
 20
400.03276616133041
 30
0.0
 11
667.86050866296716
 21
398.90405300649525
 31
0.0
  0
LINE
  5
15A
100
AcDbEntity
  8
0
  6
Continuous
 62
               7
100
AcDbLine
 10
674.26175905754701
 20
392.77533985165979
 30
0.0
 11
667.86050866296671
 21
393.90405300649502
 31
0.0
  0
LINE
  5
15B
100
AcDbEntity
  8
0
  6
Continuous
 62
               7
100
AcDbLine
 10
675.91261886473251
 20
393.49967533817153
 30
0.0
 11
674.26175905754701
 21
392.77533985165979
 31
0.0
  0
LINE
  5
15C
100
AcDbEntity
  8
0
  6
Continuous
 62
               7
100
AcDbLine
 10
675.91261886473251
 20
399.30843067481771
 30
0.0
 11
674.26175905754656
 21
400.03276616133041
 31
0.0
  0
LINE
  5
15D
100
AcDbEntity
  8
0
  6
Continuous
 62
               7
100
AcDbLine
 10
665.86050866296762
 20
398.90405300649547
 30
0.0
 11
665.86050866296807
 21
398.40405300649513
 31
0.0
  0
LINE
  5
15E
100
AcDbEntity
  8
0
  6
Continuous
 62
               7
100
AcDbLine
 10
662.86050866296694
 20
398.90405300649468
 30
0.0
 11
662.86050866296785
 21
398.40405300649559
 31
0.0
  0
LINE
  5
15F
100
AcDbEntity
  8
0
  6
Continuous
 62
               7
100
AcDbLine
 10
663.86050866296716
 20
398.90405300649536
 30
0.0
 11
663.86050866296762
 21
398.40405300649593
 31
0.0
  0
LINE
  5
160
100
AcDbEntity
  8
0
  6
Continuous
 62
               7
100
AcDbLine
 10
664.86050866296694
 20
398.9040530064957
 30
0.0
 11
664.86050866296785
 21
398.40405300649456
 31
0.0
  0
LINE
  5
161
100
AcDbEntity
  8
0
  6
Continuous
 62
               7
100
AcDbLine
 10
662.86050866296671
 20
394.40405300649604
 30
0.0
 11
663.86050866296807
 21
394.40405300649513
 31
0.0
  0
LINE
  5
162
100
AcDbEntity
  8
0
  6
Continuous
 62
               7
100
AcDbLine
 10
662.86050866296785
 20
398.40405300649559
 30
0.0
 11
663.86050866296762
 21
398.40405300649593
 31
0.0
  0
LINE
  5
163
100
AcDbEntity
  8
0
  6
Continuous
 62
               7
100
AcDbLine
 10
665.86050866296762
 20
394.40405300649491
 30
0.0
 11
665.86050866296716
 21
393.90405300649525
 31
0.0
  0
LINE
  5
164
100
AcDbEntity
  8
0
  6
Continuous
 62
               7
100
AcDbLine
 10
662.86050866296671
 20
394.40405300649604
 30
0.0
 11
662.86050866296739
 21
393.90405300649491
 31
0.0
  0
LINE
  5
165
100
AcDbEntity
  8
0
  6
Continuous
 62
               7
100
AcDbLine
 10
663.86050866296807
 20
394.40405300649513
 30
0.0
 11
663.86050866296785
 21
393.90405300649456
 31
0.0
  0
LINE
  5
166
100
AcDbEntity
  8
0
  6
Continuous
 62
               7
100
AcDbLine
 10
664.86050866296739
 20
394.40405300649536
 30
0.0
 11
664.8605086629683
 21
393.90405300649513
 31
0.0
  0
LINE
  5
167
100
AcDbEntity
  8
0
  6
Continuous
 62
               7
100
AcDbLine
 10
665.86050866296762
 20
398.90405300649547
 30
0.0
 11
667.86050866296716
 21
398.90405300649525
 31
0.0
  0
LINE
  5
168
100
AcDbEntity
  8
0
  6
Continuous
 62
               7
100
AcDbLine
 10
665.86050866296716
 20
393.90405300649525
 30
0.0
 11
667.86050866296671
 21
393.90405300649502
 31
0.0
  0
LINE
  5
169
100
AcDbEntity
  8
0
  6
Continuous
 62
               7
100
AcDbLine
 10
663.86050866296716
 20
398.90405300649536
 30
0.0
 11
664.86050866296694
 21
398.9040530064957
 31
0.0
  0
LINE
  5
16A
100
AcDbEntity
  8
0
  6
Continuous
 62
               7
100
AcDbLine
 10
663.86050866296785
 20
393.90405300649456
 30
0.0
 11
664.8605086629683
 21
393.90405300649513
 31
0.0
  0
LINE
  5
16B
100
AcDbEntity
  8
0
  6
Continuous
 62
               7
100
AcDbLine
 10
664.86050866296739
 20
394.40405300649536
 30
0.0
 11
665.86050866296762
 21
394.40405300649491
 31
0.0
  0
LINE
  5
16C
100
AcDbEntity
  8
0
  6
Continuous
 62
               7
100
AcDbLine
 10
664.86050866296785
 20
398.40405300649456
 30
0.0
 11
665.86050866296807
 21
398.40405300649513
 31
0.0
  0
LINE
  5
16D
100
AcDbEntity
  8
0
  6
Continuous
 62
               7
100
AcDbLine
 10
675.09804267238871
 20
397.90405300649581
 30
0.0
 11
675.36050866296648
 21
394.90405300649513
 31
0.0
  0
LINE
  5
16E
100
AcDbEntity
  8
0
  6
Continuous
 62
               7
100
AcDbLine
 10
674.09422283484639
 20
397.90405300649525
 30
0.0
 11
674.35668882542302
 21
394.90405300649616
 31
0.0
  0
LINE
  5
16F
100
AcDbEntity
  8
0
  6
Continuous
 62
               7
100
AcDbLine
 10
673.09976696376714
 20
397.79702238005484
 30
0.0
 11
673.34732398754147
 21
394.96743265037958
 31
0.0
  0
LINE
  5
170
100
AcDbEntity
  8
0
  6
Continuous
 62
               7
100
AcDbLine
 10
672.11119740512606
 20
397.62271089455953
 30
0.0
 11
672.32777597856659
 21
395.14720647248953
 31
0.0
  0
LINE
  5
171
100
AcDbEntity
  8
0
  6
Continuous
 62
               7
100
AcDbLine
 10
671.12262784648613
 20
397.44839940906377
 30
0.0
 11
671.30822796958898
 21
395.32698029460028
 31
0.0
  0
LINE
  5
172
100
AcDbEntity
  8
0
  6
Continuous
 62
               7
100
AcDbLine
 10
670.1340582878471
 20
397.27408792356937
 30
0.0
 11
670.28867996061251
 21
395.50675411671045
 31
0.0
  0
LINE
  5
173
100
AcDbEntity
  8
0
  6
Continuous
 62
               7
100
AcDbLine
 10
669.14548872920557
 20
397.09977643807395
 30
0.0
 11
669.26913195163627
 21
395.68652793881972
 31
0.0
  0
LINE
  5
174
100
AcDbEntity
  8
0
  6
Continuous
 62
               7
100
AcDbLine
 10
668.15691917056722
 20
396.92546495257795
 30
0.0
 11
668.24958394266093
 21
395.86630176093036
 31
0.0
  0
LINE
  5
175
100
AcDbEntity
  8
0
  6
Continuous
 62
               7
100
AcDbLine
 10
679.36050866296671
 20
396.6540530064965
 30
0.0
 11
679.36050866296716
 21
396.15405300649604
 31
0.0
  0
LINE
  5
176
100
AcDbEntity
  8
0
  6
Continuous
 62
               7
100
AcDbLine
 10
675.36050866296648
 20
394.90405300649513
 30
0.0
 11
679.36050866296716
 21
396.15405300649604
 31
0.0
  0
LINE
  5
177
100
AcDbEntity
  8
0
  6
Continuous
 62
               7
100
AcDbLine
 10
679.36050866296671
 20
396.6540530064965
 30
0.0
 11
675.36050866296785
 21
397.90405300649456
 31
0.0
  0
LINE
  5
178
100
AcDbEntity
  8
0
  6
Continuous
 62
               7
100
AcDbLine
 10
614.81813221862637
 20
272.44937752261859
 30
0.0
 11
614.81813221862637
 21
308.44937752261859
 31
0.0
  0
LINE
  5
179
100
AcDbEntity
  8
0
  6
Continuous
 62
               7
100
AcDbLine
 10
612.31813221862637
 20
310.94937752261859
 30
0.0
 11
612.31813221862637
 21
310.44937752261859
 31
0.0
  0
LINE
  5
17A
100
AcDbEntity
  8
0
  6
Continuous
 62
               7
100
AcDbLine
 10
619.81813221862637
 20
272.44937752261859
 30
0.0
 11
619.81813221862637
 21
308.44937752261859
 31
0.0
  0
LINE
  5
17B
100
AcDbEntity
  8
0
  6
Continuous
 62
               7
100
AcDbLine
 10
622.31813221862637
 20
310.94937752261859
 30
0.0
 11
622.31813221862637
 21
310.44937752261859
 31
0.0
  0
LINE
  5
17C
100
AcDbEntity
  8
0
  6
Continuous
 62
               7
100
AcDbLine
 10
612.31813221862637
 20
310.94937752261859
 30
0.0
 11
622.31813221862637
 21
310.94937752261859
 31
0.0
  0
LINE
  5
17D
100
AcDbEntity
  8
0
  6
Continuous
 62
               7
100
AcDbLine
 10
614.81813221862637
 20
308.44937752261859
 30
0.0
 11
619.81813221862637
 21
308.44937752261859
 31
0.0
  0
LINE
  5
17E
100
AcDbEntity
  8
0
  6
Continuous
 62
               7
100
AcDbLine
 10
612.31813221862637
 20
310.44937752261859
 30
0.0
 11
614.81813221862637
 21
308.44937752261859
 31
0.0
  0
LINE
  5
17F
100
AcDbEntity
  8
0
  6
Continuous
 62
               7
100
AcDbLine
 10
619.81813221862637
 20
308.44937752261859
 30
0.0
 11
622.31813221862637
 21
310.44937752261859
 31
0.0
  0
LINE
  5
180
100
AcDbEntity
  8
0
  6
Continuous
 62
               7
100
AcDbLine
 10
612.31813221862637
 20
310.44937752261859
 30
0.0
 11
622.31813221862637
 21
310.44937752261859
 31
0.0
  0
LINE
  5
181
100
AcDbEntity
  8
0
  6
Continuous
 62
               7
100
AcDbLine
 10
614.81813221862637
 20
272.44937752261859
 30
0.0
 11
617.31813221862637
 21
270.94937752261859
 31
0.0
  0
LINE
  5
182
100
AcDbEntity
  8
0
  6
Continuous
 62
               7
100
AcDbLine
 10
619.81813221862637
 20
272.44937752261859
 30
0.0
 11
617.31813221862637
 21
270.94937752261859
 31
0.0
  0
LINE
  5
183
100
AcDbEntity
  8
0
  6
Continuous
 62
               7
100
AcDbLine
 10
614.81813221862637
 20
301.44937752261859
 30
0.0
 11
619.81813221862637
 21
303.44937752261859
 31
0.0
  0
LINE
  5
184
100
AcDbEntity
  8
0
  6
Continuous
 62
               7
100
AcDbLine
 10
614.81813221862637
 20
299.44937752261859
 30
0.0
 11
619.81813221862637
 21
301.44937752261859
 31
0.0
  0
LINE
  5
185
100
AcDbEntity
  8
0
  6
Continuous
 62
               7
100
AcDbLine
 10
614.81813221862637
 20
297.44937752261859
 30
0.0
 11
619.81813221862637
 21
299.44937752261859
 31
0.0
  0
LINE
  5
186
100
AcDbEntity
  8
0
  6
Continuous
 62
               7
100
AcDbLine
 10
614.81813221862637
 20
295.44937752261859
 30
0.0
 11
619.81813221862637
 21
297.44937752261859
 31
0.0
  0
LINE
  5
187
100
AcDbEntity
  8
0
  6
Continuous
 62
               7
100
AcDbLine
 10
614.81813221862637
 20
293.44937752261859
 30
0.0
 11
619.81813221862637
 21
295.44937752261859
 31
0.0
  0
LINE
  5
188
100
AcDbEntity
  8
0
  6
Continuous
 62
               7
100
AcDbLine
 10
614.81813221862637
 20
291.44937752261859
 30
0.0
 11
619.81813221862637
 21
293.44937752261859
 31
0.0
  0
LINE
  5
189
100
AcDbEntity
  8
0
  6
Continuous
 62
               7
100
AcDbLine
 10
614.81813221862637
 20
289.44937752261859
 30
0.0
 11
619.81813221862637
 21
291.44937752261859
 31
0.0
  0
LINE
  5
18A
100
AcDbEntity
  8
0
  6
Continuous
 62
               7
100
AcDbLine
 10
614.81813221862637
 20
287.44937752261859
 30
0.0
 11
619.81813221862637
 21
289.44937752261859
 31
0.0
  0
LINE
  5
18B
100
AcDbEntity
  8
0
  6
Continuous
 62
               7
100
AcDbLine
 10
614.81813221862637
 20
285.44937752261859
 30
0.0
 11
619.81813221862637
 21
287.44937752261859
 31
0.0
  0
LINE
  5
18C
100
AcDbEntity
  8
0
  6
Continuous
 62
               7
100
AcDbLine
 10
614.81813221862637
 20
283.44937752261859
 30
0.0
 11
619.81813221862637
 21
285.4493775226187
 31
0.0
  0
LINE
  5
18D
100
AcDbEntity
  8
0
  6
Continuous
 62
               7
100
AcDbLine
 10
614.81813221862637
 20
281.44937752261859
 30
0.0
 11
619.81813221862637
 21
283.4493775226187
 31
0.0
  0
LINE
  5
18E
100
AcDbEntity
  8
0
  6
Continuous
 62
               7
100
AcDbLine
 10
614.81813221862615
 20
279.4493775226187
 30
0.0
 11
617.81813221862637
 21
280.64937752261869
 31
0.0
  0
LINE
  5
18F
100
AcDbEntity
  8
0
  6
Continuous
 62
               7
100
AcDbLine
 10
619.31813221862637
 20
272.94937752261859
 30
0.0
 11
619.31813221862637
 21
281.24937752261872
 31
0.0
  0
LINE
  5
190
100
AcDbEntity
  8
0
  6
Continuous
 62
               7
100
AcDbLine
 10
617.81813221862637
 20
280.64937752261869
 30
0.0
 11
618.86813221862633
 21
281.69937752261882
 31
0.0
  0
LINE
  5
191
100
AcDbEntity
  8
0
  6
Continuous
 62
               7
100
AcDbLine
 10
619.31813221862637
 20
281.24937752261872
 30
0.0
 11
618.86813221862633
 21
281.69937752261882
 31
0.0
  0
LINE
  5
192
100
AcDbEntity
  8
0
  6
Continuous
 62
               7
100
AcDbLine
 10
619.31813221862637
 20
281.24937752261872
 30
0.0
 11
619.81813221862615
 21
281.4493775226187
 31
0.0
  0
LINE
  5
193
100
AcDbEntity
  8
0
  6
Continuous
 62
               7
100
AcDbLine
 10
619.81813221862637
 20
272.44937752261859
 30
0.0
 11
619.31813221862637
 21
272.94937752261859
 31
0.0
  0
LINE
  5
194
100
AcDbEntity
  8
0
  6
Continuous
 62
               4
100
AcDbLine
 10
714.78679656440374
 20
21.213203435596483
 30
0.0
 11
714.78679656440374
 21
41.213203435596483
 31
0.0
  0
LINE
  5
195
100
AcDbEntity
  8
0
  6
Continuous
 62
               4
100
AcDbLine
 10
864.78679656440374
 20
21.213203435596483
 30
0.0
 11
714.78679656440374
 21
21.213203435596483
 31
0.0
  0
LINE
  5
196
100
AcDbEntity
  8
0
  6
Continuous
 62
               4
100
AcDbLine
 10
864.78679656440374
 20
41.213203435596483
 30
0.0
 11
864.78679656440374
 21
21.213203435596483
 31
0.0
  0
LINE
  5
197
100
AcDbEntity
  8
0
  6
Continuous
 62
               4
100
AcDbLine
 10
864.78679656440374
 20
41.213203435596483
 30
0.0
 11
714.78679656440374
 21
41.213203435596483
 31
0.0
  0
LINE
  5
198
100
AcDbEntity
  8
0
  6
Continuous
 62
               4
100
AcDbLine
 10
14.142135623730949
 20
595.85786437626905
 30
0.0
 11
14.142135623730949
 21
615.85786437626905
 31
0.0
  0
LINE
  5
199
100
AcDbEntity
  8
0
  6
Continuous
 62
               4
100
AcDbLine
 10
164.14213562373095
 20
595.85786437626905
 30
0.0
 11
14.142135623730949
 21
595.85786437626905
 31
0.0
  0
LINE
  5
19A
100
AcDbEntity
  8
0
  6
Continuous
 62
               4
100
AcDbLine
 10
164.14213562373095
 20
615.85786437626905
 30
0.0
 11
164.14213562373095
 21
595.85786437626905
 31
0.0
  0
LINE
  5
19B
100
AcDbEntity
  8
0
  6
Continuous
 62
               4
100
AcDbLine
 10
164.14213562373095
 20
615.85786437626905
 30
0.0
 11
14.142135623730949
 21
615.85786437626905
 31
0.0
  0
LINE
  5
19C
100
AcDbEntity
  8
0
  6
Continuous
 62
               6
100
AcDbLine
 10
362.80959465523074
 20
295.55608767473694
 30
0.0
 11
365.489086579542
 21
305.55608767473706
 31
0.0
  0
LINE
  5
19D
100
AcDbEntity
  8
0
  6
Continuous
 62
               6
100
AcDbLine
 10
350.48908657954291
 20
305.55608767473706
 30
0.0
 11
365.489086579542
 21
305.55608767473706
 31
0.0
  0
LINE
  5
19E
100
AcDbEntity
  8
0
  6
Continuous
 62
               6
100
AcDbLine
 10
347.80959465523165
 20
295.55608767473694
 30
0.0
 11
350.48908657954291
 21
305.55608767473706
 31
0.0
  0
LINE
  5
19F
100
AcDbEntity
  8
0
  6
Continuous
 62
               6
100
AcDbLine
 10
337.80959465523142
 20
295.55608767473694
 30
0.0
 11
347.80959465523154
 21
295.55608767473694
 31
0.0
  0
LINE
  5
1A0
100
AcDbEntity
  8
0
  6
Continuous
 62
               6
100
AcDbLine
 10
337.80959465523131
 20
295.55608767473694
 30
0.0
 11
335.13010273092004
 21
305.55608767473706
 31
0.0
  0
LINE
  5
1A1
100
AcDbEntity
  8
0
  6
Continuous
 62
               6
100
AcDbLine
 10
305.13010273091913
 20
305.55608767473706
 30
0.0
 11
335.13010273092004
 21
305.55608767473706
 31
0.0
  0
LINE
  5
1A2
100
AcDbEntity
  8
0
  6
Continuous
 62
               2
100
AcDbLine
 10
364.58420138986014
 20
302.17901017182811
 30
0.0
 11
366.48908657954212
 21
297.5560876747349
 31
0.0
  0
LINE
  5
1A3
100
AcDbEntity
  8
0
  6
Continuous
 62
               6
100
AcDbLine
 10
372.16857850385327
 20
295.55608767473694
 30
0.0
 11
369.489086579542
 21
305.55608767473706
 31
0.0
  0
LINE
  5
1A4
100
AcDbEntity
  8
0
  6
Continuous
 62
               6
100
AcDbLine
 10
384.48908657954109
 20
305.55608767473706
 30
0.0
 11
369.489086579542
 21
305.55608767473706
 31
0.0
  0
LINE
  5
1A5
100
AcDbEntity
  8
0
  6
Continuous
 62
               6
100
AcDbLine
 10
387.16857850385236
 20
295.55608767473694
 30
0.0
 11
384.48908657954109
 21
305.55608767473706
 31
0.0
  0
LINE
  5
1A6
100
AcDbEntity
  8
0
  6
Continuous
 62
               6
100
AcDbLine
 10
397.16857850385259
 20
295.55608767473694
 30
0.0
 11
387.16857850385247
 21
295.55608767473694
 31
0.0
  0
LINE
  5
1A7
100
AcDbEntity
  8
0
  6
Continuous
 62
               6
100
AcDbLine
 10
397.1685785038527
 20
295.55608767473694
 30
0.0
 11
399.84807042816396
 21
305.55608767473706
 31
0.0
  0
LINE
  5
1A8
100
AcDbEntity
  8
0
  6
Continuous
 62
               6
100
AcDbLine
 10
429.84807042816487
 20
305.55608767473706
 30
0.0
 11
399.84807042816396
 21
305.55608767473706
 31
0.0
  0
LINE
  5
1A9
100
AcDbEntity
  8
0
  6
Continuous
 62
               2
100
AcDbLine
 10
370.39397176922387
 20
302.17901017182811
 30
0.0
 11
368.48908657954189
 21
297.5560876747349
 31
0.0
  0
LINE
  5
1AA
100
AcDbEntity
  8
0
  6
Continuous
 62
               6
100
AcDbLine
 10
372.16857850385327
 20
295.55608767473694
 30
0.0
 11
362.80959465523074
 21
295.55608767473694
 31
0.0
  0
LINE
  5
1AB
100
AcDbEntity
  8
0
  6
Continuous
 62
               7
100
AcDbLine
 10
413.04200232196467
 20
267.78504353296768
 30
0.0
 11
413.04200232196445
 21
303.78505024096586
 31
0.0
  0
LINE
  5
1AC
100
AcDbEntity
  8
0
  6
Continuous
 62
               7
100
AcDbLine
 10
410.54200232196467
 20
306.28505024096586
 30
0.0
 11
410.54200232196467
 21
305.78505024096586
 31
0.0
  0
LINE
  5
1AD
100
AcDbEntity
  8
0
  6
Continuous
 62
               7
100
AcDbLine
 10
418.04200232196422
 20
267.78505024096586
 30
0.0
 11
418.04200232196445
 21
303.78505024096586
 31
0.0
  0
LINE
  5
1AE
100
AcDbEntity
  8
0
  6
Continuous
 62
               7
100
AcDbLine
 10
420.54200232196467
 20
306.28505024096563
 30
0.0
 11
420.54200232196445
 21
305.78505024096563
 31
0.0
  0
LINE
  5
1AF
100
AcDbEntity
  8
0
  6
Continuous
 62
               7
100
AcDbLine
 10
410.54200232196467
 20
306.28505024096586
 30
0.0
 11
420.54200232196467
 21
306.28505024096563
 31
0.0
  0
LINE
  5
1B0
100
AcDbEntity
  8
0
  6
Continuous
 62
               7
100
AcDbLine
 10
413.04200232196445
 20
303.78505024096586
 30
0.0
 11
418.04200232196445
 21
303.78505024096586
 31
0.0
  0
LINE
  5
1B1
100
AcDbEntity
  8
0
  6
Continuous
 62
               7
100
AcDbLine
 10
410.54200232196467
 20
305.78505024096586
 30
0.0
 11
413.04200232196445
 21
303.78505024096586
 31
0.0
  0
LINE
  5
1B2
100
AcDbEntity
  8
0
  6
Continuous
 62
               7
100
AcDbLine
 10
418.04200232196445
 20
303.78505024096586
 30
0.0
 11
420.54200232196467
 21
305.78505024096563
 31
0.0
  0
LINE
  5
1B3
100
AcDbEntity
  8
0
  6
Continuous
 62
               7
100
AcDbLine
 10
410.54200232196467
 20
305.78505024096586
 30
0.0
 11
420.54200232196467
 21
305.78505024096563
 31
0.0
  0
LINE
  5
1B4
100
AcDbEntity
  8
0
  6
Continuous
 62
               7
100
AcDbLine
 10
413.04200232196422
 20
267.78505024096586
 30
0.0
 11
415.54200232196422
 21
266.28505024096586
 31
0.0
  0
LINE
  5
1B5
100
AcDbEntity
  8
0
  6
Continuous
 62
               7
100
AcDbLine
 10
418.04200232196422
 20
267.78505024096586
 30
0.0
 11
415.54200232196422
 21
266.28505024096586
 31
0.0
  0
LINE
  5
1B6
100
AcDbEntity
  8
0
  6
Continuous
 62
               7
100
AcDbLine
 10
413.04200232196445
 20
296.78505024096586
 30
0.0
 11
418.04200232196445
 21
298.78505024096586
 31
0.0
  0
LINE
  5
1B7
100
AcDbEntity
  8
0
  6
Continuous
 62
               7
100
AcDbLine
 10
413.04200232196445
 20
294.78505024096586
 30
0.0
 11
418.04200232196445
 21
296.78505024096586
 31
0.0
  0
LINE
  5
1B8
100
AcDbEntity
  8
0
  6
Continuous
 62
               7
100
AcDbLine
 10
413.04200232196445
 20
292.78505024096586
 30
0.0
 11
418.04200232196445
 21
294.78505024096586
 31
0.0
  0
LINE
  5
1B9
100
AcDbEntity
  8
0
  6
Continuous
 62
               7
100
AcDbLine
 10
413.04200232196445
 20
290.78505024096586
 30
0.0
 11
418.04200232196445
 21
292.78505024096586
 31
0.0
  0
LINE
  5
1BA
100
AcDbEntity
  8
0
  6
Continuous
 62
               7
100
AcDbLine
 10
413.04200232196445
 20
288.78505024096586
 30
0.0
 11
418.04200232196445
 21
290.78505024096586
 31
0.0
  0
LINE
  5
1BB
100
AcDbEntity
  8
0
  6
Continuous
 62
               7
100
AcDbLine
 10
413.04200232196422
 20
286.78505024096586
 30
0.0
 11
418.04200232196422
 21
288.78505024096586
 31
0.0
  0
LINE
  5
1BC
100
AcDbEntity
  8
0
  6
Continuous
 62
               7
100
AcDbLine
 10
413.04200232196422
 20
284.78505024096586
 30
0.0
 11
418.04200232196422
 21
286.78505024096586
 31
0.0
  0
LINE
  5
1BD
100
AcDbEntity
  8
0
  6
Continuous
 62
               7
100
AcDbLine
 10
413.04200232196422
 20
282.78505024096586
 30
0.0
 11
418.04200232196422
 21
284.78505024096586
 31
0.0
  0
LINE
  5
1BE
100
AcDbEntity
  8
0
  6
Continuous
 62
               7
100
AcDbLine
 10
413.04200232196422
 20
280.78505024096586
 30
0.0
 11
418.04200232196422
 21
282.78505024096586
 31
0.0
  0
LINE
  5
1BF
100
AcDbEntity
  8
0
  6
Continuous
 62
               7
100
AcDbLine
 10
413.04200232196422
 20
278.78505024096586
 30
0.0
 11
418.04200232196422
 21
280.78505024096586
 31
0.0
  0
LINE
  5
1C0
100
AcDbEntity
  8
0
  6
Continuous
 62
               7
100
AcDbLine
 10
413.04200232196422
 20
276.78505024096586
 30
0.0
 11
418.04200232196422
 21
278.78505024096586
 31
0.0
  0
LINE
  5
1C1
100
AcDbEntity
  8
0
  6
Continuous
 62
               7
100
AcDbLine
 10
413.04200232196422
 20
274.78505024096586
 30
0.0
 11
416.04200232196422
 21
275.9850502409659
 31
0.0
  0
LINE
  5
1C2
100
AcDbEntity
  8
0
  6
Continuous
 62
               7
100
AcDbLine
 10
417.54200232196422
 20
268.28505024096586
 30
0.0
 11
417.54200232196422
 21
276.58505024096604
 31
0.0
  0
LINE
  5
1C3
100
AcDbEntity
  8
0
  6
Continuous
 62
               7
100
AcDbLine
 10
416.04200232196422
 20
275.9850502409659
 30
0.0
 11
417.09200232196417
 21
277.03505024096586
 31
0.0
  0
LINE
  5
1C4
100
AcDbEntity
  8
0
  6
Continuous
 62
               7
100
AcDbLine
 10
417.54200232196422
 20
276.58505024096604
 30
0.0
 11
417.09200232196417
 21
277.03505024096586
 31
0.0
  0
LINE
  5
1C5
100
AcDbEntity
  8
0
  6
Continuous
 62
               7
100
AcDbLine
 10
417.54200232196422
 20
276.58505024096604
 30
0.0
 11
418.04200232196422
 21
276.78505024096586
 31
0.0
  0
LINE
  5
1C6
100
AcDbEntity
  8
0
  6
Continuous
 62
               7
100
AcDbLine
 10
418.04200232196422
 20
267.78505024096586
 30
0.0
 11
417.54200232196422
 21
268.28505024096586
 31
0.0
  0
LINE
  5
1C7
100
AcDbEntity
  8
0
  6
Continuous
 62
               3
100
AcDbLine
 10
402.48908657954189
 20
303.55608767473728
 30
0.0
 11
402.48908657954189
 21
291.55608767473706
 31
0.0
  0
LINE
  5
1C8
100
AcDbEntity
  8
0
  6
DASHED
 62
               6
100
AcDbLine
 10
401.48908657954189
 20
303.55608767473728
 30
0.0
 11
401.48908657954189
 21
294.05608767473706
 31
0.0
  0
LINE
  5
1C9
100
AcDbEntity
  8
0
  6
Continuous
 62
               3
100
AcDbLine
 10
332.48908657954212
 20
303.55608767473728
 30
0.0
 11
332.48908657954212
 21
291.55608767473706
 31
0.0
  0
LINE
  5
1CA
100
AcDbEntity
  8
0
  6
DASHED
 62
               6
100
AcDbLine
 10
333.48908657954212
 20
303.55608767473728
 30
0.0
 11
333.48908657954212
 21
294.05608767473706
 31
0.0
  0
LINE
  5
1CB
100
AcDbEntity
  8
0
  6
Continuous
 62
               7
100
AcDbLine
 10
321.93617083711933
 20
267.78504353296768
 30
0.0
 11
321.93617083711956
 21
303.78505024096586
 31
0.0
  0
LINE
  5
1CC
100
AcDbEntity
  8
0
  6
Continuous
 62
               7
100
AcDbLine
 10
324.43617083711933
 20
306.28505024096586
 30
0.0
 11
324.43617083711933
 21
305.78505024096586
 31
0.0
  0
LINE
  5
1CD
100
AcDbEntity
  8
0
  6
Continuous
 62
               7
100
AcDbLine
 10
316.93617083711979
 20
267.78505024096586
 30
0.0
 11
316.93617083711956
 21
303.78505024096586
 31
0.0
  0
LINE
  5
1CE
100
AcDbEntity
  8
0
  6
Continuous
 62
               7
100
AcDbLine
 10
314.43617083711933
 20
306.28505024096563
 30
0.0
 11
314.43617083711956
 21
305.78505024096563
 31
0.0
  0
LINE
  5
1CF
100
AcDbEntity
  8
0
  6
Continuous
 62
               7
100
AcDbLine
 10
324.43617083711933
 20
306.28505024096586
 30
0.0
 11
314.43617083711933
 21
306.28505024096563
 31
0.0
  0
LINE
  5
1D0
100
AcDbEntity
  8
0
  6
Continuous
 62
               7
100
AcDbLine
 10
321.93617083711956
 20
303.78505024096586
 30
0.0
 11
316.93617083711956
 21
303.78505024096586
 31
0.0
  0
LINE
  5
1D1
100
AcDbEntity
  8
0
  6
Continuous
 62
               7
100
AcDbLine
 10
324.43617083711933
 20
305.78505024096586
 30
0.0
 11
321.93617083711956
 21
303.78505024096586
 31
0.0
  0
LINE
  5
1D2
100
AcDbEntity
  8
0
  6
Continuous
 62
               7
100
AcDbLine
 10
316.93617083711956
 20
303.78505024096586
 30
0.0
 11
314.43617083711933
 21
305.78505024096563
 31
0.0
  0
LINE
  5
1D3
100
AcDbEntity
  8
0
  6
Continuous
 62
               7
100
AcDbLine
 10
324.43617083711933
 20
305.78505024096586
 30
0.0
 11
314.43617083711933
 21
305.78505024096563
 31
0.0
  0
LINE
  5
1D4
100
AcDbEntity
  8
0
  6
Continuous
 62
               7
100
AcDbLine
 10
321.93617083711979
 20
267.78505024096586
 30
0.0
 11
319.43617083711979
 21
266.28505024096586
 31
0.0
  0
LINE
  5
1D5
100
AcDbEntity
  8
0
  6
Continuous
 62
               7
100
AcDbLine
 10
316.93617083711979
 20
267.78505024096586
 30
0.0
 11
319.43617083711979
 21
266.28505024096586
 31
0.0
  0
LINE
  5
1D6
100
AcDbEntity
  8
0
  6
Continuous
 62
               7
100
AcDbLine
 10
321.93617083711956
 20
296.78505024096586
 30
0.0
 11
316.93617083711956
 21
298.78505024096586
 31
0.0
  0
LINE
  5
1D7
100
AcDbEntity
  8
0
  6
Continuous
 62
               7
100
AcDbLine
 10
321.93617083711956
 20
294.78505024096586
 30
0.0
 11
316.93617083711956
 21
296.78505024096586
 31
0.0
  0
LINE
  5
1D8
100
AcDbEntity
  8
0
  6
Continuous
 62
               7
100
AcDbLine
 10
321.93617083711956
 20
292.78505024096586
 30
0.0
 11
316.93617083711956
 21
294.78505024096586
 31
0.0
  0
LINE
  5
1D9
100
AcDbEntity
  8
0
  6
Continuous
 62
               7
100
AcDbLine
 10
321.93617083711956
 20
290.78505024096586
 30
0.0
 11
316.93617083711956
 21
292.78505024096586
 31
0.0
  0
LINE
  5
1DA
100
AcDbEntity
  8
0
  6
Continuous
 62
               7
100
AcDbLine
 10
321.93617083711956
 20
288.78505024096586
 30
0.0
 11
316.93617083711956
 21
290.78505024096586
 31
0.0
  0
LINE
  5
1DB
100
AcDbEntity
  8
0
  6
Continuous
 62
               7
100
AcDbLine
 10
321.93617083711979
 20
286.78505024096586
 30
0.0
 11
316.93617083711979
 21
288.78505024096586
 31
0.0
  0
LINE
  5
1DC
100
AcDbEntity
  8
0
  6
Continuous
 62
               7
100
AcDbLine
 10
321.93617083711979
 20
284.78505024096586
 30
0.0
 11
316.93617083711979
 21
286.78505024096586
 31
0.0
  0
LINE
  5
1DD
100
AcDbEntity
  8
0
  6
Continuous
 62
               7
100
AcDbLine
 10
321.93617083711979
 20
282.78505024096586
 30
0.0
 11
316.93617083711979
 21
284.78505024096586
 31
0.0
  0
LINE
  5
1DE
100
AcDbEntity
  8
0
  6
Continuous
 62
               7
100
AcDbLine
 10
321.93617083711979
 20
280.78505024096586
 30
0.0
 11
316.93617083711979
 21
282.78505024096586
 31
0.0
  0
LINE
  5
1DF
100
AcDbEntity
  8
0
  6
Continuous
 62
               7
100
AcDbLine
 10
321.93617083711979
 20
278.78505024096586
 30
0.0
 11
316.93617083711979
 21
280.78505024096586
 31
0.0
  0
LINE
  5
1E0
100
AcDbEntity
  8
0
  6
Continuous
 62
               7
100
AcDbLine
 10
321.93617083711979
 20
276.78505024096586
 30
0.0
 11
316.93617083711979
 21
278.78505024096586
 31
0.0
  0
LINE
  5
1E1
100
AcDbEntity
  8
0
  6
Continuous
 62
               7
100
AcDbLine
 10
321.93617083711979
 20
274.78505024096586
 30
0.0
 11
318.93617083711979
 21
275.9850502409659
 31
0.0
  0
LINE
  5
1E2
100
AcDbEntity
  8
0
  6
Continuous
 62
               7
100
AcDbLine
 10
317.43617083711979
 20
268.28505024096586
 30
0.0
 11
317.43617083711979
 21
276.58505024096604
 31
0.0
  0
LINE
  5
1E3
100
AcDbEntity
  8
0
  6
Continuous
 62
               7
100
AcDbLine
 10
318.93617083711979
 20
275.9850502409659
 30
0.0
 11
317.88617083711983
 21
277.03505024096586
 31
0.0
  0
LINE
  5
1E4
100
AcDbEntity
  8
0
  6
Continuous
 62
               7
100
AcDbLine
 10
317.43617083711979
 20
276.58505024096604
 30
0.0
 11
317.88617083711983
 21
277.03505024096586
 31
0.0
  0
LINE
  5
1E5
100
AcDbEntity
  8
0
  6
Continuous
 62
               7
100
AcDbLine
 10
317.43617083711979
 20
276.58505024096604
 30
0.0
 11
316.93617083711979
 21
276.78505024096586
 31
0.0
  0
LINE
  5
1E6
100
AcDbEntity
  8
0
  6
Continuous
 62
               7
100
AcDbLine
 10
316.93617083711979
 20
267.78505024096586
 30
0.0
 11
317.43617083711979
 21
268.28505024096586
 31
0.0
  0
LINE
  5
1E7
100
AcDbEntity
  8
0
  6
Continuous
 62
               2
100
AcDbLine
 10
368.48908657954189
 20
308.55608767473711
 30
0.0
 11
368.48908657954189
 21
297.5560876747349
 31
0.0
  0
LINE
  5
1E8
100
AcDbEntity
  8
0
  6
Continuous
 62
               2
100
AcDbLine
 10
366.48908657954212
 20
308.55608767473711
 30
0.0
 11
366.48908657954212
 21
297.5560876747349
 31
0.0
  0
LINE
  5
1E9
100
AcDbEntity
  8
0
  6
DASHED
 62
               6
100
AcDbLine
 10
400.48908657954189
 20
293.05608767473717
 30
0.0
 11
367.489086579542
 21
293.05608767473717
 31
0.0
  0
LINE
  5
1EA
100
AcDbEntity
  8
0
  6
DASHED
 62
               6
100
AcDbLine
 10
334.48908657954212
 20
293.05608767473717
 30
0.0
 11
367.489086579542
 21
293.05608767473717
 31
0.0
  0
LINE
  5
1EB
100
AcDbEntity
  8
0
  6
Continuous
 62
               2
100
AcDbLine
 10
366.48908657954212
 20
308.55608767473723
 30
0.0
 11
247.48908657954206
 21
308.55608767473728
 31
0.0
  0
LINE
  5
1EC
100
AcDbEntity
  8
0
  6
Continuous
 62
               2
100
AcDbLine
 10
368.48908657954189
 20
308.55608767473728
 30
0.0
 11
644.48908657954223
 21
308.55608767473728
 31
0.0
  0
LINE
  5
1ED
100
AcDbEntity
  8
0
  6
Continuous
 62
               3
100
AcDbLine
 10
402.48908657954183
 20
303.55608767473728
 30
0.0
 11
646.48908657954223
 21
303.55608767473728
 31
0.0
  0
LINE
  5
1EE
100
AcDbEntity
  8
0
  6
DASHED
 62
               6
100
AcDbLine
 10
402.48908657954183
 20
304.55608767473728
 30
0.0
 11
438.98908657954206
 21
304.55608767473728
 31
0.0
  0
LINE
  5
1EF
100
AcDbEntity
  8
0
  6
Continuous
 62
               3
100
AcDbLine
 10
332.48908657954212
 20
303.55608767473723
 30
0.0
 11
247.48908657954206
 21
303.55608767473728
 31
0.0
  0
LINE
  5
1F0
100
AcDbEntity
  8
0
  6
DASHED
 62
               6
100
AcDbLine
 10
295.98908657954206
 20
304.55608767473728
 30
0.0
 11
332.48908657954212
 21
304.55608767473728
 31
0.0
  0
LINE
  5
1F1
100
AcDbEntity
  8
0
  6
Continuous
 62
               7
100
AcDbLine
 10
322.86967880828604
 20
303.55608767473723
 30
0.0
 11
310.86967880828615
 21
291.55608767473728
 31
0.0
  0
LINE
  5
1F2
100
AcDbEntity
  8
0
  6
Continuous
 62
               7
100
AcDbLine
 10
416.93569598626823
 20
291.55608767473728
 30
0.0
 11
428.93569598626823
 21
303.55608767473728
 31
0.0
  0
LINE
  5
1F3
100
AcDbEntity
  8
0
  6
Continuous
 62
               7
100
AcDbLine
 10
409.86462817440253
 20
291.55608767473728
 30
0.0
 11
421.86462817440287
 21
303.55608767473728
 31
0.0
  0
LINE
  5
1F4
100
AcDbEntity
  8
0
  6
Continuous
 62
               7
100
AcDbLine
 10
402.79356036253716
 20
291.55608767473728
 30
0.0
 11
414.79356036253751
 21
303.55608767473728
 31
0.0
  0
LINE
  5
1F5
100
AcDbEntity
  8
0
  6
Continuous
 62
               7
100
AcDbLine
 10
402.48908657954183
 20
298.32268170360726
 30
0.0
 11
407.72249255067209
 21
303.55608767473728
 31
0.0
  0
LINE
  5
1F6
100
AcDbEntity
  8
0
  6
Continuous
 62
               7
100
AcDbLine
 10
329.94074662015151
 20
303.55608767473723
 30
0.0
 11
317.94074662015163
 21
291.55608767473728
 31
0.0
  0
LINE
  5
1F7
100
AcDbEntity
  8
0
  6
Continuous
 62
               7
100
AcDbLine
 10
332.48908657954212
 20
299.03335982226236
 30
0.0
 11
325.0118144320171
 21
291.55608767473728
 31
0.0
  0
LINE
  5
1F8
100
AcDbEntity
  8
0
  6
Continuous
 62
               7
100
AcDbLine
 10
332.48908657954212
 20
291.96229201039682
 30
0.0
 11
332.08288224388264
 21
291.55608767473728
 31
0.0
  0
LINE
  5
1F9
100
AcDbEntity
  8
0
  6
Continuous
 62
               4
100
AcDbLine
 10
342.80959465523165
 20
295.55608767473689
 30
0.0
 11
318.84955848386215
 21
337.05608767473711
 31
0.0
  0
LINE
  5
1FA
100
AcDbEntity
  8
0
  6
Continuous
 62
               4
100
AcDbLine
 10
278.88512602144164
 20
337.05608767473711
 30
0.0
 11
318.84955848386215
 21
337.05608767473711
 31
0.0
  0
LINE
  5
1FB
100
AcDbEntity
  8
0
  6
Continuous
 62
               4
100
AcDbLine
 10
342.80959465523165
 20
295.556087674737
 30
0.0
 11
337.02450616805277
 21
302.4504876628078
 31
0.0
  0
LINE
  5
1FC
100
AcDbEntity
  8
0
  6
Continuous
 62
               4
100
AcDbLine
 10
342.80959465523165
 20
295.556087674737
 30
0.0
 11
339.73141336530057
 21
304.01332126181023
 31
0.0
  0
CIRCLE
  5
1FD
100
AcDbEntity
  8
0
  6
Continuous
 62
               4
100
AcDbCircle
 10
647.48908657954223
 20
371.55608767473751
 30
0.0
 40
1.5
  0
CIRCLE
  5
1FE
100
AcDbEntity
  8
0
  6
Continuous
 62
               4
100
AcDbCircle
 10
367.48908657954206
 20
371.55608767473751
 30
0.0
 40
1.5
  0
CIRCLE
  5
1FF
100
AcDbEntity
  8
0
  6
Continuous
 62
               4
100
AcDbCircle
 10
367.48908657954206
 20
371.55608767473751
 30
0.0
 40
1.5
  0
CIRCLE
  5
200
100
AcDbEntity
  8
0
  6
Continuous
 62
               4
100
AcDbCircle
 10
625.39950853175731
 20
337.45186815258558
 30
0.0
 40
1.5
  0
CIRCLE
  5
201
100
AcDbEntity
  8
0
  6
Continuous
 62
               4
100
AcDbCircle
 10
575.32164661718218
 20
332.44408196112812
 30
0.0
 40
1.5
  0
CIRCLE
  5
202
100
AcDbEntity
  8
0
  6
Continuous
 62
               4
100
AcDbCircle
 10
606.48908657954223
 20
316.55608767473728
 30
0.0
 40
1.5
  0
CIRCLE
  5
203
100
AcDbEntity
  8
0
  6
Continuous
 62
               4
100
AcDbCircle
 10
606.48908657954223
 20
416.55608767473746
 30
0.0
 40
1.5
  0
CIRCLE
  5
204
100
AcDbEntity
  8
0
  6
Continuous
 62
               4
100
AcDbCircle
 10
606.48908657954223
 20
416.55608767473746
 30
0.0
 40
1.5
  0
CIRCLE
  5
205
100
AcDbEntity
  8
0
  6
Continuous
 62
               4
100
AcDbCircle
 10
606.48908657954223
 20
436.55608767473746
 30
0.0
 40
1.5
  0
CIRCLE
  5
206
100
AcDbEntity
  8
0
  6
Continuous
 62
               4
100
AcDbCircle
 10
462.93692641960666
 20
285.55608767473728
 30
0.0
 40
1.5
  0
CIRCLE
  5
207
100
AcDbEntity
  8
0
  6
Continuous
 62
               4
100
AcDbCircle
 10
456.00872318933119
 20
297.55608767473728
 30
0.0
 40
1.5
  0
CIRCLE
  5
208
100
AcDbEntity
  8
0
  6
Continuous
 62
               4
100
AcDbCircle
 10
451.3899210358141
 20
305.55608767473728
 30
0.0
 40
1.5
  0
CIRCLE
  5
209
100
AcDbEntity
  8
0
  6
Continuous
 62
               4
100
AcDbCircle
 10
449.65787022824526
 20
308.55608767473728
 30
0.0
 40
1.5
  0
CIRCLE
  5
20A
100
AcDbEntity
  8
0
  6
Continuous
 62
               4
100
AcDbCircle
 10
502.98908657954206
 20
303.55608767473728
 30
0.0
 40
1.5
  0
CIRCLE
  5
20B
100
AcDbEntity
  8
0
  6
Continuous
 62
               4
100
AcDbCircle
 10
502.98908657954206
 20
291.55608767473728
 30
0.0
 40
1.5
  0
CIRCLE
  5
20C
100
AcDbEntity
  8
0
  6
Continuous
 62
               4
100
AcDbCircle
 10
502.98908657954206
 20
291.55608767473728
 30
0.0
 40
1.5
  0
CIRCLE
  5
20D
100
AcDbEntity
  8
0
  6
Continuous
 62
               4
100
AcDbCircle
 10
502.98908657954206
 20
279.55608767473728
 30
0.0
 40
1.5
  0
CIRCLE
  5
20E
100
AcDbEntity
  8
0
  6
Continuous
 62
               4
100
AcDbCircle
 10
518.989086579542
 20
279.55608767473728
 30
0.0
 40
1.5
  0
CIRCLE
  5
20F
100
AcDbEntity
  8
0
  6
Continuous
 62
               4
100
AcDbCircle
 10
518.989086579542
 20
308.55608767473728
 30
0.0
 40
1.5
  0
CIRCLE
  5
210
100
AcDbEntity
  8
0
  6
Continuous
 62
               4
100
AcDbCircle
 10
502.98908657954206
 20
303.55608767473728
 30
0.0
 40
1.5
  0
CIRCLE
  5
211
100
AcDbEntity
  8
0
  6
Continuous
 62
               4
100
AcDbCircle
 10
502.98908657954206
 20
308.55608767473728
 30
0.0
 40
1.5
  0
ARC
  5
212
100
AcDbEntity
  8
0
  6
Continuous
 62
               6
100
AcDbCircle
 10
642.88908667490966
 20
274.95608777010472
 30
0.0
 40
2.2999999523162842
100
AcDbArc
 50
0.0
 51
90.000000000000028
  0
ARC
  5
213
100
AcDbEntity
  8
0
  6
Continuous
 62
               6
100
AcDbCircle
 10
642.88908667490966
 20
274.95608777010472
 30
0.0
 40
4.5999999046325684
100
AcDbArc
 50
0.0
 51
90.000000000000028
  0
ARC
  5
214
100
AcDbEntity
  8
0
  6
Continuous
 62
               6
100
AcDbCircle
 10
602.08908648417457
 20
274.95608777010472
 30
0.0
 40
2.2999999523162842
100
AcDbArc
 50
90.000000000000028
 51
180.0
  0
ARC
  5
215
100
AcDbEntity
  8
0
  6
Continuous
 62
               6
100
AcDbCircle
 10
602.08908648417457
 20
274.95608777010472
 30
0.0
 40
4.5999999046325684
100
AcDbArc
 50
90.000000000000028
 51
180.0
  0
ARC
  5
216
100
AcDbEntity
  8
0
  6
Continuous
 62
               6
100
AcDbCircle
 10
602.08908648417457
 20
184.15608757936991
 30
0.0
 40
4.5999999046325684
100
AcDbArc
 50
180.0
 51
270.0
  0
ARC
  5
217
100
AcDbEntity
  8
0
  6
Continuous
 62
               6
100
AcDbCircle
 10
602.08908648417457
 20
184.15608757936991
 30
0.0
 40
2.2999999523162842
100
AcDbArc
 50
180.0
 51
270.0
  0
ARC
  5
218
100
AcDbEntity
  8
0
  6
Continuous
 62
               6
100
AcDbCircle
 10
642.88908667490966
 20
184.15608757936991
 30
0.0
 40
2.2999999523162842
100
AcDbArc
 50
270.0
 51
0.0
  0
ARC
  5
219
100
AcDbEntity
  8
0
  6
Continuous
 62
               6
100
AcDbCircle
 10
642.88908667490966
 20
184.15608757936991
 30
0.0
 40
4.5999999046325684
100
AcDbArc
 50
270.0
 51
0.0
  0
ARC
  5
21A
100
AcDbEntity
  8
0
  6
Continuous
 62
               2
100
AcDbCircle
 10
578.31266565455223
 20
310.81075885543748
 30
0.0
 40
0.823579075010048
100
AcDbArc
 50
95.710593137499785
 51
265.00000000000102
  0
ARC
  5
21B
100
AcDbEntity
  8
0
  6
Continuous
 62
               6
100
AcDbCircle
 10
599.90575324620875
 20
426.55608767473746
 30
0.0
 40
34.083333333333329
100
AcDbArc
 50
342.93846878010368
 51
17.061531219896253
  0
ARC
  5
21C
100
AcDbEntity
  8
0
  6
Continuous
 62
               7
100
AcDbCircle
 10
642.48908657954223
 20
446.05608767473746
 30
0.0
 40
1.5
100
AcDbArc
 50
180.0
 51
270.0
  0
ARC
  5
21D
100
AcDbEntity
  8
0
  6
Continuous
 62
               7
100
AcDbCircle
 10
668.34474228035799
 20
426.49261171669195
 30
0.0
 40
0.5591073560238961
100
AcDbArc
 50
99.999999999995566
 51
260.00000000000676
  0
ARC
  5
21E
100
AcDbEntity
  8
0
  6
Continuous
 62
               7
100
AcDbCircle
 10
644.23909143985054
 20
422.69261171669132
 30
0.0
 40
0.7
100
AcDbArc
 50
270.00000000000119
 51
345.96375653208702
  0
ARC
  5
21F
100
AcDbEntity
  8
0
  6
Continuous
 62
               7
100
AcDbCircle
 10
644.23909143985009
 20
430.29261171669236
 30
0.0
 40
0.7
100
AcDbArc
 50
14.036243467915355
 51
90.000000000000028
  0
ARC
  5
220
100
AcDbEntity
  8
0
  6
Continuous
 62
               7
100
AcDbCircle
 10
643.58563492433416
 20
429.1926117166928
 30
0.0
 40
0.3
100
AcDbArc
 50
90.000000000001123
 51
180.0
  0
ARC
  5
221
100
AcDbEntity
  8
0
  6
Continuous
 62
               7
100
AcDbCircle
 10
643.58563492433416
 20
423.79261171669145
 30
0.0
 40
0.3
100
AcDbArc
 50
180.00000000000108
 51
270.00000000000119
  0
ARC
  5
222
100
AcDbEntity
  8
0
  6
Continuous
 62
               7
100
AcDbCircle
 10
668.41961601899095
 20
396.40405300649479
 30
0.0
 40
0.5591073560238961
100
AcDbArc
 50
99.999999999995566
 51
260.00000000000676
  0
ARC
  5
223
100
AcDbEntity
  8
0
  6
Continuous
 62
               7
100
AcDbCircle
 10
644.3139651784835
 20
392.60405300649421
 30
0.0
 40
0.7
100
AcDbArc
 50
270.00000000000119
 51
345.96375653208702
  0
ARC
  5
224
100
AcDbEntity
  8
0
  6
Continuous
 62
               7
100
AcDbCircle
 10
644.31396517848304
 20
400.2040530064952
 30
0.0
 40
0.7
100
AcDbArc
 50
14.036243467915355
 51
90.000000000000028
  0
ARC
  5
225
100
AcDbEntity
  8
0
  6
Continuous
 62
               7
100
AcDbCircle
 10
643.66050866296712
 20
399.10405300649575
 30
0.0
 40
0.3
100
AcDbArc
 50
90.000000000001123
 51
180.0
  0
ARC
  5
226
100
AcDbEntity
  8
0
  6
Continuous
 62
               7
100
AcDbCircle
 10
643.66050866296712
 20
393.70405300649429
 30
0.0
 40
0.3
100
AcDbArc
 50
180.00000000000108
 51
270.00000000000119
  0
ARC
  5
227
100
AcDbEntity
  8
0
  6
Continuous
 62
               7
100
AcDbCircle
 10
587.85903549811962
 20
279.08332398224798
 30
0.0
 40
30.0
100
AcDbArc
 50
344.86278517270671
 51
2.9923020128746414
  0
ARC
  5
228
100
AcDbEntity
  8
0
  6
Continuous
 62
               7
100
AcDbCircle
 10
386.08290560145747
 20
274.41899670059553
 30
0.0
 40
30.0
100
AcDbArc
 50
344.86278517270807
 51
2.9923020128759648
  0
ARC
  5
229
100
AcDbEntity
  8
0
  6
DASHED
 62
               6
100
AcDbCircle
 10
400.48908657954189
 20
294.05608767473706
 30
0.0
 40
1.0
100
AcDbArc
 50
270.0
 51
0.0
  0
ARC
  5
22A
100
AcDbEntity
  8
0
  6
DASHED
 62
               6
100
AcDbCircle
 10
402.48908657954189
 20
303.55608767473728
 30
0.0
 40
1.0
100
AcDbArc
 50
90.000000000000028
 51
180.0
  0
ARC
  5
22B
100
AcDbEntity
  8
0
  6
DASHED
 62
               6
100
AcDbCircle
 10
334.48908657954212
 20
294.05608767473706
 30
0.0
 40
1.0
100
AcDbArc
 50
180.0
 51
270.0
  0
ARC
  5
22C
100
AcDbEntity
  8
0
  6
DASHED
 62
               6
100
AcDbCircle
 10
332.48908657954212
 20
303.55608767473728
 30
0.0
 40
1.0
100
AcDbArc
 50
0.0
 51
90.000000000000028
  0
ARC
  5
22D
100
AcDbEntity
  8
0
  6
Continuous
 62
               7
100
AcDbCircle
 10
348.89526755762654
 20
274.41899670059553
 30
0.0
 40
30.0
100
AcDbArc
 50
177.00769798712406
 51
195.13721482729193
  0
TEXT
  5
22E
100
AcDbEntity
  8
0
 62
               7
100
AcDbText
 10
722.28679835254297
 20
26.713203554805766
 30
0.0
 40
8.9999997615814333
  1
ケラバ壁取合い詳細図 【S=1/3】
 41
0.7695
  7
FontTableH_0
 72
               5
 11
857.28679477626451
 21
26.713203554805766
 31
0.0
100
AcDbText
  0
TEXT
  5
22F
100
AcDbEntity
  8
0
 62
               7
100
AcDbText
 10
473.88923609643672
 20
373.05622163327428
 30
0.0
 40
9.6000000000000103
  1
（割付けにより調整）
 41
0.7695
  7
FontTableH_0
 72
               5
 11
569.88923609643678
 21
373.05622163327428
 31
0.0
100
AcDbText
  0
TEXT
  5
230
100
AcDbEntity
  8
0
 62
               7
100
AcDbText
 10
237.48912012963984
 20
419.0563742211649
 30
0.0
 40
9.6000000000000103
  1
アスファルトルーフィング 22kg
 50
359.99998269715599
 41
0.7695
  7
FontTableH_0
 72
               5
 11
376.68912012963364
 21
419.05633218393444
 31
0.0
100
AcDbText
  0
TEXT
  5
231
100
AcDbEntity
  8
0
 62
               7
100
AcDbText
 10
237.48912012963984
 20
403.05631318600865
 30
0.0
 40
9.6000000000000103
  1
硬質木片セメント板 12mm＋12mm
 50
359.99998269715599
 41
0.7695
  7
FontTableH_0
 72
               5
 11
376.68912012963364
 21
403.05627114877819
 31
0.0
100
AcDbText
  0
TEXT
  5
232
100
AcDbEntity
  8
0
 62
               7
100
AcDbText
 10
583.49482691674928
 20
334.76899018796178
 30
0.0
 40
9.6000000000000103
  1
50～100
 50
5.7106131626814003
 41
0.7695
  7
FontTableH_0
 72
               5
 11
616.92807533929295
 21
338.1123268321669
 31
0.0
100
AcDbText
  0
TEXT
  5
233
100
AcDbEntity
  8
0
 62
               7
100
AcDbText
 10
604.98921168237428
 20
349.6032492211649
 30
0.0
 40
9.6000000000000103
  1
100～150
 50
89.999982013910653
 41
0.7695
  7
FontTableH_0
 72
               5
 11
604.98922373676703
 21
388.00324922116306
 31
0.0
100
AcDbText
  0
TEXT
  5
234
100
AcDbEntity
  8
0
 62
               7
100
AcDbText
 10
604.98921168237428
 20
421.7562033227274
 30
0.0
 40
9.6000000000000103
  1
20
 50
89.999982013910653
 41
0.7695
  7
FontTableH_0
 72
               5
 11
604.98921469597246
 21
431.35620332272691
 31
0.0
100
AcDbText
  0
TEXT
  5
235
100
AcDbEntity
  8
0
 62
               7
100
AcDbText
 10
514.82203638940553
 20
413.05619111569615
 30
0.0
 40
9.6000000000000103
  1
雨押え：屋根同材
 41
0.7695
  7
FontTableH_0
 72
               5
 11
591.62203638940559
 21
413.05619111569615
 31
0.0
100
AcDbText
  0
TEXT
  5
236
100
AcDbEntity
  8
0
 62
               7
100
AcDbText
 10
439.42823756128053
 20
349.97843232663365
 30
0.0
 40
9.6000000000000103
  1
力板（ブチルテープをはさむ）
 41
0.7695
  7
FontTableH_0
 72
               5
 11
573.82823756128062
 21
349.97843232663365
 31
0.0
100
AcDbText
  0
TEXT
  5
237
100
AcDbEntity
  8
0
 62
               7
100
AcDbText
 10
508.08674586206172
 20
458.05631318600865
 30
0.0
 40
9.6000000000000103
  1
コーキング（屋根工事外）
 41
0.7695
  7
FontTableH_0
 72
               5
 11
623.28674586206182
 21
458.05631318600865
 31
0.0
100
AcDbText
  0
TEXT
  5
238
100
AcDbEntity
  8
0
 62
               7
100
AcDbText
 10
501.48915064721791
 20
292.75611176999303
 30
0.0
 40
9.6000000000000103
  1
12
 50
89.999982013910653
 41
0.7695
  7
FontTableH_0
 72
               5
 11
501.4891536608161
 21
302.35611176999254
 31
0.0
100
AcDbText
  0
TEXT
  5
239
100
AcDbEntity
  8
0
 62
               7
100
AcDbText
 10
501.48915064721791
 20
280.75611176999303
 30
0.0
 40
9.6000000000000103
  1
12
 50
89.999982013910653
 41
0.7695
  7
FontTableH_0
 72
               5
 11
501.4891536608161
 21
290.35611176999254
 31
0.0
100
AcDbText
  0
TEXT
  5
23A
100
AcDbEntity
  8
0
 62
               7
100
AcDbText
 10
517.48915064721803
 20
289.25611176999303
 30
0.0
 40
9.6000000000000103
  1
29
 50
89.999982013910653
 41
0.7695
  7
FontTableH_0
 72
               5
 11
517.48915366081621
 21
298.85611176999254
 31
0.0
100
AcDbText
  0
TEXT
  5
23B
100
AcDbEntity
  8
0
 62
               7
100
AcDbText
 10
501.48915064721791
 20
309.6561056664774
 30
0.0
 40
9.6000000000000103
  1
5
 50
89.999982013910653
 41
0.7695
  7
FontTableH_0
 72
               5
 11
501.48915215401701
 21
314.45610566647719
 31
0.0
100
AcDbText
  0
TEXT
  5
23C
100
AcDbEntity
  8
0
 62
               7
100
AcDbText
 10
50.892136637009862
 20
601.35786449547834
 30
0.0
 40
8.9999997615814333
  1
プロムナールーフY
 41
0.7695
  7
FontTableH_0
 72
               5
 11
127.39213461045205
 21
601.35786449547834
 31
0.0
100
AcDbText
  0
TEXT
  5
23D
100
AcDbEntity
  8
0
 62
               7
100
AcDbText
 10
237.48912012963984
 20
435.05643525632115
 30
0.0
 40
9.6000000000000103
  1
プロムナ－ル－フY：各種金属板
 50
359.99998269715599
 41
0.7695
  7
FontTableH_0
 72
               5
 11
376.68912012963364
 21
435.05639321909069
 31
0.0
100
AcDbText
  0
TEXT
  5
23E
100
AcDbEntity
  8
0
 62
               7
100
AcDbText
 10
309.38169790984284
 20
373.05622163327428
 30
0.0
 40
9.6000000000000103
  1
@425
 41
0.7695
  7
FontTableH_0
 72
               5
 11
328.58169790984289
 21
373.05622163327428
 31
0.0
100
AcDbText
  0
TEXT
  5
23F
100
AcDbEntity
  8
0
 62
               7
100
AcDbText
 10
278.88512602144164
 20
338.55622163327388
 30
0.0
 40
9.5999999999999766
  1
ガーター
 41
0.7695
  7
FontTableH_0
 72
               5
 11
317.28512602144173
 21
338.55622163327388
 31
0.0
100
AcDbText
  0
ENDSEC
  0
SECTION
  2
OBJECTS
  0
DICTIONARY
  5
19
100
AcDbDictionary
  3
ACAD_GROUP
350
1A
  3
ACAD_MLINESTYLE
350
1B
  3
DWGPROPS
350
240
  0
DICTIONARY
  5
1A
102
{ACAD_REACTORS
330
19
102
}
100
AcDbDictionary
  0
DICTIONARY
  5
1B
102
{ACAD_REACTORS
330
19
102
}
100
AcDbDictionary
  3
STANDARD
350
1C
  0
MLINESTYLE
  5
1C
102
{ACAD_REACTORS
330
1B
102
}
100
AcDbMlineStyle
  2
Standard
 70
               0
  3

 62
               0
 51
90.0
 52
90.0
 71
               2
 49
0.5
 62
             256
  6
ByLayer
 49
-0.5
 62
             256
  6
ByLayer
  0
XRECORD
  5
240
100
AcDbXrecord
  1
DWGPROPS COOKIE
  2

  3

  4

  6

  7

  0
ENDSEC
  0
EOF
