  0
SECTION
  2
HEADER
  9
$ACADVER
  1
AC1014
  9
$ACADMAINTVER
 70
               0
  9
$DWGCODEPAGE
  3
ANSI_932
  9
$INSBASE
 10
0.0
 20
0.0
 30
0.0
  9
$EXTMIN
 10
0.0
 20
0.0
 30
0.0
  9
$EXTMAX
 10
891.00000000000091
 20
630.00000000000068
 30
0.0
  9
$LIMMIN
 10
0.0
 20
0.0
  9
$LIMMAX
 10
891.00000000000091
 20
630.00000000000068
  9
$ORTHOMODE
 70
               0
  9
$REGENMODE
 70
               1
  9
$FILLMODE
 70
               1
  9
$QTEXTMODE
 70
               0
  9
$MIRRTEXT
 70
               1
  9
$DRAGMODE
 70
               2
  9
$LTSCALE
 40
3.0000000000000031
  9
$OSMODE
 70
               0
  9
$ATTMODE
 70
               1
  9
$TEXTSIZE
 40
0.2
  9
$TRACEWID
 40
0.05
  9
$TEXTSTYLE
  7
Standard
  9
$CLAYER
  8
0
  9
$CELTYPE
  6
Continuous
  9
$CECOLOR
 62
             256
  9
$CELTSCALE
 40
1.0
  9
$DELOBJ
 70
               1
  9
$DISPSILH
 70
               0
  9
$DIMSCALE
 40
1.0
  9
$DIMASZ
 40
0.18
  9
$DIMEXO
 40
0.0625
  9
$DIMDLI
 40
0.38
  9
$DIMRND
 40
0.0
  9
$DIMDLE
 40
0.0
  9
$DIMEXE
 40
0.18
  9
$DIMTP
 40
0.0
  9
$DIMTM
 40
0.0
  9
$DIMTXT
 40
0.18
  9
$DIMCEN
 40
0.09
  9
$DIMTSZ
 40
0.0
  9
$DIMTOL
 70
               0
  9
$DIMLIM
 70
               0
  9
$DIMTIH
 70
               1
  9
$DIMTOH
 70
               1
  9
$DIMSE1
 70
               0
  9
$DIMSE2
 70
               0
  9
$DIMTAD
 70
               0
  9
$DIMZIN
 70
               0
  9
$DIMBLK
  1

  9
$DIMASO
 70
               1
  9
$DIMSHO
 70
               1
  9
$DIMPOST
  1

  9
$DIMAPOST
  1

  9
$DIMALT
 70
               0
  9
$DIMALTD
 70
               2
  9
$DIMALTF
 40
25.399999999999999
  9
$DIMLFAC
 40
1.0
  9
$DIMTOFL
 70
               0
  9
$DIMTVP
 40
0.0
  9
$DIMTIX
 70
               0
  9
$DIMSOXD
 70
               0
  9
$DIMSAH
 70
               0
  9
$DIMBLK1
  1

  9
$DIMBLK2
  1

  9
$DIMSTYLE
  2
Standard
  9
$DIMCLRD
 70
               0
  9
$DIMCLRE
 70
               0
  9
$DIMCLRT
 70
               0
  9
$DIMTFAC
 40
1.0
  9
$DIMGAP
 40
0.09
  9
$DIMJUST
 70
               0
  9
$DIMSD1
 70
               0
  9
$DIMSD2
 70
               0
  9
$DIMTOLJ
 70
               1
  9
$DIMTZIN
 70
               0
  9
$DIMALTZ
 70
               0
  9
$DIMALTTZ
 70
               0
  9
$DIMFIT
 70
               3
  9
$DIMUPT
 70
               0
  9
$DIMUNIT
 70
               2
  9
$DIMDEC
 70
               4
  9
$DIMTDEC
 70
               4
  9
$DIMALTU
 70
               2
  9
$DIMALTTD
 70
               2
  9
$DIMTXSTY
  7
Standard
  9
$DIMAUNIT
 70
               0
  9
$LUNITS
 70
               2
  9
$LUPREC
 70
               4
  9
$SKETCHINC
 40
0.1
  9
$FILLETRAD
 40
0.0
  9
$AUNITS
 70
               0
  9
$AUPREC
 70
               0
  9
$MENU
  1
acad
  9
$ELEVATION
 40
0.0
  9
$PELEVATION
 40
0.0
  9
$THICKNESS
 40
0.0
  9
$LIMCHECK
 70
               0
  9
$BLIPMODE
 70
               1
  9
$CHAMFERA
 40
0.0
  9
$CHAMFERB
 40
0.0
  9
$CHAMFERC
 40
0.0
  9
$CHAMFERD
 40
0.0
  9
$SKPOLY
 70
               0
  9
$TDCREATE
 40
0.000000000
  9
$TDUPDATE
 40
0.000000000
  9
$TDINDWG
 40
0.0000000000
  9
$TDUSRTIMER
 40
0.0000000000
  9
$USRTIMER
 70
               1
  9
$ANGBASE
 50
0.0
  9
$ANGDIR
 70
               0
  9
$PDMODE
 70
               0
  9
$PDSIZE
 40
0.0
  9
$PLINEWID
 40
0.0
  9
$COORDS
 70
               0
  9
$SPLFRAME
 70
               0
  9
$SPLINETYPE
 70
               6
  9
$SPLINESEGS
 70
               8
  9
$ATTDIA
 70
               0
  9
$ATTREQ
 70
               1
  9
$HANDLING
 70
               1
  9
$HANDSEED
  5
1B4
  9
$SURFTAB1
 70
               6
  9
$SURFTAB2
 70
               6
  9
$SURFTYPE
 70
               6
  9
$SURFU
 70
               6
  9
$SURFV
 70
               6
  9
$UCSNAME
  2

  9
$UCSORG
 10
0.0
 20
0.0
 30
0.0
  9
$UCSXDIR
 10
1.0
 20
0.0
 30
0.0
  9
$UCSYDIR
 10
0.0
 20
1.0
 30
0.0
  9
$PUCSNAME
  2

  9
$PUCSORG
 10
0.0
 20
0.0
 30
0.0
  9
$PUCSXDIR
 10
1.0
 20
0.0
 30
0.0
  9
$PUCSYDIR
 10
0.0
 20
1.0
 30
0.0
  9
$USERI1
 70
               0
  9
$USERI2
 70
               0
  9
$USERI3
 70
               0
  9
$USERI4
 70
               0
  9
$USERI5
 70
               0
  9
$USERR1
 40
0.0
  9
$USERR2
 40
0.0
  9
$USERR3
 40
0.0
  9
$USERR4
 40
0.0
  9
$USERR5
 40
0.0
  9
$WORLDVIEW
 70
               1
  9
$SHADEDGE
 70
               3
  9
$SHADEDIF
 70
              70
  9
$TILEMODE
 70
               1
  9
$MAXACTVP
 70
              16
  9
$PINSBASE
 10
0.0
 20
0.0
 30
0.0
  9
$PLIMCHECK
 70
               0
  9
$PEXTMIN
 10
1.0000000000000000E+20
 20
1.0000000000000000E+20
 30
1.0000000000000000E+20
  9
$PEXTMAX
 10
-1.0000000000000000E+20
 20
-1.0000000000000000E+20
 30
-1.0000000000000000E+20
  9
$PLIMMIN
 10
0.0
 20
0.0
  9
$PLIMMAX
 10
12.0
 20
9.0
  9
$UNITMODE
 70
               0
  9
$VISRETAIN
 70
               0
  9
$PLINEGEN
 70
               1
  9
$PSLTSCALE
 70
               0
  9
$TREEDEPTH
 70
            3020
  9
$PICKSTYLE
 70
               1
  9
$CMLSTYLE
  2
Standard
  9
$CMLJUST
 70
               0
  9
$CMLSCALE
 40
1.0
  9
$PROXYGRAPHICS
 70
               0
  9
$MEASUREMENT
 70
               0
  0
ENDSEC
  0
SECTION
  2
CLASSES
  0
CLASS
  1
LWPOLYLINE
  2
AcDbPolyline
  3
"AutoCAD"
 90
        0
280
               0
281
               1
  0
CLASS
  1
IMAGE
  2
AcDbRasterImage
  3
ISM
 90
      127
280
               0
281
               1
  0
CLASS
  1
OLE2FRAME
  2
AcDbOle2Frame
  3
""
 90
        0
280
               0
281
               1
  0
CLASS
  1
HATCH
  2
AcDbHatch
  3
"ACAD_SEDONA"
 90
        0
280
               0
281
               1
  0
CLASS
  1
DICTIONARYVAR
  2
AcDbDictionaryVar
  3
"AutoCAD"
 90
        0
280
               0
281
               0
  0
CLASS
  1
RASTERVARIABLES
  2
AcDbRasterVariables
  3
ISM
 90
        0
280
               0
281
               0
  0
CLASS
  1
IMAGEDEF
  2
AcDbRasterImageDef
  3
ISM
 90
        0
280
               0
281
               0
  0
CLASS
  1
IMAGEDEF_REACTOR
  2
AcDbRasterImageDefReactor
  3
ISM
 90
        1
280
               0
281
               0
  0
CLASS
  1
IDBUFFER
  2
AcDbIdBuffer
  3
"Acad"
 90
        0
280
               0
281
               0
  0
CLASS
  1
SPATIAL_FILTER
  2
AcDbSpatialFilter
  3
"Acad"
 90
        0
280
               0
281
               0
  0
CLASS
  1
XRECORD
  2
AcDbXrecord
  3
"<Built In>"
 90
        0
280
               0
281
               0
  0
CLASS
  1
SORTENTSTABLE
  2
AcDbSortentsTable
  3
"AutoCAD"
 90
        0
280
               0
281
               0
  0
CLASS
  1
LAYER_INDEX
  2
AcDbLayerIndex
  3
"Acad"
 90
        0
280
               0
281
               0
  0
CLASS
  1
SPATIAL_INDEX
  2
AcDbSpatialIndex
  3
"Acad"
 90
        0
280
               0
281
               0
  0
CLASS
  1
OBJECT_PTR
  2
CAseDLPNTableRecord
  3
"ASE-LPNTableRecord"
 90
        1
280
               0
281
               0
  0
CLASS
  1
LAYOUT
  2
AcDbLayout
  3
"AutoCAD 2000"
 90
        0
280
               0
281
               0
  0
CLASS
  1
PLOTSETTINGS
  2
AcDbPlotSettings
  3
"AutoCAD 2000"
 90
        0
280
               0
281
               0
  0
CLASS
  1
ACDBDICTIONARYWDFLT
  2
AcDbDictionaryWithDefault
  3
"AutoCAD 2000"
 90
        0
280
               0
281
               0
  0
CLASS
  1
ACDBPLACEHOLDER
  2
AcDbPlaceHolder
  3
"AutoCAD 2000"
 90
        0
280
               0
281
               0
  0
CLASS
  1
VBA_PROJECT
  2
AcDbVbaProject
  3
"acadvba"
 90
        0
280
               0
281
               0
  0
CLASS
  1
WIPEOUT
  2
AcDbWipeout
  3
WipeOut|AutoCAD Express Tool|expresstools@autodesk.com
 90
      127
280
               0
281
               1
  0
CLASS
  1
WIPEOUTVARIABLES
  2
AcDbWipeoutVariables
  3
WipeOut|AutoCAD Express Tool|expresstools@autodesk.com
 90
        0
280
               0
281
               0
  0
CLASS
  1
RTEXT
  2
RText
  3
RText|AutoCAD Express Tool|expresstools@autodesk.com
 90
        0
280
               0
281
               1
  0
CLASS
  1
ARCALIGNEDTEXT
  2
AcDbArcAlignedText
  3
ATEXT|AutoCAD Express Tool|expresstools@autodesk.com
 90
        0
280
               0
281
               1
  0
ENDSEC
  0
SECTION
  2
TABLES
  0
TABLE
  2
VPORT
  5
7
100
AcDbSymbolTable
 70
               1
  0
VPORT
  5
15
100
AcDbSymbolTableRecord
100
AcDbViewportTableRecord
  2
*ACTIVE
 70
               0
 10
0.0
 20
0.0
 11
1.0
 21
1.0
 12
445.50000000000045
 22
315.00000000000034
 13
0.0
 23
0.0
 14
10.0
 24
10.0
 15
10.0
 25
10.0
 16
0.0
 26
0.0
 36
1.0
 17
0.0
 27
0.0
 37
0.0
 40
630.00000000000068
 41
1.4142857142857141
 42
50.0
 43
0.0
 44
0.0
 50
0.0
 51
0.0
 71
               0
 72
             100
 73
               1
 74
               1
 75
               0
 76
               0
 77
               0
 78
               0
  0
ENDTAB
  0
TABLE
  2
LTYPE
  5
4
100
AcDbSymbolTable
 70
              24
  0
LTYPE
  5
11
100
AcDbSymbolTableRecord
100
AcDbLinetypeTableRecord
  2
ByBlock
 70
              64
  3

 72
              65
 73
               0
 40
0.0
  0
LTYPE
  5
12
100
AcDbSymbolTableRecord
100
AcDbLinetypeTableRecord
  2
ByLayer
 70
              64
  3

 72
              65
 73
               0
 40
0.0
  0
LTYPE
  5
13
100
AcDbSymbolTableRecord
100
AcDbLinetypeTableRecord
  2
Continuous
 70
              64
  3
Solid line
 72
              65
 73
               0
 40
0.0
  0
LTYPE
  5
1D
100
AcDbSymbolTableRecord
100
AcDbLinetypeTableRecord
  2
DOT
 70
              64
  3
Dot . . . . . . . . . . . . . . . . . . . . . .
 72
              65
 73
               2
 40
6.3499999999999996
 49
0.35
 74
               0
 49
-6.0
 74
               0
  0
LTYPE
  5
1E
100
AcDbSymbolTableRecord
100
AcDbLinetypeTableRecord
  2
DASHED
 70
              64
  3
Dashed __ __ __ __ __ __ __ __ __ __ __ __ __ _
 72
              65
 73
               2
 40
12.699999999999999
 49
6.3499999999999996
 74
               0
 49
-6.3499999999999996
 74
               0
  0
LTYPE
  5
1F
100
AcDbSymbolTableRecord
100
AcDbLinetypeTableRecord
  2
DASHDOT
 70
              64
  3
Dash dot __ . __ . __ . __ . __ . __ . __ . __
 72
              65
 73
               4
 40
25.399999999999999
 49
12.699999999999999
 74
               0
 49
-6.0
 74
               0
 49
0.7
 74
               0
 49
-6.0
 74
               0
  0
LTYPE
  5
20
100
AcDbSymbolTableRecord
100
AcDbLinetypeTableRecord
  2
DIVIDE
 70
              64
  3
Divide ____ . . ____ . . ____ . . ____ . . ____
 72
              65
 73
               6
 40
31.75
 49
12.699999999999999
 74
               0
 49
-6.0
 74
               0
 49
0.875
 74
               0
 49
-6.0
 74
               0
 49
0.875
 74
               0
 49
-6.0
 74
               0
  0
LTYPE
  5
21
100
AcDbSymbolTableRecord
100
AcDbLinetypeTableRecord
  2
HIDDEN
 70
              64
  3
Hidden __ __ __ __ __ __ __ __ __ __ __ __ __ _
 72
              65
 73
               2
 40
9.5250000000000004
 49
6.3499999999999996
 74
               0
 49
-3.1749999999999998
 74
               0
  0
LTYPE
  5
22
100
AcDbSymbolTableRecord
100
AcDbLinetypeTableRecord
  2
CENTER
 70
              64
  3
Center ____ _ ____ _ ____ _ ____ _ ____ _ ____
 72
              65
 73
               4
 40
50.799999999999997
 49
31.75
 74
               0
 49
-6.3499999999999996
 74
               0
 49
6.3499999999999996
 74
               0
 49
-6.3499999999999996
 74
               0
  0
LTYPE
  5
23
100
AcDbSymbolTableRecord
100
AcDbLinetypeTableRecord
  2
PHANTOM
 70
              64
  3
Phantom ______  __  __  ______  __  __  ______
 72
              65
 73
               6
 40
63.5
 49
31.75
 74
               0
 49
-6.3499999999999996
 74
               0
 49
6.3499999999999996
 74
               0
 49
-6.3499999999999996
 74
               0
 49
6.3499999999999996
 74
               0
 49
-6.3499999999999996
 74
               0
  0
LTYPE
  5
24
100
AcDbSymbolTableRecord
100
AcDbLinetypeTableRecord
  2
ACAD_ISO02W100
 70
              64
  3
ISO dash __ __ __ __ __ __ __ __ __ __ __ __ __
 72
              65
 73
               2
 40
15.0
 49
12.0
 74
               0
 49
-3.0
 74
               0
  0
LTYPE
  5
25
100
AcDbSymbolTableRecord
100
AcDbLinetypeTableRecord
  2
ACAD_ISO03W100
 70
              64
  3
ISO dash space __ __ __ __ __ __ __ __ __ __ __ __ __ __
 72
              65
 73
               2
 40
30.0
 49
12.0
 74
               0
 49
-18.0
 74
               0
  0
LTYPE
  5
26
100
AcDbSymbolTableRecord
100
AcDbLinetypeTableRecord
  2
ACAD_ISO04W100
 70
              64
  3
ISO long-dash dot ____ . ____ . ____ . ____ . _
 72
              65
 73
               4
 40
30.0
 49
24.0
 74
               0
 49
-3.0
 74
               0
 49
0.0
 74
               0
 49
-3.0
 74
               0
  0
LTYPE
  5
27
100
AcDbSymbolTableRecord
100
AcDbLinetypeTableRecord
  2
ACAD_ISO05W100
 70
              64
  3
ISO long-dash double-dot ____ .. ____ .. ____ .
 72
              65
 73
               6
 40
33.0
 49
24.0
 74
               0
 49
-3.0
 74
               0
 49
0.0
 74
               0
 49
-3.0
 74
               0
 49
0.0
 74
               0
 49
-3.0
 74
               0
  0
LTYPE
  5
28
100
AcDbSymbolTableRecord
100
AcDbLinetypeTableRecord
  2
ACAD_ISO06W100
 70
              64
  3
ISO long-dash triple-dot ____ ... ____ ... ____
 72
              65
 73
               8
 40
36.0
 49
24.0
 74
               0
 49
-3.0
 74
               0
 49
0.0
 74
               0
 49
-3.0
 74
               0
 49
0.0
 74
               0
 49
-3.0
 74
               0
 49
0.0
 74
               0
 49
-3.0
 74
               0
  0
LTYPE
  5
29
100
AcDbSymbolTableRecord
100
AcDbLinetypeTableRecord
  2
ACAD_ISO07W100
 70
              64
  3
ISO dot . . . . . . . . . . . . . . . . . . . .
 72
              65
 73
               2
 40
3.0
 49
0.0
 74
               0
 49
-3.0
 74
               0
  0
LTYPE
  5
2A
100
AcDbSymbolTableRecord
100
AcDbLinetypeTableRecord
  2
ACAD_ISO08W100
 70
              64
  3
ISO long-dash short-dash ____ __ ____ __ ____ _
 72
              65
 73
               4
 40
36.0
 49
24.0
 74
               0
 49
-3.0
 74
               0
 49
6.0
 74
               0
 49
-3.0
 74
               0
  0
LTYPE
  5
2B
100
AcDbSymbolTableRecord
100
AcDbLinetypeTableRecord
  2
ACAD_ISO09W100
 70
              64
  3
ISO long-dash double-short-dash ____ __ __ ____
 72
              65
 73
               6
 40
45.0
 49
24.0
 74
               0
 49
-3.0
 74
               0
 49
6.0
 74
               0
 49
-3.0
 74
               0
 49
6.0
 74
               0
 49
-3.0
 74
               0
  0
LTYPE
  5
2C
100
AcDbSymbolTableRecord
100
AcDbLinetypeTableRecord
  2
ACAD_ISO10W100
 70
              64
  3
ISO dash dot __ . __ . __ . __ . __ . __ . __ .
 72
              65
 73
               4
 40
18.0
 49
12.0
 74
               0
 49
-3.0
 74
               0
 49
0.0
 74
               0
 49
-3.0
 74
               0
  0
LTYPE
  5
2D
100
AcDbSymbolTableRecord
100
AcDbLinetypeTableRecord
  2
ACAD_ISO11W100
 70
              64
  3
ISO double-dash dot __ __ . __ __ . __ __ . __ 
 72
              65
 73
               6
 40
33.0
 49
12.0
 74
               0
 49
-3.0
 74
               0
 49
12.0
 74
               0
 49
-3.0
 74
               0
 49
0.0
 74
               0
 49
-3.0
 74
               0
  0
LTYPE
  5
2E
100
AcDbSymbolTableRecord
100
AcDbLinetypeTableRecord
  2
ACAD_ISO12W100
 70
              64
  3
ISO dash double-dot __ . . __ . . __ . . __ . .
 72
              65
 73
               6
 40
21.0
 49
12.0
 74
               0
 49
-3.0
 74
               0
 49
0.0
 74
               0
 49
-3.0
 74
               0
 49
0.0
 74
               0
 49
-3.0
 74
               0
  0
LTYPE
  5
2F
100
AcDbSymbolTableRecord
100
AcDbLinetypeTableRecord
  2
ACAD_ISO13W100
 70
              64
  3
ISO double-dash double-dot __ __ . . __ __ . . 
 72
              65
 73
               8
 40
36.0
 49
12.0
 74
               0
 49
-3.0
 74
               0
 49
12.0
 74
               0
 49
-3.0
 74
               0
 49
0.0
 74
               0
 49
-3.0
 74
               0
 49
0.0
 74
               0
 49
-3.0
 74
               0
  0
LTYPE
  5
30
100
AcDbSymbolTableRecord
100
AcDbLinetypeTableRecord
  2
ACAD_ISO14W100
 70
              64
  3
ISO dash triple-dot __ . . . __ . . . __ . . . 
 72
              65
 73
               8
 40
24.0
 49
12.0
 74
               0
 49
-3.0
 74
               0
 49
0.0
 74
               0
 49
-3.0
 74
               0
 49
0.0
 74
               0
 49
-3.0
 74
               0
 49
0.0
 74
               0
 49
-3.0
 74
               0
  0
LTYPE
  5
31
100
AcDbSymbolTableRecord
100
AcDbLinetypeTableRecord
  2
ACAD_ISO15W100
 70
              64
  3
ISO double-dash double-dot __ __ . . __ __ . . 
 72
              65
 73
              10
 40
39.0
 49
12.0
 74
               0
 49
-3.0
 74
               0
 49
12.0
 74
               0
 49
-3.0
 74
               0
 49
0.0
 74
               0
 49
-3.0
 74
               0
 49
0.0
 74
               0
 49
-3.0
 74
               0
 49
0.0
 74
               0
 49
-3.0
 74
               0
  0
ENDTAB
  0
TABLE
  2
LAYER
  5
2
100
AcDbSymbolTable
 70
              16
  0
LAYER
  5
14
100
AcDbSymbolTableRecord
100
AcDbLayerTableRecord
  2
0
 70
               0
 62
               7
  6
Continuous
  0
LAYER
  5
35
100
AcDbSymbolTableRecord
100
AcDbLayerTableRecord
  2
Layer00001
 70
               0
 62
               7
  6
Continuous
  0
LAYER
  5
36
100
AcDbSymbolTableRecord
100
AcDbLayerTableRecord
  2
Layer00002
 70
               0
 62
               7
  6
Continuous
  0
LAYER
  5
37
100
AcDbSymbolTableRecord
100
AcDbLayerTableRecord
  2
Layer00003
 70
               0
 62
               7
  6
Continuous
  0
LAYER
  5
38
100
AcDbSymbolTableRecord
100
AcDbLayerTableRecord
  2
Layer00004
 70
               0
 62
               7
  6
Continuous
  0
LAYER
  5
39
100
AcDbSymbolTableRecord
100
AcDbLayerTableRecord
  2
Layer00005
 70
               0
 62
               7
  6
Continuous
  0
LAYER
  5
3A
100
AcDbSymbolTableRecord
100
AcDbLayerTableRecord
  2
Layer00006
 70
               0
 62
               7
  6
Continuous
  0
LAYER
  5
3B
100
AcDbSymbolTableRecord
100
AcDbLayerTableRecord
  2
Layer00007
 70
               0
 62
               7
  6
Continuous
  0
LAYER
  5
3C
100
AcDbSymbolTableRecord
100
AcDbLayerTableRecord
  2
Layer00008
 70
               0
 62
               7
  6
Continuous
  0
LAYER
  5
3D
100
AcDbSymbolTableRecord
100
AcDbLayerTableRecord
  2
Layer00009
 70
               0
 62
               7
  6
Continuous
  0
LAYER
  5
3E
100
AcDbSymbolTableRecord
100
AcDbLayerTableRecord
  2
Layer00010
 70
               0
 62
               7
  6
Continuous
  0
LAYER
  5
3F
100
AcDbSymbolTableRecord
100
AcDbLayerTableRecord
  2
Layer00011
 70
               0
 62
               7
  6
Continuous
  0
LAYER
  5
40
100
AcDbSymbolTableRecord
100
AcDbLayerTableRecord
  2
Layer00012
 70
               0
 62
               7
  6
Continuous
  0
LAYER
  5
41
100
AcDbSymbolTableRecord
100
AcDbLayerTableRecord
  2
Layer00013
 70
               0
 62
               7
  6
Continuous
  0
LAYER
  5
42
100
AcDbSymbolTableRecord
100
AcDbLayerTableRecord
  2
Layer00014
 70
               0
 62
               7
  6
Continuous
  0
LAYER
  5
43
100
AcDbSymbolTableRecord
100
AcDbLayerTableRecord
  2
Layer00015
 70
               0
 62
               7
  6
Continuous
  0
ENDTAB
  0
TABLE
  2
STYLE
  5
3
100
AcDbSymbolTable
 70
               4
  0
STYLE
  5
17
100
AcDbSymbolTableRecord
100
AcDbTextStyleTableRecord
  2
Standard
 70
               0
 40
0.0
 41
1.0
 50
0.0
 71
               0
 42
0.0
  3
txt.shx
  4
bigfont.shx
  0
STYLE
  5
32
100
AcDbSymbolTableRecord
100
AcDbTextStyleTableRecord
  2
STANDARD_T
 70
               4
 40
0.0
 41
1.0
 50
0.0
 71
               0
 42
0.0
  3
txt.shx
  4
bigfont.shx
  0
STYLE
  5
33
100
AcDbSymbolTableRecord
100
AcDbTextStyleTableRecord
  2
FontTableH_0
 70
               0
 40
0.0
 41
1.0
 50
0.0
 71
               0
 42
0.0
  3
MS Gothic.ttf
  4

1001
ACAD
1000
MS Gothic
1071
    32817
  0
STYLE
  5
34
100
AcDbSymbolTableRecord
100
AcDbTextStyleTableRecord
  2
FontTableV_0
 70
               0
 40
0.0
 41
1.0
 50
0.0
 71
               0
 42
0.0
  3
@MS Gothic.ttf
  4

1001
ACAD
1000
@MS Gothic
1071
    32817
  0
ENDTAB
  0
TABLE
  2
VIEW
  5
5
100
AcDbSymbolTable
 70
               0
  0
ENDTAB
  0
TABLE
  2
UCS
  5
6
100
AcDbSymbolTable
 70
               0
  0
ENDTAB
  0
TABLE
  2
APPID
  5
8
100
AcDbSymbolTable
 70
               1
  0
APPID
  5
16
100
AcDbSymbolTableRecord
100
AcDbRegAppTableRecord
  2
ACAD
 70
               0
  0
ENDTAB
  0
TABLE
  2
DIMSTYLE
  5
9
100
AcDbSymbolTable
 70
               1
  0
DIMSTYLE
105
18
100
AcDbSymbolTableRecord
100
AcDbDimStyleTableRecord
  2
Standard
 70
               0
  3

  4

  5

  6

  7

 40
1.0
 41
0.18
 42
0.0625
 43
0.38
 44
0.18
 45
0.0
 46
0.0
 47
0.0
 48
0.0
 71
               0
 72
               0
 73
               1
 74
               1
 75
               0
 76
               0
 77
               0
 78
               0
140
0.18
141
0.09
142
0.0
143
25.399999999999999
144
1.0
145
0.0
146
1.0
147
0.09
170
               0
171
               2
172
               0
173
               0
174
               0
175
               0
176
               0
177
               0
178
               0
270
               2
271
               4
272
               4
273
               2
274
               2
275
               0
280
               0
281
               0
282
               0
283
               1
284
               0
285
               0
286
               0
287
               0
288
               0
340
17
  0
ENDTAB
  0
TABLE
  2
BLOCK_RECORD
  5
1
100
AcDbSymbolTable
 70
               0
  0
BLOCK_RECORD
  5
A
100
AcDbSymbolTableRecord
100
AcDbBlockTableRecord
  2
*MODEL_SPACE
  0
BLOCK_RECORD
  5
B
100
AcDbSymbolTableRecord
100
AcDbBlockTableRecord
  2
*PAPER_SPACE
  0
ENDTAB
  0
ENDSEC
  0
SECTION
  2
BLOCKS
  0
BLOCK
  5
D
100
AcDbEntity
  8
0
100
AcDbBlockBegin
  2
*MODEL_SPACE
 70
               0
 10
0.0
 20
0.0
 30
0.0
  3
*MODEL_SPACE
  1

  0
ENDBLK
  5
E
100
AcDbEntity
  8
0
100
AcDbBlockEnd
  0
BLOCK
  5
F
100
AcDbEntity
 67
               1
  8
0
100
AcDbBlockBegin
  2
*PAPER_SPACE
 70
               0
 10
0.0
 20
0.0
 30
0.0
  3
*PAPER_SPACE
  1

  0
ENDBLK
  5
10
100
AcDbEntity
 67
               1
  8
0
100
AcDbBlockEnd
  0
ENDSEC
  0
SECTION
  2
ENTITIES
  0
LINE
  5
44
100
AcDbEntity
  8
0
  6
Continuous
 62
               4
100
AcDbLine
 10
714.78679656440374
 20
21.213203435596483
 30
0.0
 11
714.78679656440374
 21
41.213203435596483
 31
0.0
  0
LINE
  5
45
100
AcDbEntity
  8
0
  6
Continuous
 62
               4
100
AcDbLine
 10
864.78679656440374
 20
21.213203435596483
 30
0.0
 11
714.78679656440374
 21
21.213203435596483
 31
0.0
  0
LINE
  5
46
100
AcDbEntity
  8
0
  6
Continuous
 62
               4
100
AcDbLine
 10
864.78679656440374
 20
41.213203435596483
 30
0.0
 11
864.78679656440374
 21
21.213203435596483
 31
0.0
  0
LINE
  5
47
100
AcDbEntity
  8
0
  6
Continuous
 62
               4
100
AcDbLine
 10
864.78679656440374
 20
41.213203435596483
 30
0.0
 11
714.78679656440374
 21
41.213203435596483
 31
0.0
  0
LINE
  5
48
100
AcDbEntity
  8
0
  6
Continuous
 62
               4
100
AcDbLine
 10
14.142135623730949
 20
595.85786437626905
 30
0.0
 11
14.142135623730949
 21
615.85786437626905
 31
0.0
  0
LINE
  5
49
100
AcDbEntity
  8
0
  6
Continuous
 62
               4
100
AcDbLine
 10
164.14213562373095
 20
595.85786437626905
 30
0.0
 11
14.142135623730949
 21
595.85786437626905
 31
0.0
  0
LINE
  5
4A
100
AcDbEntity
  8
0
  6
Continuous
 62
               4
100
AcDbLine
 10
164.14213562373095
 20
615.85786437626905
 30
0.0
 11
164.14213562373095
 21
595.85786437626905
 31
0.0
  0
LINE
  5
4B
100
AcDbEntity
  8
0
  6
Continuous
 62
               4
100
AcDbLine
 10
164.14213562373095
 20
615.85786437626905
 30
0.0
 11
14.142135623730949
 21
615.85786437626905
 31
0.0
  0
LINE
  5
4C
100
AcDbEntity
  8
0
  6
Continuous
 62
               3
100
AcDbLine
 10
386.66269405619869
 20
334.87500265366691
 30
0.0
 11
668.21569071436898
 21
419.34090165111775
 31
0.0
  0
LINE
  5
4D
100
AcDbEntity
  8
0
  6
Continuous
 62
               3
100
AcDbLine
 10
383.21451942940257
 20
346.36891807632071
 30
0.0
 11
668.21568552951294
 21
431.86926790635368
 31
0.0
  0
LINE
  5
4E
100
AcDbEntity
  8
0
  6
Continuous
 62
               3
100
AcDbLine
 10
386.66269405619869
 20
334.87500265366691
 30
0.0
 11
383.21451942940257
 21
346.36891807632071
 31
0.0
  0
LINE
  5
4F
100
AcDbEntity
  8
0
  6
Continuous
 62
               6
100
AcDbLine
 10
419.80348343350511
 20
240.41417437775306
 30
0.0
 11
463.28879687389099
 21
253.45976840986862
 31
0.0
  0
LINE
  5
50
100
AcDbEntity
  8
0
  6
Continuous
 62
               6
100
AcDbLine
 10
461.96699662768947
 20
257.86576923054065
 30
0.0
 11
457.5418391625642
 21
272.61629411429192
 31
0.0
  0
LINE
  5
51
100
AcDbEntity
  8
0
  6
Continuous
 62
               6
100
AcDbLine
 10
457.5418391625642
 20
272.61629411429192
 30
0.0
 11
455.33883875222818
 21
271.95539399119127
 31
0.0
  0
LINE
  5
52
100
AcDbEntity
  8
0
  6
Continuous
 62
               6
100
AcDbLine
 10
455.33883875222818
 20
271.95539399119127
 30
0.0
 11
459.76399621735368
 21
257.20486910744
 31
0.0
  0
LINE
  5
53
100
AcDbEntity
  8
0
  6
Continuous
 62
               6
100
AcDbLine
 10
458.22189593011854
 20
254.34096857400311
 30
0.0
 11
419.14258331040446
 21
242.61717478808907
 31
0.0
  0
LINE
  5
54
100
AcDbEntity
  8
0
  6
Continuous
 62
               6
100
AcDbLine
 10
416.27868277696757
 20
244.15927507532422
 30
0.0
 11
390.18749471273622
 21
331.12990195609586
 31
0.0
  0
LINE
  5
55
100
AcDbEntity
  8
0
  6
Continuous
 62
               6
100
AcDbLine
 10
391.72959499997137
 20
333.99380248953264
 30
0.0
 11
430.80890761968521
 21
345.71759627544679
 31
0.0
  0
LINE
  5
56
100
AcDbEntity
  8
0
  6
Continuous
 62
               6
100
AcDbLine
 10
433.67280815312188
 20
344.17549598821154
 30
0.0
 11
438.09796561824737
 21
329.42497110446038
 31
0.0
  0
LINE
  5
57
100
AcDbEntity
  8
0
  6
Continuous
 62
               6
100
AcDbLine
 10
438.09796561824737
 20
329.42497110446038
 30
0.0
 11
440.30096602858316
 21
330.08587122756114
 31
0.0
  0
LINE
  5
58
100
AcDbEntity
  8
0
  6
Continuous
 62
               6
100
AcDbLine
 10
440.30096602858316
 20
330.08587122756114
 30
0.0
 11
435.87580856345789
 21
344.83639611131241
 31
0.0
  0
LINE
  5
59
100
AcDbEntity
  8
0
  6
Continuous
 62
               6
100
AcDbLine
 10
430.14800749658457
 20
347.9205966857827
 30
0.0
 11
391.0686948768705
 21
336.19680289986854
 31
0.0
  0
LINE
  5
5A
100
AcDbEntity
  8
0
  6
Continuous
 62
               6
100
AcDbLine
 10
387.98449430240021
 20
330.4690018329951
 30
0.0
 11
414.07568236663178
 21
243.49837495222334
 31
0.0
  0
LINE
  5
5B
100
AcDbEntity
  8
0
  6
DIVIDE
 62
               6
100
AcDbLine
 10
416.83422204066505
 20
234.30324270544577
 30
0.0
 11
668.21573608185827
 21
309.71769691780298
 31
0.0
  0
LINE
  5
5C
100
AcDbEntity
  8
0
  6
DASHED
 62
               6
100
AcDbLine
 10
433.59618203203513
 20
213.23106443058043
 30
0.0
 11
471.90923344088128
 21
224.72497985323423
 31
0.0
  0
LINE
  5
5D
100
AcDbEntity
  8
0
  6
DIVIDE
 62
               6
100
AcDbLine
 10
425.45465860765535
 20
205.56845414881116
 30
0.0
 11
668.2157490439979
 21
278.39678127971331
 31
0.0
  0
LINE
  5
5E
100
AcDbEntity
  8
0
  6
DIVIDE
 62
               6
100
AcDbLine
 10
416.83422204066505
 20
234.30324270544577
 30
0.0
 11
425.45465860765535
 21
205.56845414881116
 31
0.0
  0
LINE
  5
5F
100
AcDbEntity
  8
0
  6
DASHED
 62
               6
100
AcDbLine
 10
464.72553630172274
 20
248.67063698376307
 30
0.0
 11
471.90923344088128
 21
224.72497985323423
 31
0.0
  0
LINE
  5
60
100
AcDbEntity
  8
0
  6
DASHED
 62
               6
100
AcDbLine
 10
426.41248489287659
 20
237.17672156110928
 30
0.0
 11
433.59618203203513
 21
213.23106443058043
 31
0.0
  0
LINE
  5
61
100
AcDbEntity
  8
0
  6
DASHED
 62
               6
100
AcDbLine
 10
425.83778912174398
 20
239.09237413155154
 30
0.0
 11
464.1508405305899
 21
250.58628955420534
 31
0.0
  0
LINE
  5
62
100
AcDbEntity
  8
0
  6
DIVIDE
 62
               6
100
AcDbLine
 10
424.5926149509562
 20
208.44193300447466
 30
0.0
 11
668.21574774778401
 21
281.52887284352232
 31
0.0
  0
LINE
  5
63
100
AcDbEntity
  8
0
  6
Continuous
 62
               2
100
AcDbLine
 10
431.48896420454844
 20
185.45410215916701
 30
0.0
 11
441.54614019937048
 21
151.93018217642657
 31
0.0
  0
LINE
  5
64
100
AcDbEntity
  8
0
  6
Continuous
 62
               2
100
AcDbLine
 10
438.93158772747051
 20
168.8707291725882
 30
0.0
 11
442.83920568441908
 21
152.84011714738682
 31
0.0
  0
LINE
  5
65
100
AcDbEntity
  8
0
  6
Continuous
 62
               3
100
AcDbLine
 10
433.2130515179465
 20
184.92729770229528
 30
0.0
 11
673.81903389272134
 21
257.10909241472712
 31
0.0
  0
LINE
  5
66
100
AcDbEntity
  8
0
  6
Continuous
 62
               2
100
AcDbLine
 10
431.48896420454844
 20
185.45410215916701
 30
0.0
 11
469.80201561339459
 21
196.94801758182092
 31
0.0
  0
LINE
  5
67
100
AcDbEntity
  8
0
  6
Continuous
 62
               3
100
AcDbLine
 10
433.2130515179465
 20
184.92729770229528
 30
0.0
 11
435.7991824880437
 21
176.30686113530487
 31
0.0
  0
LINE
  5
68
100
AcDbEntity
  8
0
  6
Continuous
 62
               3
100
AcDbLine
 10
435.7991824880437
 20
176.30686113530487
 30
0.0
 11
673.81903778136325
 21
247.7128177233003
 31
0.0
  0
LINE
  5
69
100
AcDbEntity
  8
0
  6
Continuous
 62
               7
100
AcDbLine
 10
389.86991134908817
 20
335.83716784153376
 30
0.0
 11
385.70055425107921
 21
338.08213533739831
 31
0.0
  0
LINE
  5
6A
100
AcDbEntity
  8
0
  6
Continuous
 62
               7
100
AcDbLine
 10
396.64285530369307
 20
337.86905102791513
 30
0.0
 11
383.66872466752852
 21
344.85490061590065
 31
0.0
  0
LINE
  5
6B
100
AcDbEntity
  8
0
  6
Continuous
 62
               7
100
AcDbLine
 10
403.41579925829797
 20
339.90093421429663
 30
0.0
 11
388.47340598144729
 21
347.94658404193422
 31
0.0
  0
LINE
  5
6C
100
AcDbEntity
  8
0
  6
Continuous
 62
               7
100
AcDbLine
 10
416.96168716750753
 20
343.9647005870595
 30
0.0
 11
402.01929389065708
 21
352.01035041469709
 31
0.0
  0
LINE
  5
6D
100
AcDbEntity
  8
0
  6
Continuous
 62
               7
100
AcDbLine
 10
423.73463112211243
 20
345.99658377344099
 30
0.0
 11
408.79223784526175
 21
354.04223360107846
 31
0.0
  0
LINE
  5
6E
100
AcDbEntity
  8
0
  6
Continuous
 62
               7
100
AcDbLine
 10
430.5075750767171
 20
348.02846695982248
 30
0.0
 11
415.56518179986665
 21
356.07411678745996
 31
0.0
  0
LINE
  5
6F
100
AcDbEntity
  8
0
  6
Continuous
 62
               7
100
AcDbLine
 10
437.2805137671769
 20
350.06037298102285
 30
0.0
 11
422.33812575447155
 21
358.10599997384145
 31
0.0
  0
LINE
  5
70
100
AcDbEntity
  8
0
  6
Continuous
 62
               7
100
AcDbLine
 10
444.0534629859269
 20
352.09223333258535
 30
0.0
 11
429.11106970907622
 21
360.13788316022283
 31
0.0
  0
LINE
  5
71
100
AcDbEntity
  8
0
  6
Continuous
 62
               7
100
AcDbLine
 10
450.82640694053157
 20
354.12411651896684
 30
0.0
 11
435.88401366368112
 21
362.16976634660432
 31
0.0
  0
LINE
  5
72
100
AcDbEntity
  8
0
  6
Continuous
 62
               7
100
AcDbLine
 10
457.59935089513647
 20
356.15599970534822
 30
0.0
 11
442.6569576182859
 21
364.20164953298581
 31
0.0
  0
LINE
  5
73
100
AcDbEntity
  8
0
  6
Continuous
 62
               7
100
AcDbLine
 10
464.37229484974137
 20
358.18788289172971
 30
0.0
 11
449.42990157289091
 21
366.23353271936719
 31
0.0
  0
LINE
  5
74
100
AcDbEntity
  8
0
  6
Continuous
 62
               7
100
AcDbLine
 10
471.14523880434626
 20
360.21976607811109
 30
0.0
 11
456.20284552749558
 21
368.26541590574868
 31
0.0
  0
LINE
  5
75
100
AcDbEntity
  8
0
  6
Continuous
 62
               7
100
AcDbLine
 10
477.91818275895093
 20
362.25164926449258
 30
0.0
 11
462.97578948210048
 21
370.29729909213006
 31
0.0
  0
LINE
  5
76
100
AcDbEntity
  8
0
  6
Continuous
 62
               7
100
AcDbLine
 10
484.69112671355583
 20
364.28353245087408
 30
0.0
 11
469.74873343670538
 21
372.32918227851155
 31
0.0
  0
LINE
  5
77
100
AcDbEntity
  8
0
  6
Continuous
 62
               7
100
AcDbLine
 10
491.46407066816073
 20
366.31541563725546
 30
0.0
 11
476.52167739131005
 21
374.36106546489304
 31
0.0
  0
LINE
  5
78
100
AcDbEntity
  8
0
  6
Continuous
 62
               7
100
AcDbLine
 10
498.2370146227654
 20
368.34729882363695
 30
0.0
 11
483.29462134591495
 21
376.39294865127442
 31
0.0
  0
LINE
  5
79
100
AcDbEntity
  8
0
  6
Continuous
 62
               7
100
AcDbLine
 10
505.0099585773703
 20
370.37918201001833
 30
0.0
 11
490.06756530051985
 21
378.42483183765592
 31
0.0
  0
LINE
  5
7A
100
AcDbEntity
  8
0
  6
Continuous
 62
               7
100
AcDbLine
 10
511.7829025319752
 20
372.41106519639982
 30
0.0
 11
496.84050925512452
 21
380.45671502403729
 31
0.0
  0
LINE
  5
7B
100
AcDbEntity
  8
0
  6
Continuous
 62
               7
100
AcDbLine
 10
518.55584648657987
 20
374.44294838278131
 30
0.0
 11
503.61345320972941
 21
382.48859821041879
 31
0.0
  0
LINE
  5
7C
100
AcDbEntity
  8
0
  6
Continuous
 62
               7
100
AcDbLine
 10
525.32879044118476
 20
376.47483156916269
 30
0.0
 11
510.38639716433431
 21
384.52048139680028
 31
0.0
  0
LINE
  5
7D
100
AcDbEntity
  8
0
  6
Continuous
 62
               7
100
AcDbLine
 10
532.10173439578966
 20
378.50671475554418
 30
0.0
 11
517.15934111893898
 21
386.55236458318166
 31
0.0
  0
LINE
  5
7E
100
AcDbEntity
  8
0
  6
Continuous
 62
               7
100
AcDbLine
 10
538.87467835039433
 20
380.53859794192556
 30
0.0
 11
523.93228507354388
 21
388.58424776956315
 31
0.0
  0
LINE
  5
7F
100
AcDbEntity
  8
0
  6
Continuous
 62
               7
100
AcDbLine
 10
545.64762230499923
 20
382.57048112830705
 30
0.0
 11
530.70522902814878
 21
390.61613095594464
 31
0.0
  0
LINE
  5
80
100
AcDbEntity
  8
0
  6
Continuous
 62
               7
100
AcDbLine
 10
552.42056625960413
 20
384.60236431468854
 30
0.0
 11
537.47817298275368
 21
392.64801414232602
 31
0.0
  0
LINE
  5
81
100
AcDbEntity
  8
0
  6
Continuous
 62
               7
100
AcDbLine
 10
559.19351021420903
 20
386.63424750107004
 30
0.0
 11
544.25111693735835
 21
394.67989732870751
 31
0.0
  0
LINE
  5
82
100
AcDbEntity
  8
0
  6
Continuous
 62
               7
100
AcDbLine
 10
565.9664541688137
 20
388.66613068745141
 30
0.0
 11
551.02406089196325
 21
396.71178051508889
 31
0.0
  0
LINE
  5
83
100
AcDbEntity
  8
0
  6
Continuous
 62
               7
100
AcDbLine
 10
572.7393981234186
 20
390.69801387383291
 30
0.0
 11
557.79700484656814
 21
398.74366370147038
 31
0.0
  0
LINE
  5
84
100
AcDbEntity
  8
0
  6
Continuous
 62
               7
100
AcDbLine
 10
579.51234207802349
 20
392.72989706021428
 30
0.0
 11
564.56994880117304
 21
400.77554688785187
 31
0.0
  0
LINE
  5
85
100
AcDbEntity
  8
0
  6
Continuous
 62
               7
100
AcDbLine
 10
586.28528603262839
 20
394.76178024659578
 30
0.0
 11
571.34289275577771
 21
402.80743007423325
 31
0.0
  0
LINE
  5
86
100
AcDbEntity
  8
0
  6
Continuous
 62
               7
100
AcDbLine
 10
593.05822998723329
 20
396.79366343297727
 30
0.0
 11
578.11583671038284
 21
404.83931326061474
 31
0.0
  0
LINE
  5
87
100
AcDbEntity
  8
0
  6
Continuous
 62
               7
100
AcDbLine
 10
599.83117394183819
 20
398.82554661935865
 30
0.0
 11
584.88878066498751
 21
406.87119644699612
 31
0.0
  0
LINE
  5
88
100
AcDbEntity
  8
0
  6
Continuous
 62
               7
100
AcDbLine
 10
603.38027258712509
 20
402.59329165709619
 30
0.0
 11
591.66172461959241
 21
408.90307963337762
 31
0.0
  0
LINE
  5
89
100
AcDbEntity
  8
0
  6
Continuous
 62
               7
100
AcDbLine
 10
601.3484430035744
 20
409.36605693559852
 30
0.0
 11
598.4346685741973
 21
410.93496281975911
 31
0.0
  0
LINE
  5
8A
100
AcDbEntity
  8
0
  6
Continuous
 62
               7
100
AcDbLine
 10
435.15264974551928
 20
178.4619702770525
 30
0.0
 11
673.81903680920277
 21
250.06188639615698
 31
0.0
  0
LINE
  5
8B
100
AcDbEntity
  8
0
  6
Continuous
 62
               7
100
AcDbLine
 10
434.5061170029951
 20
180.61707941880007
 30
0.0
 11
673.81903583704229
 21
252.41095506901377
 31
0.0
  0
LINE
  5
8C
100
AcDbEntity
  8
0
  6
Continuous
 62
               7
100
AcDbLine
 10
433.85958426047091
 20
182.7721885605477
 30
0.0
 11
673.81903486488181
 21
254.76002374187044
 31
0.0
  0
LINE
  5
8D
100
AcDbEntity
  8
0
  6
Continuous
 62
               4
100
AcDbLine
 10
483.68099916767392
 20
148.26858507336811
 30
0.0
 11
514.37739827390897
 21
148.26858507336811
 31
0.0
  0
LINE
  5
8E
100
AcDbEntity
  8
0
  6
Continuous
 62
               7
100
AcDbLine
 10
640.46830164116045
 20
411.01668492915519
 30
0.0
 11
636.1317851677793
 21
413.35165847523763
 31
0.0
  0
LINE
  5
8F
100
AcDbEntity
  8
0
  6
Continuous
 62
               7
100
AcDbLine
 10
647.24124559576512
 20
413.04856811553668
 30
0.0
 11
634.09995558422861
 21
420.12442375373996
 31
0.0
  0
LINE
  5
90
100
AcDbEntity
  8
0
  6
Continuous
 62
               7
100
AcDbLine
 10
654.01418955037002
 20
415.08045130191806
 30
0.0
 11
639.07179627351957
 21
423.12610112955565
 31
0.0
  0
LINE
  5
91
100
AcDbEntity
  8
0
  6
Continuous
 62
               7
100
AcDbLine
 10
660.78659747666779
 20
417.11217367980737
 30
0.0
 11
645.84420419981711
 21
425.15782350744485
 31
0.0
  0
LINE
  5
92
100
AcDbEntity
  8
0
  6
Continuous
 62
               7
100
AcDbLine
 10
667.55954143127246
 20
419.14405686618886
 30
0.0
 11
652.61714815442178
 21
427.18970669382634
 31
0.0
  0
LINE
  5
93
100
AcDbEntity
  8
0
  6
Continuous
 62
               7
100
AcDbLine
 10
668.2156885919037
 20
424.4694957875389
 30
0.0
 11
659.39009210902691
 21
429.22158988020772
 31
0.0
  0
LINE
  5
94
100
AcDbEntity
  8
0
  6
Continuous
 62
               7
100
AcDbLine
 10
668.21568624194742
 20
430.14778538945177
 30
0.0
 11
666.16250003532446
 21
431.25331225809703
 31
0.0
  0
LINE
  5
95
100
AcDbEntity
  8
0
  6
Continuous
 62
               4
100
AcDbLine
 10
457.67617321651687
 20
193.31026486275761
 30
0.0
 11
483.68099916767392
 21
148.26858507336811
 31
0.0
  0
LINE
  5
96
100
AcDbEntity
  8
0
  6
Continuous
 62
               4
100
AcDbLine
 10
457.67617321651687
 20
193.31026486275761
 30
0.0
 11
463.46126170369575
 21
186.4158648746868
 31
0.0
  0
LINE
  5
97
100
AcDbEntity
  8
0
  6
Continuous
 62
               4
100
AcDbLine
 10
457.67617321651687
 20
193.31026486275761
 30
0.0
 11
460.75435450644795
 21
184.85303127568437
 31
0.0
  0
LINE
  5
98
100
AcDbEntity
  8
0
  6
Continuous
 62
               6
100
AcDbLine
 10
424.97574546504484
 20
241.96585298721482
 30
0.0
 11
426.41248489287659
 21
237.17672156110928
 31
0.0
  0
LINE
  5
99
100
AcDbEntity
  8
0
  6
Continuous
 62
               6
100
AcDbLine
 10
463.28879687389099
 20
253.45976840986862
 30
0.0
 11
464.72553630172274
 21
248.67063698376307
 31
0.0
  0
LINE
  5
9A
100
AcDbEntity
  8
0
  6
Continuous
 62
               4
100
AcDbLine
 10
604.42444019687696
 20
412.73189430656294
 30
0.0
 11
607.8726148236733
 21
401.23797888390914
 31
0.0
  0
LINE
  5
9B
100
AcDbEntity
  8
0
  6
DIVIDE
 62
               4
100
AcDbLine
 10
453.23162087906871
 20
193.02092981241412
 30
0.0
 11
431.20161631898213
 21
186.41192844438808
 31
0.0
  0
LINE
  5
9C
100
AcDbEntity
  8
0
  6
DIVIDE
 62
               4
100
AcDbLine
 10
453.23162087906871
 20
193.02092981241412
 30
0.0
 11
447.4846631677417
 21
212.17745551683709
 31
0.0
  0
LINE
  5
9D
100
AcDbEntity
  8
0
  6
DIVIDE
 62
               4
100
AcDbLine
 10
431.20161631898213
 20
186.41192844438808
 30
0.0
 11
425.45465860765535
 21
205.56845414881116
 31
0.0
  0
LINE
  5
9E
100
AcDbEntity
  8
0
  6
DIVIDE
 62
               4
100
AcDbLine
 10
426.09232967004095
 20
205.18293502567758
 30
0.0
 11
431.53685551880949
 21
187.03451552978191
 31
0.0
  0
LINE
  5
9F
100
AcDbEntity
  8
0
  6
DIVIDE
 62
               4
100
AcDbLine
 10
431.53685551880949
 20
187.03451552978191
 30
0.0
 11
452.60903379367483
 21
193.35616901224148
 31
0.0
  0
LINE
  5
A0
100
AcDbEntity
  8
0
  6
DIVIDE
 62
               4
100
AcDbLine
 10
452.60903379367483
 20
193.35616901224148
 30
0.0
 11
447.16450794490618
 21
211.5045885081372
 31
0.0
  0
LINE
  5
A1
100
AcDbEntity
  8
0
  6
DIVIDE
 62
               4
100
AcDbLine
 10
425.45465860765535
 20
205.56845414881116
 30
0.0
 11
430.38746397654427
 21
206.52628043403217
 31
0.0
  0
LINE
  5
A2
100
AcDbEntity
  8
0
  6
DIVIDE
 62
               4
100
AcDbLine
 10
426.09232967004095
 20
205.18293502567758
 30
0.0
 11
430.48277125409982
 21
206.03544795462096
 31
0.0
  0
LINE
  5
A3
100
AcDbEntity
  8
0
  6
DIVIDE
 62
               4
100
AcDbLine
 10
447.4846631677417
 20
212.17745551683709
 30
0.0
 11
442.83920568441931
 21
210.26180294639471
 31
0.0
  0
LINE
  5
A4
100
AcDbEntity
  8
0
  6
DIVIDE
 62
               4
100
AcDbLine
 10
447.16450794490618
 20
211.5045885081372
 30
0.0
 11
443.02982023953041
 21
209.79956265025021
 31
0.0
  0
LINE
  5
A5
100
AcDbEntity
  8
0
  6
DIVIDE
 62
               4
100
AcDbLine
 10
443.02982023953041
 20
209.79956265025021
 30
0.0
 11
442.83920568441931
 21
210.26180294639471
 31
0.0
  0
LINE
  5
A6
100
AcDbEntity
  8
0
  6
DIVIDE
 62
               4
100
AcDbLine
 10
430.48277125409982
 20
206.03544795462096
 30
0.0
 11
430.38746397654427
 21
206.52628043403217
 31
0.0
  0
LINE
  5
A7
100
AcDbEntity
  8
0
  6
Continuous
 62
               4
100
AcDbLine
 10
436.50012559218317
 20
336.08728772030804
 30
0.0
 11
467.77637158460516
 21
304.81104172788594
 31
0.0
  0
LINE
  5
A8
100
AcDbEntity
  8
0
  6
Continuous
 62
               4
100
AcDbLine
 10
436.50012559218317
 20
336.08728772030804
 30
0.0
 11
443.87249399078405
 21
330.92509979314866
 31
0.0
  0
LINE
  5
A9
100
AcDbEntity
  8
0
  6
Continuous
 62
               4
100
AcDbLine
 10
436.50012559218317
 20
336.08728772030804
 30
0.0
 11
441.66231351934255
 21
328.71491932170716
 31
0.0
  0
LINE
  5
AA
100
AcDbEntity
  8
0
  6
Continuous
 62
               4
100
AcDbLine
 10
467.77637158460516
 20
304.81104172788594
 30
0.0
 11
534.26899849945539
 21
304.81104172788594
 31
0.0
  0
LINE
  5
AB
100
AcDbEntity
  8
0
  6
Continuous
 62
               7
100
AcDbLine
 10
435.01152131517779
 20
205.45000017282325
 30
0.0
 11
440.32745719815466
 21
187.73021389623142
 31
0.0
  0
LINE
  5
AC
100
AcDbEntity
  8
0
  6
Continuous
 62
               7
100
AcDbLine
 10
438.50758725623427
 20
185.09619161187322
 30
0.0
 11
437.93289148510166
 21
187.01184418231549
 31
0.0
  0
LINE
  5
AD
100
AcDbEntity
  8
0
  6
Continuous
 62
               7
100
AcDbLine
 10
439.80065274128378
 20
206.88673960065478
 30
0.0
 11
445.11658862426054
 21
189.16695332406312
 31
0.0
  0
LINE
  5
AE
100
AcDbEntity
  8
0
  6
Continuous
 62
               7
100
AcDbLine
 10
448.08585010844604
 20
187.96967046753639
 30
0.0
 11
447.51115433731343
 21
189.88532303797911
 31
0.0
  0
LINE
  5
AF
100
AcDbEntity
  8
0
  6
Continuous
 62
               7
100
AcDbLine
 10
439.80065274128378
 20
206.88673960065478
 30
0.0
 11
436.97506519988133
 21
207.60510931457077
 31
0.0
  0
LINE
  5
B0
100
AcDbEntity
  8
0
  6
Continuous
 62
               7
100
AcDbLine
 10
435.01152131517779
 20
205.45000017282325
 30
0.0
 11
436.97506519988133
 21
207.60510931457077
 31
0.0
  0
LINE
  5
B1
100
AcDbEntity
  8
0
  6
Continuous
 62
               7
100
AcDbLine
 10
447.51115433731343
 20
189.88532303797911
 30
0.0
 11
437.93289148510166
 21
187.01184418231549
 31
0.0
  0
LINE
  5
B2
100
AcDbEntity
  8
0
  6
Continuous
 62
               7
100
AcDbLine
 10
439.17806565588944
 20
191.56151903711617
 30
0.0
 11
443.39250131086271
 21
194.9139110353903
 31
0.0
  0
LINE
  5
B3
100
AcDbEntity
  8
0
  6
Continuous
 62
               7
100
AcDbLine
 10
442.81780553972999
 20
196.82956360583262
 30
0.0
 11
438.60336988475683
 21
193.47717160755872
 31
0.0
  0
LINE
  5
B4
100
AcDbEntity
  8
0
  6
Continuous
 62
               7
100
AcDbLine
 10
438.02867411362422
 20
195.39282417800098
 30
0.0
 11
442.24310976859738
 21
198.74521617627488
 31
0.0
  0
LINE
  5
B5
100
AcDbEntity
  8
0
  6
Continuous
 62
               7
100
AcDbLine
 10
441.66841399746477
 20
200.6608687467172
 30
0.0
 11
437.45397834249161
 21
197.30847674844341
 31
0.0
  0
LINE
  5
B6
100
AcDbEntity
  8
0
  6
Continuous
 62
               7
100
AcDbLine
 10
441.09371822633216
 20
202.57652131715952
 30
0.0
 11
438.56505683334808
 21
200.56508611819527
 31
0.0
  0
LINE
  5
B7
100
AcDbEntity
  8
0
  6
Continuous
 62
               7
100
AcDbLine
 10
435.63410840057168
 20
205.11476097299567
 30
0.0
 11
437.30072613685616
 21
199.55936851871309
 31
0.0
  0
LINE
  5
B8
100
AcDbEntity
  8
0
  6
Continuous
 62
               7
100
AcDbLine
 10
435.01152131517779
 20
205.45000017282325
 30
0.0
 11
435.63410840057168
 21
205.11476097299567
 31
0.0
  0
LINE
  5
B9
100
AcDbEntity
  8
0
  6
Continuous
 62
               7
100
AcDbLine
 10
437.30072613685616
 20
199.5593685187132
 30
0.0
 11
437.86105451371054
 21
199.25765323886839
 31
0.0
  0
LINE
  5
BA
100
AcDbEntity
  8
0
  6
Continuous
 62
               7
100
AcDbLine
 10
438.56505683334808
 20
200.56508611819527
 30
0.0
 11
437.86105451371054
 21
199.25765323886839
 31
0.0
  0
LINE
  5
BB
100
AcDbEntity
  8
0
  6
Continuous
 62
               7
100
AcDbLine
 10
437.30072613685616
 20
199.55936851871309
 30
0.0
 11
436.87928257135877
 21
199.22412931888562
 31
0.0
  0
LINE
  5
BC
100
AcDbEntity
  8
0
  6
Continuous
 62
               3
100
AcDbLine
 10
377.46756171807579
 20
365.52544378074379
 30
0.0
 11
374.01938709127967
 21
377.01935920339758
 31
0.0
  0
LINE
  5
BD
100
AcDbEntity
  8
0
  6
Continuous
 62
               7
100
AcDbLine
 10
592.8021781411328
 20
437.85360647707068
 30
0.0
 11
587.83957211072448
 21
428.63704689853842
 31
0.0
  0
LINE
  5
BE
100
AcDbEntity
  8
0
  6
Continuous
 62
               7
100
AcDbLine
 10
589.11224440867863
 20
441.54721639861725
 30
0.0
 11
581.06680683222226
 21
426.6052173149875
 31
0.0
  0
LINE
  5
BF
100
AcDbEntity
  8
0
  6
Continuous
 62
               7
100
AcDbLine
 10
582.33947913017641
 20
439.51538681506656
 30
0.0
 11
574.29404155371981
 21
424.57338773143681
 31
0.0
  0
LINE
  5
C0
100
AcDbEntity
  8
0
  6
Continuous
 62
               7
100
AcDbLine
 10
575.56671385167397
 20
437.48355723151587
 30
0.0
 11
567.52127627521736
 21
422.54155814788612
 31
0.0
  0
LINE
  5
C1
100
AcDbEntity
  8
0
  6
Continuous
 62
               7
100
AcDbLine
 10
568.79394857317152
 20
435.45172764796519
 30
0.0
 11
560.74851099671491
 21
420.50972856433543
 31
0.0
  0
LINE
  5
C2
100
AcDbEntity
  8
0
  6
Continuous
 62
               7
100
AcDbLine
 10
562.02118329466907
 20
433.4198980644145
 30
0.0
 11
553.97574571821247
 21
418.47789898078474
 31
0.0
  0
LINE
  5
C3
100
AcDbEntity
  8
0
  6
Continuous
 62
               7
100
AcDbLine
 10
555.24841801616662
 20
431.38806848086358
 30
0.0
 11
547.20298043971002
 21
416.44606939723406
 31
0.0
  0
LINE
  5
C4
100
AcDbEntity
  8
0
  6
Continuous
 62
               7
100
AcDbLine
 10
548.47565273766418
 20
429.35623889731289
 30
0.0
 11
540.4302151612078
 21
414.41423981368337
 31
0.0
  0
LINE
  5
C5
100
AcDbEntity
  8
0
  6
Continuous
 62
               7
100
AcDbLine
 10
541.70288745916196
 20
427.3244093137622
 30
0.0
 11
533.65744988270535
 21
412.38241023013268
 31
0.0
  0
LINE
  5
C6
100
AcDbEntity
  8
0
  6
Continuous
 62
               7
100
AcDbLine
 10
534.93012218065951
 20
425.29257973021151
 30
0.0
 11
526.8846846042029
 21
410.35058064658199
 31
0.0
  0
LINE
  5
C7
100
AcDbEntity
  8
0
  6
Continuous
 62
               7
100
AcDbLine
 10
528.15735690215729
 20
423.26075014666083
 30
0.0
 11
520.11191932570068
 21
408.3187510630313
 31
0.0
  0
LINE
  5
C8
100
AcDbEntity
  8
0
  6
Continuous
 62
               7
100
AcDbLine
 10
521.38459162365484
 20
421.22892056311014
 30
0.0
 11
513.33915404719824
 21
406.28692147948061
 31
0.0
  0
LINE
  5
C9
100
AcDbEntity
  8
0
  6
Continuous
 62
               7
100
AcDbLine
 10
514.61182634515239
 20
419.19709097955945
 30
0.0
 11
506.56638876869602
 21
404.2550918959297
 31
0.0
  0
LINE
  5
CA
100
AcDbEntity
  8
0
  6
Continuous
 62
               7
100
AcDbLine
 10
507.83906106665017
 20
417.16526139600876
 30
0.0
 11
499.79362349019357
 21
402.22326231237901
 31
0.0
  0
LINE
  5
CB
100
AcDbEntity
  8
0
  6
Continuous
 62
               7
100
AcDbLine
 10
501.06629578814773
 20
415.13343181245807
 30
0.0
 11
493.02085821169112
 21
400.19143272882832
 31
0.0
  0
LINE
  5
CC
100
AcDbEntity
  8
0
  6
Continuous
 62
               7
100
AcDbLine
 10
494.29353050964528
 20
413.10160222890738
 30
0.0
 11
486.2480929331889
 21
398.15960314527763
 31
0.0
  0
LINE
  5
CD
100
AcDbEntity
  8
0
  6
Continuous
 62
               7
100
AcDbLine
 10
487.52076523114306
 20
411.06977264535669
 30
0.0
 11
479.47532765468645
 21
396.12777356172694
 31
0.0
  0
LINE
  5
CE
100
AcDbEntity
  8
0
  6
Continuous
 62
               7
100
AcDbLine
 10
480.74799995264061
 20
409.03794306180578
 30
0.0
 11
472.70256237618401
 21
394.09594397817625
 31
0.0
  0
LINE
  5
CF
100
AcDbEntity
  8
0
  6
Continuous
 62
               7
100
AcDbLine
 10
473.97523467413816
 20
407.00611347825509
 30
0.0
 11
465.92979709768179
 21
392.06411439462556
 31
0.0
  0
LINE
  5
D0
100
AcDbEntity
  8
0
  6
Continuous
 62
               7
100
AcDbLine
 10
467.20246939563594
 20
404.9742838947044
 30
0.0
 11
459.15703181917934
 21
390.03228481107487
 31
0.0
  0
LINE
  5
D1
100
AcDbEntity
  8
0
  6
Continuous
 62
               7
100
AcDbLine
 10
460.4297041171335
 20
402.94245431115371
 30
0.0
 11
452.38426654067689
 21
388.00045522752418
 31
0.0
  0
LINE
  5
D2
100
AcDbEntity
  8
0
  6
Continuous
 62
               7
100
AcDbLine
 10
453.65693883863128
 20
400.91062472760302
 30
0.0
 11
445.61150126217467
 21
385.9686256439735
 31
0.0
  0
LINE
  5
D3
100
AcDbEntity
  8
0
  6
Continuous
 62
               7
100
AcDbLine
 10
446.88417356012883
 20
398.87879514405233
 30
0.0
 11
438.83873598367222
 21
383.93679606042281
 31
0.0
  0
LINE
  5
D4
100
AcDbEntity
  8
0
  6
Continuous
 62
               7
100
AcDbLine
 10
440.11140828162638
 20
396.84696556050164
 30
0.0
 11
432.06597070517
 21
381.90496647687189
 31
0.0
  0
LINE
  5
D5
100
AcDbEntity
  8
0
  6
Continuous
 62
               7
100
AcDbLine
 10
433.33864300312416
 20
394.81513597695096
 30
0.0
 11
425.29320542666756
 21
379.8731368933212
 31
0.0
  0
LINE
  5
D6
100
AcDbEntity
  8
0
  6
Continuous
 62
               7
100
AcDbLine
 10
426.56587772462171
 20
392.78330639340027
 30
0.0
 11
418.52044014816511
 21
377.84130730977051
 31
0.0
  0
LINE
  5
D7
100
AcDbEntity
  8
0
  6
Continuous
 62
               7
100
AcDbLine
 10
419.79311244611927
 20
390.75147680984958
 30
0.0
 11
411.74767486966289
 21
375.80947772621982
 31
0.0
  0
LINE
  5
D8
100
AcDbEntity
  8
0
  6
Continuous
 62
               7
100
AcDbLine
 10
413.02034716761705
 20
388.71964722629889
 30
0.0
 11
404.97490959116044
 21
373.77764814266914
 31
0.0
  0
LINE
  5
D9
100
AcDbEntity
  8
0
  6
Continuous
 62
               7
100
AcDbLine
 10
406.2475818891146
 20
386.68781764274797
 30
0.0
 11
398.20214431265799
 21
371.74581855911845
 31
0.0
  0
LINE
  5
DA
100
AcDbEntity
  8
0
  6
Continuous
 62
               7
100
AcDbLine
 10
399.47481661061238
 20
384.65598805919728
 30
0.0
 11
391.42937903415577
 21
369.71398897556776
 31
0.0
  0
LINE
  5
DB
100
AcDbEntity
  8
0
  6
Continuous
 62
               7
100
AcDbLine
 10
392.70205133210993
 20
382.6241584756466
 30
0.0
 11
384.65661375565332
 21
367.68215939201707
 31
0.0
  0
LINE
  5
DC
100
AcDbEntity
  8
0
  6
Continuous
 62
               7
100
AcDbLine
 10
385.92928605360748
 20
380.59232889209591
 30
0.0
 11
377.8838484771511
 21
365.65032980846638
 31
0.0
  0
LINE
  5
DD
100
AcDbEntity
  8
0
  6
Continuous
 62
               7
100
AcDbLine
 10
379.15652077510526
 20
378.56049930854522
 30
0.0
 11
375.56056785410487
 21
371.88208999398
 31
0.0
  0
LINE
  5
DE
100
AcDbEntity
  8
0
  6
Continuous
 62
               2
100
AcDbLine
 10
372.23783020076826
 20
377.73772891731358
 30
0.0
 11
463.23132729677764
 21
405.03577804611621
 31
0.0
  0
LINE
  5
DF
100
AcDbEntity
  8
0
  6
Continuous
 62
               7
100
AcDbLine
 10
359.65199281296236
 20
372.70914091990255
 30
0.0
 11
374.01938709127967
 21
377.01935920339758
 31
0.0
  0
LINE
  5
E0
100
AcDbEntity
  8
0
  6
DASHED
 62
               6
100
AcDbLine
 10
443.73001529980797
 20
400.43818935682009
 30
0.0
 11
373.32975216592035
 21
379.31814228792825
 31
0.0
  0
LINE
  5
E1
100
AcDbEntity
  8
0
  6
Continuous
 62
               2
100
AcDbLine
 10
443.38516666699547
 20
401.58760341932009
 30
0.0
 11
325.811990156099
 21
366.31565046605112
 31
0.0
  0
LINE
  5
E2
100
AcDbEntity
  8
0
  6
Continuous
 62
               2
100
AcDbLine
 10
346.55685539606543
 20
369.34535993083375
 30
0.0
 11
327.08589911544323
 21
362.93931281064681
 31
0.0
  0
LINE
  5
E3
100
AcDbEntity
  8
0
  6
Continuous
 62
               2
100
AcDbLine
 10
361.5112519920317
 20
342.56920840421651
 30
0.0
 11
360.96393490472724
 21
333.07918178771945
 31
0.0
  0
LINE
  5
E4
100
AcDbEntity
  8
0
  6
Continuous
 62
               4
100
AcDbLine
 10
322.39255031785956
 20
369.8835533785001
 30
0.0
 11
315.20885532375837
 21
393.82920335883762
 31
0.0
  0
LINE
  5
E5
100
AcDbEntity
  8
0
  6
Continuous
 62
               4
100
AcDbLine
 10
339.15451245428721
 20
401.01290049799616
 30
0.0
 11
346.3382074483884
 21
377.06725051765864
 31
0.0
  0
LINE
  5
E6
100
AcDbEntity
  8
0
  6
Continuous
 62
               4
100
AcDbLine
 10
316.07089898045729
 20
390.95572450317411
 30
0.0
 11
340.01655611098613
 21
398.13942164233288
 31
0.0
  0
LINE
  5
E7
100
AcDbEntity
  8
0
  6
Continuous
 62
               4
100
AcDbLine
 10
312.85260825613977
 20
318.16093629828254
 30
0.0
 11
354.71516092284878
 21
330.71970209829533
 31
0.0
  0
LINE
  5
E8
100
AcDbEntity
  8
0
  6
Continuous
 62
               4
100
AcDbLine
 10
304.23217168914948
 20
357.33603136382783
 30
0.0
 11
315.72608711180328
 21
319.02297995498168
 31
0.0
  0
LINE
  5
E9
100
AcDbEntity
  8
0
  6
Continuous
 62
               4
100
AcDbLine
 10
320.13208028473764
 20
362.10600394250434
 30
0.0
 11
301.35869283348597
 21
356.47398770712869
 31
0.0
  0
LINE
  5
EA
100
AcDbEntity
  8
0
  6
Continuous
 62
               7
100
AcDbLine
 10
643.29436663669821
 20
457.80185306702299
 30
0.0
 11
635.24892906024184
 21
442.85985398339324
 31
0.0
  0
LINE
  5
EB
100
AcDbEntity
  8
0
  6
Continuous
 62
               7
100
AcDbLine
 10
636.52160135819599
 20
455.7700234834723
 30
0.0
 11
628.47616378173916
 21
440.82802439984255
 31
0.0
  0
LINE
  5
EC
100
AcDbEntity
  8
0
  6
Continuous
 62
               7
100
AcDbLine
 10
629.74883607969332
 20
453.73819389992161
 30
0.0
 11
626.0671271771339
 21
446.90051844405605
 31
0.0
  0
LINE
  5
ED
100
AcDbEntity
  8
0
  6
Continuous
 62
               7
100
AcDbLine
 10
656.83989719370334
 20
461.86551223412437
 30
0.0
 11
648.7944596172465
 21
446.92351315049484
 31
0.0
  0
LINE
  5
EE
100
AcDbEntity
  8
0
  6
Continuous
 62
               7
100
AcDbLine
 10
650.06713191520066
 20
459.83368265057368
 30
0.0
 11
642.02169433874428
 21
444.89168356694415
 31
0.0
  0
LINE
  5
EF
100
AcDbEntity
  8
0
  6
Continuous
 62
               4
100
AcDbLine
 10
595.22930785875405
 20
443.3823354336397
 30
0.0
 11
598.67748248555017
 21
431.8884200109859
 31
0.0
  0
LINE
  5
F0
100
AcDbEntity
  8
0
  6
Continuous
 62
               4
100
AcDbLine
 10
595.22931795612703
 20
443.38233846285164
 30
0.0
 11
593.79257852829528
 21
448.1714698889574
 31
0.0
  0
LINE
  5
F1
100
AcDbEntity
  8
0
  6
Continuous
 62
               4
100
AcDbLine
 10
593.79257852829528
 20
448.1714698889574
 30
0.0
 11
592.09722822571075
 21
453.82263756423879
 31
0.0
  0
LINE
  5
F2
100
AcDbEntity
  8
0
  6
Continuous
 62
               2
100
AcDbLine
 10
348.03355997322979
 20
371.41607543485395
 30
0.0
 11
326.24301198444869
 21
364.87891103821937
 31
0.0
  0
LINE
  5
F3
100
AcDbEntity
  8
0
  6
DASHED
 62
               6
100
AcDbLine
 10
443.72998412967513
 20
400.43821187705464
 30
0.0
 11
468.39974637573278
 21
407.42152829051554
 31
0.0
  0
LINE
  5
F4
100
AcDbEntity
  8
0
  6
Continuous
 62
               7
100
AcDbLine
 10
399.70604150905797
 20
348.88930717330334
 30
0.0
 11
389.3615176286703
 21
383.37105344126496
 31
0.0
  0
LINE
  5
F5
100
AcDbEntity
  8
0
  6
Continuous
 62
               7
100
AcDbLine
 10
386.24858220170154
 20
385.04724944040197
 30
0.0
 11
386.39225614448492
 21
384.56833629779146
 31
0.0
  0
LINE
  5
F6
100
AcDbEntity
  8
0
  6
Continuous
 62
               7
100
AcDbLine
 10
404.49517293516374
 20
350.32604660113486
 30
0.0
 11
394.15064905477607
 21
384.80779286909649
 31
0.0
  0
LINE
  5
F7
100
AcDbEntity
  8
0
  6
Continuous
 62
               7
100
AcDbLine
 10
395.8268450539133
 20
387.92072829606525
 30
0.0
 11
395.97051899669623
 21
387.44181515345474
 31
0.0
  0
LINE
  5
F8
100
AcDbEntity
  8
0
  6
Continuous
 62
               7
100
AcDbLine
 10
386.24858220170154
 20
385.04724944040197
 30
0.0
 11
395.8268450539133
 21
387.92072829606525
 31
0.0
  0
LINE
  5
F9
100
AcDbEntity
  8
0
  6
Continuous
 62
               7
100
AcDbLine
 10
389.3615176286703
 20
383.37105344126496
 30
0.0
 11
394.15064905477607
 21
384.80779286909649
 31
0.0
  0
LINE
  5
FA
100
AcDbEntity
  8
0
  6
Continuous
 62
               7
100
AcDbLine
 10
386.39225614448492
 20
384.56833629779146
 30
0.0
 11
389.3615176286703
 21
383.37105344126496
 31
0.0
  0
LINE
  5
FB
100
AcDbEntity
  8
0
  6
Continuous
 62
               7
100
AcDbLine
 10
394.15064905477607
 20
384.80779286909649
 30
0.0
 11
395.97051899669646
 21
387.44181515345474
 31
0.0
  0
LINE
  5
FC
100
AcDbEntity
  8
0
  6
Continuous
 62
               7
100
AcDbLine
 10
386.39225614448492
 20
384.56833629779146
 30
0.0
 11
395.97051899669646
 21
387.44181515345451
 31
0.0
  0
LINE
  5
FD
100
AcDbEntity
  8
0
  6
Continuous
 62
               7
100
AcDbLine
 10
399.70604150905797
 20
348.88930717330334
 30
0.0
 11
402.53162905046042
 21
348.17093745938735
 31
0.0
  0
LINE
  5
FE
100
AcDbEntity
  8
0
  6
Continuous
 62
               7
100
AcDbLine
 10
404.49517293516374
 20
350.32604660113486
 30
0.0
 11
402.53162905046042
 21
348.17093745938735
 31
0.0
  0
LINE
  5
FF
100
AcDbEntity
  8
0
  6
Continuous
 62
               7
100
AcDbLine
 10
391.37295282763466
 20
376.66626944471693
 30
0.0
 11
395.58738848260759
 21
380.01866144299072
 31
0.0
  0
LINE
  5
100
100
AcDbEntity
  8
0
  6
Continuous
 62
               7
100
AcDbLine
 10
391.94764859876727
 20
374.75061687427444
 30
0.0
 11
396.16208425374043
 21
378.10300887254846
 31
0.0
  0
LINE
  5
101
100
AcDbEntity
  8
0
  6
Continuous
 62
               7
100
AcDbLine
 10
392.52234436989988
 20
372.83496430383218
 30
0.0
 11
396.73678002487304
 21
376.1873563021062
 31
0.0
  0
LINE
  5
102
100
AcDbEntity
  8
0
  6
Continuous
 62
               7
100
AcDbLine
 10
393.09704014103249
 20
370.91931173338992
 30
0.0
 11
397.31147579600565
 21
374.27170373166393
 31
0.0
  0
LINE
  5
103
100
AcDbEntity
  8
0
  6
Continuous
 62
               7
100
AcDbLine
 10
393.6717359121651
 20
369.00365916294766
 30
0.0
 11
397.88617156713826
 21
372.35605116122167
 31
0.0
  0
LINE
  5
104
100
AcDbEntity
  8
0
  6
Continuous
 62
               7
100
AcDbLine
 10
394.24643168329771
 20
367.08800659250539
 30
0.0
 11
398.46086733827087
 21
370.44039859077918
 31
0.0
  0
LINE
  5
105
100
AcDbEntity
  8
0
  6
Continuous
 62
               7
100
AcDbLine
 10
394.82112745443033
 20
365.1723540220629
 30
0.0
 11
399.03556310940348
 21
368.52474602033692
 31
0.0
  0
LINE
  5
106
100
AcDbEntity
  8
0
  6
Continuous
 62
               7
100
AcDbLine
 10
395.39582322556294
 20
363.25670145162064
 30
0.0
 11
399.61025888053609
 21
366.60909344989466
 31
0.0
  0
LINE
  5
107
100
AcDbEntity
  8
0
  6
Continuous
 62
               7
100
AcDbLine
 10
395.97051899669577
 20
361.34104888117838
 30
0.0
 11
400.1849546516687
 21
364.6934408794524
 31
0.0
  0
LINE
  5
108
100
AcDbEntity
  8
0
  6
Continuous
 62
               7
100
AcDbLine
 10
396.54521476782816
 20
359.42539631073612
 30
0.0
 11
400.75965042280131
 21
362.77778830901013
 31
0.0
  0
LINE
  5
109
100
AcDbEntity
  8
0
  6
Continuous
 62
               7
100
AcDbLine
 10
397.11991053896099
 20
357.50974374029386
 30
0.0
 11
401.33434619393415
 21
360.86213573856764
 31
0.0
  0
LINE
  5
10A
100
AcDbEntity
  8
0
  6
Continuous
 62
               7
100
AcDbLine
 10
397.6946063100936
 20
355.59409116985159
 30
0.0
 11
400.22326770307745
 21
357.60552636881596
 31
0.0
  0
LINE
  5
10B
100
AcDbEntity
  8
0
  6
Continuous
 62
               7
100
AcDbLine
 10
403.87258584977008
 20
350.66128580096245
 30
0.0
 11
401.48759839956938
 21
358.61124396829803
 31
0.0
  0
LINE
  5
10C
100
AcDbEntity
  8
0
  6
Continuous
 62
               7
100
AcDbLine
 10
400.22326770307745
 20
357.60552636881596
 30
0.0
 11
400.92727002271522
 21
358.91295924814278
 31
0.0
  0
LINE
  5
10D
100
AcDbEntity
  8
0
  6
Continuous
 62
               7
100
AcDbLine
 10
401.48759839956938
 20
358.61124396829803
 30
0.0
 11
400.92727002271522
 21
358.91295924814278
 31
0.0
  0
LINE
  5
10E
100
AcDbEntity
  8
0
  6
Continuous
 62
               7
100
AcDbLine
 10
401.48759839956938
 20
358.61124396829803
 30
0.0
 11
401.90904196506676
 21
358.94648316812538
 31
0.0
  0
LINE
  5
10F
100
AcDbEntity
  8
0
  6
Continuous
 62
               7
100
AcDbLine
 10
404.49517293516374
 20
350.32604660113486
 30
0.0
 11
403.87258584977008
 21
350.66128580096245
 31
0.0
  0
LINE
  5
110
100
AcDbEntity
  8
0
  6
Continuous
 62
               7
100
AcDbLine
 10
419.2766901859361
 20
352.46172716987633
 30
0.0
 11
408.93216630554866
 21
386.94347343783795
 31
0.0
  0
LINE
  5
111
100
AcDbEntity
  8
0
  6
Continuous
 62
               7
100
AcDbLine
 10
405.8192308785799
 20
388.61966943697519
 30
0.0
 11
405.96290482136305
 21
388.14075629436445
 31
0.0
  0
LINE
  5
112
100
AcDbEntity
  8
0
  6
Continuous
 62
               7
100
AcDbLine
 10
424.06582161204187
 20
353.89846659770808
 30
0.0
 11
413.72129773165443
 21
388.38021286566971
 31
0.0
  0
LINE
  5
113
100
AcDbEntity
  8
0
  6
Continuous
 62
               7
100
AcDbLine
 10
415.39749373079144
 20
391.49314829263824
 30
0.0
 11
415.54116767357459
 21
391.01423515002773
 31
0.0
  0
LINE
  5
114
100
AcDbEntity
  8
0
  6
Continuous
 62
               7
100
AcDbLine
 10
405.8192308785799
 20
388.61966943697519
 30
0.0
 11
415.39749373079144
 21
391.49314829263824
 31
0.0
  0
LINE
  5
115
100
AcDbEntity
  8
0
  6
Continuous
 62
               7
100
AcDbLine
 10
408.93216630554866
 20
386.94347343783795
 30
0.0
 11
413.72129773165443
 21
388.38021286566971
 31
0.0
  0
LINE
  5
116
100
AcDbEntity
  8
0
  6
Continuous
 62
               7
100
AcDbLine
 10
405.96290482136305
 20
388.14075629436445
 30
0.0
 11
408.93216630554866
 21
386.94347343783795
 31
0.0
  0
LINE
  5
117
100
AcDbEntity
  8
0
  6
Continuous
 62
               7
100
AcDbLine
 10
413.72129773165443
 20
388.38021286566971
 30
0.0
 11
415.54116767357459
 21
391.01423515002773
 31
0.0
  0
LINE
  5
118
100
AcDbEntity
  8
0
  6
Continuous
 62
               7
100
AcDbLine
 10
405.96290482136305
 20
388.14075629436445
 30
0.0
 11
415.54116767357459
 21
391.01423515002773
 31
0.0
  0
LINE
  5
119
100
AcDbEntity
  8
0
  6
Continuous
 62
               7
100
AcDbLine
 10
419.2766901859361
 20
352.46172716987633
 30
0.0
 11
422.10227772733856
 21
351.74335745596034
 31
0.0
  0
LINE
  5
11A
100
AcDbEntity
  8
0
  6
Continuous
 62
               7
100
AcDbLine
 10
424.06582161204187
 20
353.89846659770808
 30
0.0
 11
422.10227772733856
 21
351.74335745596034
 31
0.0
  0
LINE
  5
11B
100
AcDbEntity
  8
0
  6
Continuous
 62
               7
100
AcDbLine
 10
410.9436015045128
 20
380.23868944128992
 30
0.0
 11
415.15803715948596
 21
383.59108143956371
 31
0.0
  0
LINE
  5
11C
100
AcDbEntity
  8
0
  6
Continuous
 62
               7
100
AcDbLine
 10
411.51829727564541
 20
378.32303687084766
 30
0.0
 11
415.73273293061857
 21
381.67542886912145
 31
0.0
  0
LINE
  5
11D
100
AcDbEntity
  8
0
  6
Continuous
 62
               7
100
AcDbLine
 10
412.09299304677825
 20
376.40738430040517
 30
0.0
 11
416.30742870175118
 21
379.75977629867918
 31
0.0
  0
LINE
  5
11E
100
AcDbEntity
  8
0
  6
Continuous
 62
               7
100
AcDbLine
 10
412.66768881791063
 20
374.49173172996291
 30
0.0
 11
416.88212447288379
 21
377.84412372823692
 31
0.0
  0
LINE
  5
11F
100
AcDbEntity
  8
0
  6
Continuous
 62
               7
100
AcDbLine
 10
413.24238458904347
 20
372.57607915952065
 30
0.0
 11
417.45682024401663
 21
375.92847115779466
 31
0.0
  0
LINE
  5
120
100
AcDbEntity
  8
0
  6
Continuous
 62
               7
100
AcDbLine
 10
413.81708036017608
 20
370.66042658907838
 30
0.0
 11
418.03151601514901
 21
374.0128185873524
 31
0.0
  0
LINE
  5
121
100
AcDbEntity
  8
0
  6
Continuous
 62
               7
100
AcDbLine
 10
414.39177613130869
 20
368.74477401863612
 30
0.0
 11
418.60621178628185
 21
372.09716601690991
 31
0.0
  0
LINE
  5
122
100
AcDbEntity
  8
0
  6
Continuous
 62
               7
100
AcDbLine
 10
414.9664719024413
 20
366.82912144819363
 30
0.0
 11
419.18090755741446
 21
370.18151344646765
 31
0.0
  0
LINE
  5
123
100
AcDbEntity
  8
0
  6
Continuous
 62
               7
100
AcDbLine
 10
415.54116767357391
 20
364.91346887775137
 30
0.0
 11
419.75560332854707
 21
368.26586087602539
 31
0.0
  0
LINE
  5
124
100
AcDbEntity
  8
0
  6
Continuous
 62
               7
100
AcDbLine
 10
416.11586344470652
 20
362.99781630730911
 30
0.0
 11
420.33029909967968
 21
366.35020830558312
 31
0.0
  0
LINE
  5
125
100
AcDbEntity
  8
0
  6
Continuous
 62
               7
100
AcDbLine
 10
416.69055921583913
 20
361.08216373686685
 30
0.0
 11
420.90499487081229
 21
364.43455573514063
 31
0.0
  0
LINE
  5
126
100
AcDbEntity
  8
0
  6
Continuous
 62
               7
100
AcDbLine
 10
417.26525498697174
 20
359.16651116642458
 30
0.0
 11
419.79391637995582
 21
361.17794636538895
 31
0.0
  0
LINE
  5
127
100
AcDbEntity
  8
0
  6
Continuous
 62
               7
100
AcDbLine
 10
423.44323452664821
 20
354.23370579753544
 30
0.0
 11
421.05824707644774
 21
362.18366396487102
 31
0.0
  0
LINE
  5
128
100
AcDbEntity
  8
0
  6
Continuous
 62
               7
100
AcDbLine
 10
419.79391637995582
 20
361.17794636538895
 30
0.0
 11
420.49791869959336
 21
362.48537924471577
 31
0.0
  0
LINE
  5
129
100
AcDbEntity
  8
0
  6
Continuous
 62
               7
100
AcDbLine
 10
421.05824707644774
 20
362.18366396487102
 30
0.0
 11
420.49791869959336
 21
362.48537924471577
 31
0.0
  0
LINE
  5
12A
100
AcDbEntity
  8
0
  6
Continuous
 62
               7
100
AcDbLine
 10
421.05824707644774
 20
362.18366396487102
 30
0.0
 11
421.4796906419449
 21
362.51890316469837
 31
0.0
  0
LINE
  5
12B
100
AcDbEntity
  8
0
  6
Continuous
 62
               7
100
AcDbLine
 10
424.06582161204187
 20
353.89846659770808
 30
0.0
 11
423.44323452664821
 21
354.23370579753544
 31
0.0
  0
LINE
  5
12C
100
AcDbEntity
  8
0
  6
Continuous
 62
               4
100
AcDbLine
 10
207.9113281836419
 20
422.01091140782012
 30
0.0
 11
338.28708128147696
 21
422.01091140782012
 31
0.0
  0
LINE
  5
12D
100
AcDbEntity
  8
0
  6
Continuous
 62
               4
100
AcDbLine
 10
368.43203701521952
 20
369.79831648506331
 30
0.0
 11
338.28708128147696
 21
422.01091140782012
 31
0.0
  0
LINE
  5
12E
100
AcDbEntity
  8
0
  6
Continuous
 62
               4
100
AcDbLine
 10
368.43203701521952
 20
369.79831648506331
 30
0.0
 11
362.64694852804064
 21
376.69271647313406
 31
0.0
  0
LINE
  5
12F
100
AcDbEntity
  8
0
  6
Continuous
 62
               4
100
AcDbLine
 10
368.43203701521952
 20
369.79831648506331
 30
0.0
 11
365.35385572528844
 21
378.25555007213654
 31
0.0
  0
LINE
  5
130
100
AcDbEntity
  8
0
  6
Continuous
 62
               7
100
AcDbLine
 10
410.18874321290264
 20
341.93281740067789
 30
0.0
 11
395.24634993605218
 21
349.97846722831548
 31
0.0
  0
LINE
  5
131
100
AcDbEntity
  8
0
  6
Continuous
 62
               2
100
AcDbLine
 10
372.23783020076826
 20
377.73772891731346
 30
0.0
 11
439.96572682875558
 21
151.97807349068768
 31
0.0
  0
LINE
  5
132
100
AcDbEntity
  8
0
  6
Continuous
 62
               4
100
AcDbLine
 10
604.42444019687696
 20
412.73189430656282
 30
0.0
 11
598.6774824855504
 21
431.88842001098612
 31
0.0
  0
LINE
  5
133
100
AcDbEntity
  8
0
  6
Continuous
 62
               4
100
AcDbLine
 10
611.03345231356275
 20
453.34373202453742
 30
0.0
 11
625.11349870631261
 21
406.41024404870052
 31
0.0
  0
LINE
  5
134
100
AcDbEntity
  8
0
  6
Continuous
 62
               4
100
AcDbLine
 10
534.5663586069636
 20
412.65508284741361
 30
0.0
 11
559.47034740171466
 21
399.2456664680177
 31
0.0
  0
LINE
  5
135
100
AcDbEntity
  8
0
  6
Continuous
 62
               4
100
AcDbLine
 10
540.31331631829039
 20
393.49855714299076
 30
0.0
 11
553.72338969038765
 21
418.402192172441
 31
0.0
  0
LINE
  5
136
100
AcDbEntity
  8
0
  6
Continuous
 62
               4
100
AcDbLine
 10
548.1122465161734
 20
416.71884922017659
 30
0.0
 11
573.01623531092446
 21
403.30943284078069
 31
0.0
  0
LINE
  5
137
100
AcDbEntity
  8
0
  6
Continuous
 62
               4
100
AcDbLine
 10
553.85920422750019
 20
397.56232351575375
 30
0.0
 11
567.26927759959744
 21
422.46595854520399
 31
0.0
  0
LINE
  5
138
100
AcDbEntity
  8
0
  6
Continuous
 62
               4
100
AcDbLine
 10
561.6581344253832
 20
420.78261559293958
 30
0.0
 11
586.56212322013425
 21
407.37319921354367
 31
0.0
  0
LINE
  5
139
100
AcDbEntity
  8
0
  6
Continuous
 62
               4
100
AcDbLine
 10
567.40509213670998
 20
401.62608988851673
 30
0.0
 11
580.81516550880724
 21
426.52972491796697
 31
0.0
  0
LINE
  5
13A
100
AcDbEntity
  8
0
  6
Continuous
 62
               4
100
AcDbLine
 10
575.20402233459299
 20
424.84638196570256
 30
0.0
 11
600.10801112934405
 21
411.43696558630666
 31
0.0
  0
LINE
  5
13B
100
AcDbEntity
  8
0
  6
Continuous
 62
               4
100
AcDbLine
 10
580.95098004591978
 20
405.68985626127971
 30
0.0
 11
594.36105341801704
 21
430.59349129072996
 31
0.0
  0
LINE
  5
13C
100
AcDbEntity
  8
0
  6
Continuous
 62
               4
100
AcDbLine
 10
629.38757397143195
 20
441.10144745675427
 30
0.0
 11
654.29156276618301
 21
427.69203107735837
 31
0.0
  0
LINE
  5
13D
100
AcDbEntity
  8
0
  6
Continuous
 62
               4
100
AcDbLine
 10
635.13453168275873
 20
421.94492175233142
 30
0.0
 11
648.54460505485599
 21
446.84855678178167
 31
0.0
  0
LINE
  5
13E
100
AcDbEntity
  8
0
  6
Continuous
 62
               4
100
AcDbLine
 10
600.44051812351745
 20
420.79148129663952
 30
0.0
 11
594.49686795512957
 21
409.7536226340427
 31
0.0
  0
LINE
  5
13F
100
AcDbEntity
  8
0
  6
Continuous
 62
               4
100
AcDbLine
 10
599.78792570324435
 20
422.96678936421733
 30
0.0
 11
588.74991024380279
 21
428.91014833846555
 31
0.0
  0
LINE
  5
140
100
AcDbEntity
  8
0
  6
Continuous
 62
               4
100
AcDbLine
 10
632.03655931005665
 20
428.3176402752066
 30
0.0
 11
640.74567485697321
 21
423.62826470459549
 31
0.0
  0
LINE
  5
141
100
AcDbEntity
  8
0
  6
Continuous
 62
               4
100
AcDbLine
 10
630.30911181965757
 20
434.07579857653639
 30
0.0
 11
634.9987171456462
 21
442.7847904090188
 31
0.0
  0
LINE
  5
142
100
AcDbEntity
  8
0
  6
Continuous
 62
               3
100
AcDbLine
 10
668.21568552951271
 20
465.27824873486736
 30
0.0
 11
374.01938709127967
 21
377.01935920339758
 31
0.0
  0
LINE
  5
143
100
AcDbEntity
  8
0
  6
DASHED
 62
               6
100
AcDbLine
 10
668.21568552951294
 20
467.36631003664945
 30
0.0
 11
468.39974637573278
 21
407.42152829051554
 31
0.0
  0
LINE
  5
144
100
AcDbEntity
  8
0
  6
Continuous
 62
               2
100
AcDbLine
 10
668.21568552951294
 20
470.49840198932259
 30
0.0
 11
325.64915968761147
 21
367.72844423675235
 31
0.0
  0
LINE
  5
145
100
AcDbEntity
  8
0
  6
Continuous
 62
               7
100
AcDbLine
 10
663.61266247220578
 20
463.89734181767528
 30
0.0
 11
655.56722489574918
 21
448.95534273404553
 31
0.0
  0
LINE
  5
146
100
AcDbEntity
  8
0
  6
Continuous
 62
               3
100
AcDbLine
 10
377.46756171807579
 20
365.52544378074379
 30
0.0
 11
668.21568552951294
 21
452.74988092417482
 31
0.0
  0
LINE
  5
147
100
AcDbEntity
  8
0
  6
Continuous
 62
               7
100
AcDbLine
 10
668.21568552951294
 20
461.89952279944373
 30
0.0
 11
662.33999017425162
 21
450.98717231759622
 31
0.0
  0
LINE
  5
148
100
AcDbEntity
  8
0
  6
Continuous
 62
               4
100
AcDbLine
 10
667.8374506753978
 20
431.75579745011908
 30
0.0
 11
642.93346188064174
 21
445.16521382951737
 31
0.0
  0
LINE
  5
149
100
AcDbEntity
  8
0
  6
Continuous
 62
               4
100
AcDbLine
 10
662.09049296406329
 20
450.91232315453988
 30
0.0
 11
648.68041959196853
 21
426.00868812509441
 31
0.0
  0
LINE
  5
14A
100
AcDbEntity
  8
0
  6
Continuous
 62
               4
100
AcDbLine
 10
668.21568552951271
 20
442.9096144975116
 30
0.0
 11
656.47934978985154
 21
449.22898020228058
 31
0.0
  0
LINE
  5
14B
100
AcDbEntity
  8
0
  6
Continuous
 62
               4
100
AcDbLine
 10
668.21568552951271
 20
441.19523364546501
 30
0.0
 11
662.22630750117855
 21
430.07245449785762
 31
0.0
  0
LINE
  5
14C
100
AcDbEntity
  8
0
  6
DASHED
 62
               2
100
AcDbLine
 10
668.21568552951294
 20
450.66181962239489
 30
0.0
 11
628.87405248032701
 21
438.8593297076394
 31
0.0
  0
LINE
  5
14D
100
AcDbEntity
  8
0
  6
Continuous
 62
               4
100
AcDbLine
 10
493.92869487933422
 20
400.46378372912488
 30
0.0
 11
518.83268367408527
 21
387.05436734972898
 31
0.0
  0
LINE
  5
14E
100
AcDbEntity
  8
0
  6
Continuous
 62
               4
100
AcDbLine
 10
499.675652590661
 20
381.30725802470204
 30
0.0
 11
513.08572596275826
 21
406.21089305415228
 31
0.0
  0
LINE
  5
14F
100
AcDbEntity
  8
0
  6
Continuous
 62
               4
100
AcDbLine
 10
507.47458278854401
 20
404.52755010188787
 30
0.0
 11
532.37857158329507
 21
391.11813372249196
 31
0.0
  0
LINE
  5
150
100
AcDbEntity
  8
0
  6
Continuous
 62
               4
100
AcDbLine
 10
513.2215404998708
 20
385.37102439746502
 30
0.0
 11
526.63161387196806
 21
410.27465942691526
 31
0.0
  0
LINE
  5
151
100
AcDbEntity
  8
0
  6
Continuous
 62
               4
100
AcDbLine
 10
521.02047069775381
 20
408.59131647465085
 30
0.0
 11
545.92445949250487
 21
395.18190009525495
 31
0.0
  0
LINE
  5
152
100
AcDbEntity
  8
0
  6
Continuous
 62
               4
100
AcDbLine
 10
526.76742840908059
 20
389.43479077022801
 30
0.0
 11
540.17750178117785
 21
414.33842579967825
 31
0.0
  0
LINE
  5
153
100
AcDbEntity
  8
0
  6
Continuous
 62
               4
100
AcDbLine
 10
453.29103115170494
 20
388.27248461083616
 30
0.0
 11
478.19501994645611
 21
374.86306823144025
 31
0.0
  0
LINE
  5
154
100
AcDbEntity
  8
0
  6
Continuous
 62
               4
100
AcDbLine
 10
459.03798886303173
 20
369.11595890641331
 30
0.0
 11
472.44806223512899
 21
394.01959393586355
 31
0.0
  0
LINE
  5
155
100
AcDbEntity
  8
0
  6
Continuous
 62
               4
100
AcDbLine
 10
466.83691906091474
 20
392.33625098359903
 30
0.0
 11
491.74090785566591
 21
378.92683460420312
 31
0.0
  0
LINE
  5
156
100
AcDbEntity
  8
0
  6
Continuous
 62
               4
100
AcDbLine
 10
472.58387677224152
 20
373.17972527917618
 30
0.0
 11
485.9939501443389
 21
398.08336030862642
 31
0.0
  0
LINE
  5
157
100
AcDbEntity
  8
0
  6
Continuous
 62
               4
100
AcDbLine
 10
480.38280697012465
 20
396.40001735636201
 30
0.0
 11
505.28679576487571
 21
382.99060097696611
 31
0.0
  0
LINE
  5
158
100
AcDbEntity
  8
0
  6
Continuous
 62
               4
100
AcDbLine
 10
486.12976468145121
 20
377.24349165193917
 30
0.0
 11
499.53983805354869
 21
402.14712668138941
 31
0.0
  0
LINE
  5
159
100
AcDbEntity
  8
0
  6
Continuous
 62
               4
100
AcDbLine
 10
412.65336742407567
 20
376.08118549254721
 30
0.0
 11
437.55735621882673
 21
362.6717691131513
 31
0.0
  0
LINE
  5
15A
100
AcDbEntity
  8
0
  6
Continuous
 62
               4
100
AcDbLine
 10
418.40032513540245
 20
356.92465978812436
 30
0.0
 11
431.81039850749971
 21
381.8282948175746
 31
0.0
  0
LINE
  5
15B
100
AcDbEntity
  8
0
  6
Continuous
 62
               4
100
AcDbLine
 10
426.19925533328546
 20
380.14495186531019
 30
0.0
 11
451.10324412803652
 21
366.73553548591428
 31
0.0
  0
LINE
  5
15C
100
AcDbEntity
  8
0
  6
Continuous
 62
               4
100
AcDbLine
 10
431.94621304461225
 20
360.98842616088734
 30
0.0
 11
445.35628641670951
 21
385.89206119033759
 31
0.0
  0
LINE
  5
15D
100
AcDbEntity
  8
0
  6
Continuous
 62
               4
100
AcDbLine
 10
439.74514324249526
 20
384.20871823807317
 30
0.0
 11
464.64913203724632
 21
370.79930185867727
 31
0.0
  0
LINE
  5
15E
100
AcDbEntity
  8
0
  6
Continuous
 62
               4
100
AcDbLine
 10
445.49210095382205
 20
365.05219253365033
 30
0.0
 11
458.9021743259193
 21
389.95582756310057
 31
0.0
  0
LINE
  5
15F
100
AcDbEntity
  8
0
  6
Continuous
 62
               4
100
AcDbLine
 10
385.5615916056563
 20
367.95365274702147
 30
0.0
 11
410.46558040040736
 21
354.54423636762556
 31
0.0
  0
LINE
  5
160
100
AcDbEntity
  8
0
  6
Continuous
 62
               4
100
AcDbLine
 10
391.30854931698309
 20
348.79712704259862
 30
0.0
 11
404.71862268908035
 21
373.70076207204886
 31
0.0
  0
LINE
  5
161
100
AcDbEntity
  8
0
  6
Continuous
 62
               4
100
AcDbLine
 10
399.1074795148661
 20
372.01741911978445
 30
0.0
 11
424.01146830961716
 21
358.60800274038854
 31
0.0
  0
LINE
  5
162
100
AcDbEntity
  8
0
  6
Continuous
 62
               4
100
AcDbLine
 10
404.85443722619289
 20
352.8608934153616
 30
0.0
 11
418.26451059829014
 21
377.76452844481184
 31
0.0
  0
LINE
  5
163
100
AcDbEntity
  8
0
  6
Continuous
 62
               4
100
AcDbLine
 10
377.46756171807579
 20
365.52544378074379
 30
0.0
 11
383.21451942940257
 21
346.36891807632071
 31
0.0
  0
LINE
  5
164
100
AcDbEntity
  8
0
  6
Continuous
 62
               4
100
AcDbLine
 10
381.57900517032795
 20
351.82063227323613
 30
0.0
 11
391.17273477987055
 21
369.63699569928588
 31
0.0
  0
LINE
  5
165
100
AcDbEntity
  8
0
  6
Continuous
 62
               4
100
AcDbLine
 10
379.10307597714836
 20
360.07372958383496
 30
0.0
 11
396.91969249119757
 21
350.48046999486257
 31
0.0
  0
LINE
  5
166
100
AcDbEntity
  8
0
  6
DASHED
 62
               2
100
AcDbLine
 10
331.10876951336763
 20
349.52974481755223
 30
0.0
 11
327.08589911543959
 21
362.93931281064567
 31
0.0
  0
LINE
  5
167
100
AcDbEntity
  8
0
  6
DASHED
 62
               2
100
AcDbLine
 10
331.10876951336763
 20
349.52974481755223
 30
0.0
 11
597.81543882885057
 21
429.54174561219691
 31
0.0
  0
LINE
  5
168
100
AcDbEntity
  8
0
  6
Continuous
 62
               7
100
AcDbLine
 10
368.84712515108538
 20
342.05869979282556
 30
0.0
 11
383.21451942940257
 21
346.36891807632071
 31
0.0
  0
LINE
  5
169
100
AcDbEntity
  8
0
  6
Continuous
 62
               7
100
AcDbLine
 10
368.84712515108538
 20
342.05869979282556
 30
0.0
 11
359.65199281296236
 21
372.70914091990244
 31
0.0
  0
LINE
  5
16A
100
AcDbEntity
  8
0
  6
Continuous
 62
               4
100
AcDbLine
 10
458.09090131505423
 20
515.07372389421141
 30
0.0
 11
299.12211920654931
 21
515.07372389421141
 31
0.0
  0
LINE
  5
16B
100
AcDbEntity
  8
0
  6
Continuous
 62
               4
100
AcDbLine
 10
449.43064727720969
 20
530.07372389421164
 30
0.0
 11
299.12211920654931
 21
530.07372389421164
 31
0.0
  0
LINE
  5
16C
100
AcDbEntity
  8
0
  6
Continuous
 62
               4
100
AcDbLine
 10
466.75115535289865
 20
500.07372389421141
 30
0.0
 11
299.12211920654931
 21
500.07372389421141
 31
0.0
  0
LINE
  5
16D
100
AcDbEntity
  8
0
  6
Continuous
 62
               4
100
AcDbLine
 10
475.41140939074307
 20
485.07372389421164
 30
0.0
 11
299.12211920654931
 21
485.07372389421164
 31
0.0
  0
LINE
  5
16E
100
AcDbEntity
  8
0
  6
Continuous
 62
               4
100
AcDbLine
 10
484.07166342858727
 20
470.07372389421164
 30
0.0
 11
299.12211920654931
 21
470.07372389421164
 31
0.0
  0
LINE
  5
16F
100
AcDbEntity
  8
0
  6
Continuous
 62
               4
100
AcDbLine
 10
449.43064727721003
 20
530.07372389421164
 30
0.0
 11
533.14122711866844
 21
385.08274647775409
 31
0.0
  0
LINE
  5
170
100
AcDbEntity
  8
0
  6
Continuous
 62
               2
100
AcDbLine
 10
359.5832794505086
 20
332.91701051059101
 30
0.0
 11
348.03355997322979
 21
371.41607543485395
 31
0.0
  0
LINE
  5
171
100
AcDbEntity
  8
0
  6
Continuous
 62
               4
100
AcDbLine
 10
304.59265321637054
 20
272.61197420180599
 30
0.0
 11
206.58881912821687
 21
272.61197420180599
 31
0.0
  0
LINE
  5
172
100
AcDbEntity
  8
0
  6
Continuous
 62
               4
100
AcDbLine
 10
330.15154210199967
 20
187.41567791637493
 30
0.0
 11
232.14770801384611
 21
187.41567791637493
 31
0.0
  0
LINE
  5
173
100
AcDbEntity
  8
0
  6
Continuous
 62
               4
100
AcDbLine
 10
361.30736676390666
 20
327.17005279926411
 30
0.0
 11
366.68242824067465
 21
309.2531812100375
 31
0.0
  0
LINE
  5
174
100
AcDbEntity
  8
0
  6
Continuous
 62
               4
100
AcDbLine
 10
365.82038458397551
 20
312.126660065701
 30
0.0
 11
389.76604171450435
 21
319.31035720485954
 31
0.0
  0
LINE
  5
175
100
AcDbEntity
  8
0
  6
Continuous
 62
               4
100
AcDbLine
 10
354.03913078156643
 20
351.39750607373162
 30
0.0
 11
304.59265321637054
 21
272.61197420180599
 31
0.0
  0
LINE
  5
176
100
AcDbEntity
  8
0
  6
Continuous
 62
               4
100
AcDbLine
 10
354.03913078156643
 20
351.39750607373162
 30
0.0
 11
350.96094949163535
 21
342.9402724866585
 31
0.0
  0
LINE
  5
177
100
AcDbEntity
  8
0
  6
Continuous
 62
               4
100
AcDbLine
 10
354.03913078156643
 20
351.39750607373162
 30
0.0
 11
348.25404229438755
 21
344.50310608566076
 31
0.0
  0
LINE
  5
178
100
AcDbEntity
  8
0
  6
Continuous
 62
               4
100
AcDbLine
 10
398.12787469029604
 20
291.43758061888741
 30
0.0
 11
330.15154210199967
 21
187.41567791637493
 31
0.0
  0
LINE
  5
179
100
AcDbEntity
  8
0
  6
Continuous
 62
               4
100
AcDbLine
 10
398.12787469029604
 20
291.43758061888741
 30
0.0
 11
395.04969340036496
 21
282.9803470318144
 31
0.0
  0
LINE
  5
17A
100
AcDbEntity
  8
0
  6
Continuous
 62
               4
100
AcDbLine
 10
398.12787469029604
 20
291.43758061888741
 30
0.0
 11
392.34278620311716
 21
284.54318063081666
 31
0.0
  0
CIRCLE
  5
17B
100
AcDbEntity
  8
0
  6
Continuous
 62
               4
100
AcDbCircle
 10
604.42444019687696
 20
412.73189430656294
 30
0.0
 40
1.5
  0
CIRCLE
  5
17C
100
AcDbEntity
  8
0
  6
Continuous
 62
               4
100
AcDbCircle
 10
604.42444019687696
 20
412.73189430656294
 30
0.0
 40
1.5
  0
CIRCLE
  5
17D
100
AcDbEntity
  8
0
  6
Continuous
 62
               4
100
AcDbCircle
 10
607.8726148236733
 20
401.23797888390914
 30
0.0
 40
1.5
  0
CIRCLE
  5
17E
100
AcDbEntity
  8
0
  6
Continuous
 62
               4
100
AcDbCircle
 10
316.07089898045729
 20
390.95572450317411
 30
0.0
 40
1.5
  0
CIRCLE
  5
17F
100
AcDbEntity
  8
0
  6
Continuous
 62
               4
100
AcDbCircle
 10
340.01655611098613
 20
398.13942164233288
 30
0.0
 40
1.5
  0
CIRCLE
  5
180
100
AcDbEntity
  8
0
  6
Continuous
 62
               4
100
AcDbCircle
 10
304.23217168914948
 20
357.33603136382783
 30
0.0
 40
1.5
  0
CIRCLE
  5
181
100
AcDbEntity
  8
0
  6
Continuous
 62
               4
100
AcDbCircle
 10
315.72608711180328
 20
319.02297995498168
 30
0.0
 40
1.5
  0
CIRCLE
  5
182
100
AcDbEntity
  8
0
  6
Continuous
 62
               4
100
AcDbCircle
 10
516.70021063223339
 20
413.55942236033741
 30
0.0
 40
1.5
  0
CIRCLE
  5
183
100
AcDbEntity
  8
0
  6
Continuous
 62
               4
100
AcDbCircle
 10
512.58995651062469
 20
420.67859133098329
 30
0.0
 40
1.5
  0
CIRCLE
  5
184
100
AcDbEntity
  8
0
  6
Continuous
 62
               4
100
AcDbCircle
 10
511.04861121502131
 20
423.3482796949753
 30
0.0
 40
1.5
  0
CIRCLE
  5
185
100
AcDbEntity
  8
0
  6
Continuous
 62
               4
100
AcDbCircle
 10
595.22930785875405
 20
443.3823354336397
 30
0.0
 40
1.5
  0
CIRCLE
  5
186
100
AcDbEntity
  8
0
  6
Continuous
 62
               4
100
AcDbCircle
 10
595.22931795612703
 20
443.38233846285164
 30
0.0
 40
1.5
  0
CIRCLE
  5
187
100
AcDbEntity
  8
0
  6
Continuous
 62
               4
100
AcDbCircle
 10
593.79257852829528
 20
448.1714698889574
 30
0.0
 40
1.5
  0
CIRCLE
  5
188
100
AcDbEntity
  8
0
  6
Continuous
 62
               4
100
AcDbCircle
 10
533.14122711866844
 20
385.08274647775409
 30
0.0
 40
1.5
  0
CIRCLE
  5
189
100
AcDbEntity
  8
0
  6
Continuous
 62
               4
100
AcDbCircle
 10
524.9207188754508
 20
399.32108441904563
 30
0.0
 40
1.5
  0
CIRCLE
  5
18A
100
AcDbEntity
  8
0
  6
Continuous
 62
               4
100
AcDbCircle
 10
625.11349870631261
 20
406.41024404870052
 30
0.0
 40
1.5
  0
CIRCLE
  5
18B
100
AcDbEntity
  8
0
  6
Continuous
 62
               4
100
AcDbCircle
 10
611.03345231356229
 20
453.3437320245373
 30
0.0
 40
1.5
  0
CIRCLE
  5
18C
100
AcDbEntity
  8
0
  6
Continuous
 62
               4
100
AcDbCircle
 10
598.6774824855504
 20
431.88842001098612
 30
0.0
 40
1.5
  0
CIRCLE
  5
18D
100
AcDbEntity
  8
0
  6
Continuous
 62
               4
100
AcDbCircle
 10
365.82038458397551
 20
312.126660065701
 30
0.0
 40
1.5
  0
CIRCLE
  5
18E
100
AcDbEntity
  8
0
  6
Continuous
 62
               4
100
AcDbCircle
 10
389.76604171450435
 20
319.31035720485954
 30
0.0
 40
1.5
  0
ARC
  5
18F
100
AcDbEntity
  8
0
  6
Continuous
 62
               6
100
AcDbCircle
 10
418.48168318730359
 20
244.82017519842486
 30
0.0
 40
2.2999999523162842
100
AcDbArc
 50
196.69924423399354
 51
286.69924423399368
  0
ARC
  5
190
100
AcDbEntity
  8
0
  6
Continuous
 62
               6
100
AcDbCircle
 10
418.48168318730359
 20
244.82017519842486
 30
0.0
 40
4.5999999046325684
100
AcDbArc
 50
196.69924423399354
 51
286.69924423399368
  0
ARC
  5
191
100
AcDbEntity
  8
0
  6
Continuous
 62
               6
100
AcDbCircle
 10
457.56099580701766
 20
256.54396898433913
 30
0.0
 40
2.2999999523162842
100
AcDbArc
 50
286.69924423399368
 51
16.699244233993603
  0
ARC
  5
192
100
AcDbEntity
  8
0
  6
Continuous
 62
               6
100
AcDbCircle
 10
457.56099580701766
 20
256.54396898433913
 30
0.0
 40
4.5999999046325684
100
AcDbArc
 50
286.69924423399368
 51
16.699244233993603
  0
ARC
  5
193
100
AcDbEntity
  8
0
  6
Continuous
 62
               6
100
AcDbCircle
 10
431.46980774278609
 20
343.51459586511078
 30
0.0
 40
4.5999999046325684
100
AcDbArc
 50
16.699244233993618
 51
106.6992442339936
  0
ARC
  5
194
100
AcDbEntity
  8
0
  6
Continuous
 62
               6
100
AcDbCircle
 10
431.46980774278609
 20
343.51459586511078
 30
0.0
 40
2.2999999523162842
100
AcDbArc
 50
16.699244233993618
 51
106.6992442339936
  0
ARC
  5
195
100
AcDbEntity
  8
0
  6
Continuous
 62
               6
100
AcDbCircle
 10
392.39049512307224
 20
331.79080207919662
 30
0.0
 40
2.2999999523162842
100
AcDbArc
 50
106.6992442339936
 51
196.69924423399354
  0
ARC
  5
196
100
AcDbEntity
  8
0
  6
Continuous
 62
               6
100
AcDbCircle
 10
392.39049512307224
 20
331.79080207919662
 30
0.0
 40
4.5999999046325684
100
AcDbArc
 50
106.6992442339936
 51
196.69924423399354
  0
ARC
  5
197
100
AcDbEntity
  8
0
  6
Continuous
 62
               2
100
AcDbCircle
 10
441.40246625658733
 20
152.40909531903731
 30
0.0
 40
1.500000000000004
100
AcDbArc
 50
196.69924423399337
 51
16.699244233993554
  0
ARC
  5
198
100
AcDbEntity
  8
0
  6
Continuous
 62
               7
100
AcDbCircle
 10
439.84854405554438
 20
198.02684646235917
 30
0.0
 40
13.0
100
AcDbArc
 50
264.07937928595436
 51
309.31910918203499
  0
ARC
  5
199
100
AcDbEntity
  8
0
  6
Continuous
 62
               7
100
AcDbCircle
 10
457.53252928093093
 20
206.90819174164142
 30
0.0
 40
20.0
100
AcDbArc
 50
178.41487154792969
 51
198.49097529111998
  0
ARC
  5
19A
100
AcDbEntity
  8
0
  6
Continuous
 62
               2
100
AcDbCircle
 10
326.36752940152724
 20
365.33387852369958
 30
0.0
 40
2.5000000000000031
100
AcDbArc
 50
106.6992442339936
 51
286.69924423399351
  0
ARC
  5
19B
100
AcDbEntity
  8
0
  6
Continuous
 62
               2
100
AcDbCircle
 10
360.25930959179095
 20
333.11981955297586
 30
0.0
 40
0.705796188425076
100
AcDbArc
 50
196.69924423399448
 51
356.69924423399448
  0
ARC
  5
19C
100
AcDbEntity
  8
0
  6
Continuous
 62
               2
100
AcDbCircle
 10
326.02750107027373
 20
365.59728075213536
 30
0.0
 40
0.75000000000002
100
AcDbArc
 50
106.69924423399428
 51
286.69924423399374
  0
ARC
  5
19D
100
AcDbEntity
  8
0
  6
Continuous
 62
               7
100
AcDbCircle
 10
371.97765955620252
 20
347.49683602767061
 30
0.0
 40
30.0
100
AcDbArc
 50
1.5620294067002536
 51
19.691546246868189
  0
ARC
  5
19E
100
AcDbEntity
  8
0
  6
Continuous
 62
               7
100
AcDbCircle
 10
391.54830823308066
 20
351.0692560242436
 30
0.0
 40
30.0
100
AcDbArc
 50
1.5620294067002536
 51
19.691546246868189
  0
TEXT
  5
19F
100
AcDbEntity
  8
0
 62
               7
100
AcDbText
 10
733.53679805451975
 20
26.713203554805762
 30
0.0
 40
8.9999997615814422
  1
軒先詳細図（1） 【S=1/3】
 41
0.7695
  7
FontTableH_0
 72
               5
 11
846.03679507428774
 21
26.713203554805762
 31
0.0
100
AcDbText
  0
TEXT
  5
1A0
100
AcDbEntity
  8
0
 62
               7
100
AcDbText
 10
606.21229643284096
 20
412.01719744093305
 30
0.0
 40
9.6000003814697763
  1
12
 50
286.69921214727901
 41
0.7695
  7
FontTableH_0
 72
               5
 11
608.97083109444463
 21
402.82206319259546
 31
0.0
100
AcDbText
  0
TEXT
  5
1A1
100
AcDbEntity
  8
0
 62
               7
100
AcDbText
 10
494.04853910862221
 20
149.7729957807768
 30
0.0
 40
9.5999999999999766
  1
力板
 41
0.7695
  7
FontTableH_0
 72
               5
 11
513.24853910862214
 21
149.7729957807768
 31
0.0
100
AcDbText
  0
TEXT
  5
1A2
100
AcDbEntity
  8
0
 62
               7
100
AcDbText
 10
473.67280668674721
 20
306.31422502882367
 30
0.0
 40
9.5999999999999766
  1
母屋（別途）
 41
0.7695
  7
FontTableH_0
 72
               5
 11
531.27280668674723
 21
306.31422502882367
 31
0.0
100
AcDbText
  0
TEXT
  5
1A3
100
AcDbEntity
  8
0
 62
               7
100
AcDbText
 10
597.01709653401417
 20
442.66768066488737
 30
0.0
 40
9.6000003814697763
  1
12
 50
286.69921214727901
 41
0.7695
  7
FontTableH_0
 72
               5
 11
599.77563119561785
 21
433.47254641654979
 31
0.0
100
AcDbText
  0
TEXT
  5
1A4
100
AcDbEntity
  8
0
 62
               7
100
AcDbText
 10
593.53919126057667
 20
454.25636474691862
 30
0.0
 40
9.6000003814698722
  1
5
 50
286.69921214728095
 41
0.7695
  7
FontTableH_0
 72
               5
 11
594.91845859137868
 21
449.65879762274983
 31
0.0
100
AcDbText
  0
TEXT
  5
1A5
100
AcDbEntity
  8
0
 62
               7
100
AcDbText
 10
323.01825620198292
 20
394.60872070394987
 30
0.0
 40
9.6000000000000512
  1
25
 50
16.699255860263545
 41
0.7695
  7
FontTableH_0
 72
               5
 11
332.21338798035208
 21
397.36726227123256
 31
0.0
100
AcDbText
  0
TEXT
  5
1A6
100
AcDbEntity
  8
0
 62
               7
100
AcDbText
 10
310.04059506917042
 20
343.21223632894987
 30
0.0
 40
9.5999999999999712
  1
40
 50
286.69921214727924
 41
0.7695
  7
FontTableH_0
 72
               5
 11
312.79912962115981
 21
334.01710244599417
 31
0.0
100
AcDbText
  0
TEXT
  5
1A7
100
AcDbEntity
  8
0
 62
               7
100
AcDbText
 10
207.9113281836419
 20
423.51527587973112
 30
0.0
 40
9.599999999999806
  1
ガーター（アルミアルマイト）
 41
0.7695
  7
FontTableH_0
 72
               5
 11
342.3113281836421
 21
423.51527587973112
 31
0.0
100
AcDbText
  0
TEXT
  5
1A8
100
AcDbEntity
  8
0
 62
               7
100
AcDbText
 10
601.72766402112279
 20
426.94137688326248
 30
0.0
 40
9.6000003814698793
  1
20
 50
286.69926678879204
 41
0.7695
  7
FontTableH_0
 72
               5
 11
604.4862074518885
 21
417.74624526567283
 31
0.0
100
AcDbText
  0
TEXT
  5
1A9
100
AcDbEntity
  8
0
 62
               7
100
AcDbText
 10
618.14496411247978
 20
434.85891331593245
 30
0.0
 40
9.6000003814702062
  1
49
 50
286.69926678879204
 41
0.7695
  7
FontTableH_0
 72
               5
 11
620.9035075432455
 21
425.6637816983428
 31
0.0
100
AcDbText
  0
TEXT
  5
1AA
100
AcDbEntity
  8
0
 62
               7
100
AcDbText
 10
302.12177096286905
 20
516.57324063945032
 30
0.0
 40
9.6000000000001471
  1
アスファルトルーフィング 22Kg
 41
0.7695
  7
FontTableH_0
 72
               5
 11
441.3217709628691
 21
516.57324063945032
 31
0.0
100
AcDbText
  0
TEXT
  5
1AB
100
AcDbEntity
  8
0
 62
               7
100
AcDbText
 10
302.12177096286905
 20
531.57324063945055
 30
0.0
 40
9.6000000000001471
  1
プロムナ－ル－フV：各種金属板
 41
0.7695
  7
FontTableH_0
 72
               5
 11
441.3217709628691
 21
531.57324063945055
 31
0.0
100
AcDbText
  0
TEXT
  5
1AC
100
AcDbEntity
  8
0
 62
               7
100
AcDbText
 10
302.12177096286905
 20
501.57324063945055
 30
0.0
 40
9.6000000000003158
  1
硬質木片セメント板 12mm
 41
0.7695
  7
FontTableH_0
 72
               5
 11
412.52177096286903
 21
501.57324063945055
 31
0.0
100
AcDbText
  0
TEXT
  5
1AD
100
AcDbEntity
  8
0
 62
               7
100
AcDbText
 10
302.12177096286905
 20
471.57324063945055
 30
0.0
 40
9.599999999999806
  1
硬質木片セメント板 12mm
 41
0.7695
  7
FontTableH_0
 72
               5
 11
412.52177096286903
 21
471.57324063945055
 31
0.0
100
AcDbText
  0
TEXT
  5
1AE
100
AcDbEntity
  8
0
 62
               7
100
AcDbText
 10
302.12177096286905
 20
486.57324063945055
 30
0.0
 40
9.6000000000003158
  1
断熱材 20mm
 41
0.7695
  7
FontTableH_0
 72
               5
 11
354.921770962869
 21
486.57324063945055
 31
0.0
100
AcDbText
  0
TEXT
  5
1AF
100
AcDbEntity
  8
0
 62
               7
100
AcDbText
 10
209.59225664678706
 20
274.11799169335472
 30
0.0
 40
9.6000000000001471
  1
軒先唐草：屋根同材
 41
0.7695
  7
FontTableH_0
 72
               5
 11
295.99225664678721
 21
274.11799169335472
 31
0.0
100
AcDbText
  0
TEXT
  5
1B0
100
AcDbEntity
  8
0
 62
               7
100
AcDbText
 10
235.15030108038081
 20
188.91962743554222
 30
0.0
 40
9.5999999999999766
  1
軒先役物：屋根同材
 41
0.7695
  7
FontTableH_0
 72
               5
 11
321.55030108038096
 21
188.91962743554222
 31
0.0
100
AcDbText
  0
TEXT
  5
1B1
100
AcDbEntity
  8
0
 62
               7
100
AcDbText
 10
372.76758013311519
 20
315.77851415429222
 30
0.0
 40
9.6000000000000512
  1
25
 50
16.699255860263545
 41
0.7695
  7
FontTableH_0
 72
               5
 11
381.96271191148435
 21
318.53705572157492
 31
0.0
100
AcDbText
  0
TEXT
  5
1B2
100
AcDbEntity
  8
0
 62
               7
100
AcDbText
 10
50.89213663700982
 20
601.35786449547834
 30
0.0
 40
8.9999997615814422
  1
プロムナールーフV
 41
0.7695
  7
FontTableH_0
 72
               5
 11
127.39213461045208
 21
601.35786449547834
 31
0.0
100
AcDbText
  0
ENDSEC
  0
SECTION
  2
OBJECTS
  0
DICTIONARY
  5
19
100
AcDbDictionary
  3
ACAD_GROUP
350
1A
  3
ACAD_MLINESTYLE
350
1B
  3
DWGPROPS
350
1B3
  0
DICTIONARY
  5
1A
102
{ACAD_REACTORS
330
19
102
}
100
AcDbDictionary
  0
DICTIONARY
  5
1B
102
{ACAD_REACTORS
330
19
102
}
100
AcDbDictionary
  3
STANDARD
350
1C
  0
MLINESTYLE
  5
1C
102
{ACAD_REACTORS
330
1B
102
}
100
AcDbMlineStyle
  2
Standard
 70
               0
  3

 62
               0
 51
90.0
 52
90.0
 71
               2
 49
0.5
 62
             256
  6
ByLayer
 49
-0.5
 62
             256
  6
ByLayer
  0
XRECORD
  5
1B3
100
AcDbXrecord
  1
DWGPROPS COOKIE
  2

  3

  4

  6

  7

  0
ENDSEC
  0
EOF
