  0
SECTION
  2
HEADER
  9
$ACADVER
  1
AC1014
  9
$ACADMAINTVER
 70
               0
  9
$DWGCODEPAGE
  3
ANSI_932
  9
$INSBASE
 10
0.0
 20
0.0
 30
0.0
  9
$EXTMIN
 10
0.0
 20
0.0
 30
0.0
  9
$EXTMAX
 10
891.00000000000091
 20
630.00000000000068
 30
0.0
  9
$LIMMIN
 10
0.0
 20
0.0
  9
$LIMMAX
 10
891.00000000000091
 20
630.00000000000068
  9
$ORTHOMODE
 70
               0
  9
$REGENMODE
 70
               1
  9
$FILLMODE
 70
               1
  9
$QTEXTMODE
 70
               0
  9
$MIRRTEXT
 70
               1
  9
$DRAGMODE
 70
               2
  9
$LTSCALE
 40
3.0000000000000031
  9
$OSMODE
 70
               0
  9
$ATTMODE
 70
               1
  9
$TEXTSIZE
 40
0.2
  9
$TRACEWID
 40
0.05
  9
$TEXTSTYLE
  7
Standard
  9
$CLAYER
  8
0
  9
$CELTYPE
  6
Continuous
  9
$CECOLOR
 62
             256
  9
$CELTSCALE
 40
1.0
  9
$DELOBJ
 70
               1
  9
$DISPSILH
 70
               0
  9
$DIMSCALE
 40
1.0
  9
$DIMASZ
 40
0.18
  9
$DIMEXO
 40
0.0625
  9
$DIMDLI
 40
0.38
  9
$DIMRND
 40
0.0
  9
$DIMDLE
 40
0.0
  9
$DIMEXE
 40
0.18
  9
$DIMTP
 40
0.0
  9
$DIMTM
 40
0.0
  9
$DIMTXT
 40
0.18
  9
$DIMCEN
 40
0.09
  9
$DIMTSZ
 40
0.0
  9
$DIMTOL
 70
               0
  9
$DIMLIM
 70
               0
  9
$DIMTIH
 70
               1
  9
$DIMTOH
 70
               1
  9
$DIMSE1
 70
               0
  9
$DIMSE2
 70
               0
  9
$DIMTAD
 70
               0
  9
$DIMZIN
 70
               0
  9
$DIMBLK
  1

  9
$DIMASO
 70
               1
  9
$DIMSHO
 70
               1
  9
$DIMPOST
  1

  9
$DIMAPOST
  1

  9
$DIMALT
 70
               0
  9
$DIMALTD
 70
               2
  9
$DIMALTF
 40
25.399999999999999
  9
$DIMLFAC
 40
1.0
  9
$DIMTOFL
 70
               0
  9
$DIMTVP
 40
0.0
  9
$DIMTIX
 70
               0
  9
$DIMSOXD
 70
               0
  9
$DIMSAH
 70
               0
  9
$DIMBLK1
  1

  9
$DIMBLK2
  1

  9
$DIMSTYLE
  2
Standard
  9
$DIMCLRD
 70
               0
  9
$DIMCLRE
 70
               0
  9
$DIMCLRT
 70
               0
  9
$DIMTFAC
 40
1.0
  9
$DIMGAP
 40
0.09
  9
$DIMJUST
 70
               0
  9
$DIMSD1
 70
               0
  9
$DIMSD2
 70
               0
  9
$DIMTOLJ
 70
               1
  9
$DIMTZIN
 70
               0
  9
$DIMALTZ
 70
               0
  9
$DIMALTTZ
 70
               0
  9
$DIMFIT
 70
               3
  9
$DIMUPT
 70
               0
  9
$DIMUNIT
 70
               2
  9
$DIMDEC
 70
               4
  9
$DIMTDEC
 70
               4
  9
$DIMALTU
 70
               2
  9
$DIMALTTD
 70
               2
  9
$DIMTXSTY
  7
Standard
  9
$DIMAUNIT
 70
               0
  9
$LUNITS
 70
               2
  9
$LUPREC
 70
               4
  9
$SKETCHINC
 40
0.1
  9
$FILLETRAD
 40
0.0
  9
$AUNITS
 70
               0
  9
$AUPREC
 70
               0
  9
$MENU
  1
acad
  9
$ELEVATION
 40
0.0
  9
$PELEVATION
 40
0.0
  9
$THICKNESS
 40
0.0
  9
$LIMCHECK
 70
               0
  9
$BLIPMODE
 70
               1
  9
$CHAMFERA
 40
0.0
  9
$CHAMFERB
 40
0.0
  9
$CHAMFERC
 40
0.0
  9
$CHAMFERD
 40
0.0
  9
$SKPOLY
 70
               0
  9
$TDCREATE
 40
0.000000000
  9
$TDUPDATE
 40
0.000000000
  9
$TDINDWG
 40
0.0000000000
  9
$TDUSRTIMER
 40
0.0000000000
  9
$USRTIMER
 70
               1
  9
$ANGBASE
 50
0.0
  9
$ANGDIR
 70
               0
  9
$PDMODE
 70
               0
  9
$PDSIZE
 40
0.0
  9
$PLINEWID
 40
0.0
  9
$COORDS
 70
               0
  9
$SPLFRAME
 70
               0
  9
$SPLINETYPE
 70
               6
  9
$SPLINESEGS
 70
               8
  9
$ATTDIA
 70
               0
  9
$ATTREQ
 70
               1
  9
$HANDLING
 70
               1
  9
$HANDSEED
  5
26B
  9
$SURFTAB1
 70
               6
  9
$SURFTAB2
 70
               6
  9
$SURFTYPE
 70
               6
  9
$SURFU
 70
               6
  9
$SURFV
 70
               6
  9
$UCSNAME
  2

  9
$UCSORG
 10
0.0
 20
0.0
 30
0.0
  9
$UCSXDIR
 10
1.0
 20
0.0
 30
0.0
  9
$UCSYDIR
 10
0.0
 20
1.0
 30
0.0
  9
$PUCSNAME
  2

  9
$PUCSORG
 10
0.0
 20
0.0
 30
0.0
  9
$PUCSXDIR
 10
1.0
 20
0.0
 30
0.0
  9
$PUCSYDIR
 10
0.0
 20
1.0
 30
0.0
  9
$USERI1
 70
               0
  9
$USERI2
 70
               0
  9
$USERI3
 70
               0
  9
$USERI4
 70
               0
  9
$USERI5
 70
               0
  9
$USERR1
 40
0.0
  9
$USERR2
 40
0.0
  9
$USERR3
 40
0.0
  9
$USERR4
 40
0.0
  9
$USERR5
 40
0.0
  9
$WORLDVIEW
 70
               1
  9
$SHADEDGE
 70
               3
  9
$SHADEDIF
 70
              70
  9
$TILEMODE
 70
               1
  9
$MAXACTVP
 70
              16
  9
$PINSBASE
 10
0.0
 20
0.0
 30
0.0
  9
$PLIMCHECK
 70
               0
  9
$PEXTMIN
 10
1.0000000000000000E+20
 20
1.0000000000000000E+20
 30
1.0000000000000000E+20
  9
$PEXTMAX
 10
-1.0000000000000000E+20
 20
-1.0000000000000000E+20
 30
-1.0000000000000000E+20
  9
$PLIMMIN
 10
0.0
 20
0.0
  9
$PLIMMAX
 10
12.0
 20
9.0
  9
$UNITMODE
 70
               0
  9
$VISRETAIN
 70
               0
  9
$PLINEGEN
 70
               1
  9
$PSLTSCALE
 70
               0
  9
$TREEDEPTH
 70
            3020
  9
$PICKSTYLE
 70
               1
  9
$CMLSTYLE
  2
Standard
  9
$CMLJUST
 70
               0
  9
$CMLSCALE
 40
1.0
  9
$PROXYGRAPHICS
 70
               0
  9
$MEASUREMENT
 70
               0
  0
ENDSEC
  0
SECTION
  2
CLASSES
  0
CLASS
  1
LWPOLYLINE
  2
AcDbPolyline
  3
"AutoCAD"
 90
        0
280
               0
281
               1
  0
CLASS
  1
IMAGE
  2
AcDbRasterImage
  3
ISM
 90
      127
280
               0
281
               1
  0
CLASS
  1
OLE2FRAME
  2
AcDbOle2Frame
  3
""
 90
        0
280
               0
281
               1
  0
CLASS
  1
HATCH
  2
AcDbHatch
  3
"ACAD_SEDONA"
 90
        0
280
               0
281
               1
  0
CLASS
  1
DICTIONARYVAR
  2
AcDbDictionaryVar
  3
"AutoCAD"
 90
        0
280
               0
281
               0
  0
CLASS
  1
RASTERVARIABLES
  2
AcDbRasterVariables
  3
ISM
 90
        0
280
               0
281
               0
  0
CLASS
  1
IMAGEDEF
  2
AcDbRasterImageDef
  3
ISM
 90
        0
280
               0
281
               0
  0
CLASS
  1
IMAGEDEF_REACTOR
  2
AcDbRasterImageDefReactor
  3
ISM
 90
        1
280
               0
281
               0
  0
CLASS
  1
IDBUFFER
  2
AcDbIdBuffer
  3
"Acad"
 90
        0
280
               0
281
               0
  0
CLASS
  1
SPATIAL_FILTER
  2
AcDbSpatialFilter
  3
"Acad"
 90
        0
280
               0
281
               0
  0
CLASS
  1
XRECORD
  2
AcDbXrecord
  3
"<Built In>"
 90
        0
280
               0
281
               0
  0
CLASS
  1
SORTENTSTABLE
  2
AcDbSortentsTable
  3
"AutoCAD"
 90
        0
280
               0
281
               0
  0
CLASS
  1
LAYER_INDEX
  2
AcDbLayerIndex
  3
"Acad"
 90
        0
280
               0
281
               0
  0
CLASS
  1
SPATIAL_INDEX
  2
AcDbSpatialIndex
  3
"Acad"
 90
        0
280
               0
281
               0
  0
CLASS
  1
OBJECT_PTR
  2
CAseDLPNTableRecord
  3
"ASE-LPNTableRecord"
 90
        1
280
               0
281
               0
  0
CLASS
  1
LAYOUT
  2
AcDbLayout
  3
"AutoCAD 2000"
 90
        0
280
               0
281
               0
  0
CLASS
  1
PLOTSETTINGS
  2
AcDbPlotSettings
  3
"AutoCAD 2000"
 90
        0
280
               0
281
               0
  0
CLASS
  1
ACDBDICTIONARYWDFLT
  2
AcDbDictionaryWithDefault
  3
"AutoCAD 2000"
 90
        0
280
               0
281
               0
  0
CLASS
  1
ACDBPLACEHOLDER
  2
AcDbPlaceHolder
  3
"AutoCAD 2000"
 90
        0
280
               0
281
               0
  0
CLASS
  1
VBA_PROJECT
  2
AcDbVbaProject
  3
"acadvba"
 90
        0
280
               0
281
               0
  0
CLASS
  1
WIPEOUT
  2
AcDbWipeout
  3
WipeOut|AutoCAD Express Tool|expresstools@autodesk.com
 90
      127
280
               0
281
               1
  0
CLASS
  1
WIPEOUTVARIABLES
  2
AcDbWipeoutVariables
  3
WipeOut|AutoCAD Express Tool|expresstools@autodesk.com
 90
        0
280
               0
281
               0
  0
CLASS
  1
RTEXT
  2
RText
  3
RText|AutoCAD Express Tool|expresstools@autodesk.com
 90
        0
280
               0
281
               1
  0
CLASS
  1
ARCALIGNEDTEXT
  2
AcDbArcAlignedText
  3
ATEXT|AutoCAD Express Tool|expresstools@autodesk.com
 90
        0
280
               0
281
               1
  0
ENDSEC
  0
SECTION
  2
TABLES
  0
TABLE
  2
VPORT
  5
7
100
AcDbSymbolTable
 70
               1
  0
VPORT
  5
15
100
AcDbSymbolTableRecord
100
AcDbViewportTableRecord
  2
*ACTIVE
 70
               0
 10
0.0
 20
0.0
 11
1.0
 21
1.0
 12
445.50000000000045
 22
315.00000000000034
 13
0.0
 23
0.0
 14
10.0
 24
10.0
 15
10.0
 25
10.0
 16
0.0
 26
0.0
 36
1.0
 17
0.0
 27
0.0
 37
0.0
 40
630.00000000000068
 41
1.4142857142857141
 42
50.0
 43
0.0
 44
0.0
 50
0.0
 51
0.0
 71
               0
 72
             100
 73
               1
 74
               1
 75
               0
 76
               0
 77
               0
 78
               0
  0
ENDTAB
  0
TABLE
  2
LTYPE
  5
4
100
AcDbSymbolTable
 70
              24
  0
LTYPE
  5
11
100
AcDbSymbolTableRecord
100
AcDbLinetypeTableRecord
  2
ByBlock
 70
              64
  3

 72
              65
 73
               0
 40
0.0
  0
LTYPE
  5
12
100
AcDbSymbolTableRecord
100
AcDbLinetypeTableRecord
  2
ByLayer
 70
              64
  3

 72
              65
 73
               0
 40
0.0
  0
LTYPE
  5
13
100
AcDbSymbolTableRecord
100
AcDbLinetypeTableRecord
  2
Continuous
 70
              64
  3
Solid line
 72
              65
 73
               0
 40
0.0
  0
LTYPE
  5
1D
100
AcDbSymbolTableRecord
100
AcDbLinetypeTableRecord
  2
DOT
 70
              64
  3
Dot . . . . . . . . . . . . . . . . . . . . . .
 72
              65
 73
               2
 40
6.3499999999999996
 49
0.35
 74
               0
 49
-6.0
 74
               0
  0
LTYPE
  5
1E
100
AcDbSymbolTableRecord
100
AcDbLinetypeTableRecord
  2
DASHED
 70
              64
  3
Dashed __ __ __ __ __ __ __ __ __ __ __ __ __ _
 72
              65
 73
               2
 40
12.699999999999999
 49
6.3499999999999996
 74
               0
 49
-6.3499999999999996
 74
               0
  0
LTYPE
  5
1F
100
AcDbSymbolTableRecord
100
AcDbLinetypeTableRecord
  2
DASHDOT
 70
              64
  3
Dash dot __ . __ . __ . __ . __ . __ . __ . __
 72
              65
 73
               4
 40
25.399999999999999
 49
12.699999999999999
 74
               0
 49
-6.0
 74
               0
 49
0.7
 74
               0
 49
-6.0
 74
               0
  0
LTYPE
  5
20
100
AcDbSymbolTableRecord
100
AcDbLinetypeTableRecord
  2
DIVIDE
 70
              64
  3
Divide ____ . . ____ . . ____ . . ____ . . ____
 72
              65
 73
               6
 40
31.75
 49
12.699999999999999
 74
               0
 49
-6.0
 74
               0
 49
0.875
 74
               0
 49
-6.0
 74
               0
 49
0.875
 74
               0
 49
-6.0
 74
               0
  0
LTYPE
  5
21
100
AcDbSymbolTableRecord
100
AcDbLinetypeTableRecord
  2
HIDDEN
 70
              64
  3
Hidden __ __ __ __ __ __ __ __ __ __ __ __ __ _
 72
              65
 73
               2
 40
9.5250000000000004
 49
6.3499999999999996
 74
               0
 49
-3.1749999999999998
 74
               0
  0
LTYPE
  5
22
100
AcDbSymbolTableRecord
100
AcDbLinetypeTableRecord
  2
CENTER
 70
              64
  3
Center ____ _ ____ _ ____ _ ____ _ ____ _ ____
 72
              65
 73
               4
 40
50.799999999999997
 49
31.75
 74
               0
 49
-6.3499999999999996
 74
               0
 49
6.3499999999999996
 74
               0
 49
-6.3499999999999996
 74
               0
  0
LTYPE
  5
23
100
AcDbSymbolTableRecord
100
AcDbLinetypeTableRecord
  2
PHANTOM
 70
              64
  3
Phantom ______  __  __  ______  __  __  ______
 72
              65
 73
               6
 40
63.5
 49
31.75
 74
               0
 49
-6.3499999999999996
 74
               0
 49
6.3499999999999996
 74
               0
 49
-6.3499999999999996
 74
               0
 49
6.3499999999999996
 74
               0
 49
-6.3499999999999996
 74
               0
  0
LTYPE
  5
24
100
AcDbSymbolTableRecord
100
AcDbLinetypeTableRecord
  2
ACAD_ISO02W100
 70
              64
  3
ISO dash __ __ __ __ __ __ __ __ __ __ __ __ __
 72
              65
 73
               2
 40
15.0
 49
12.0
 74
               0
 49
-3.0
 74
               0
  0
LTYPE
  5
25
100
AcDbSymbolTableRecord
100
AcDbLinetypeTableRecord
  2
ACAD_ISO03W100
 70
              64
  3
ISO dash space __ __ __ __ __ __ __ __ __ __ __ __ __ __
 72
              65
 73
               2
 40
30.0
 49
12.0
 74
               0
 49
-18.0
 74
               0
  0
LTYPE
  5
26
100
AcDbSymbolTableRecord
100
AcDbLinetypeTableRecord
  2
ACAD_ISO04W100
 70
              64
  3
ISO long-dash dot ____ . ____ . ____ . ____ . _
 72
              65
 73
               4
 40
30.0
 49
24.0
 74
               0
 49
-3.0
 74
               0
 49
0.0
 74
               0
 49
-3.0
 74
               0
  0
LTYPE
  5
27
100
AcDbSymbolTableRecord
100
AcDbLinetypeTableRecord
  2
ACAD_ISO05W100
 70
              64
  3
ISO long-dash double-dot ____ .. ____ .. ____ .
 72
              65
 73
               6
 40
33.0
 49
24.0
 74
               0
 49
-3.0
 74
               0
 49
0.0
 74
               0
 49
-3.0
 74
               0
 49
0.0
 74
               0
 49
-3.0
 74
               0
  0
LTYPE
  5
28
100
AcDbSymbolTableRecord
100
AcDbLinetypeTableRecord
  2
ACAD_ISO06W100
 70
              64
  3
ISO long-dash triple-dot ____ ... ____ ... ____
 72
              65
 73
               8
 40
36.0
 49
24.0
 74
               0
 49
-3.0
 74
               0
 49
0.0
 74
               0
 49
-3.0
 74
               0
 49
0.0
 74
               0
 49
-3.0
 74
               0
 49
0.0
 74
               0
 49
-3.0
 74
               0
  0
LTYPE
  5
29
100
AcDbSymbolTableRecord
100
AcDbLinetypeTableRecord
  2
ACAD_ISO07W100
 70
              64
  3
ISO dot . . . . . . . . . . . . . . . . . . . .
 72
              65
 73
               2
 40
3.0
 49
0.0
 74
               0
 49
-3.0
 74
               0
  0
LTYPE
  5
2A
100
AcDbSymbolTableRecord
100
AcDbLinetypeTableRecord
  2
ACAD_ISO08W100
 70
              64
  3
ISO long-dash short-dash ____ __ ____ __ ____ _
 72
              65
 73
               4
 40
36.0
 49
24.0
 74
               0
 49
-3.0
 74
               0
 49
6.0
 74
               0
 49
-3.0
 74
               0
  0
LTYPE
  5
2B
100
AcDbSymbolTableRecord
100
AcDbLinetypeTableRecord
  2
ACAD_ISO09W100
 70
              64
  3
ISO long-dash double-short-dash ____ __ __ ____
 72
              65
 73
               6
 40
45.0
 49
24.0
 74
               0
 49
-3.0
 74
               0
 49
6.0
 74
               0
 49
-3.0
 74
               0
 49
6.0
 74
               0
 49
-3.0
 74
               0
  0
LTYPE
  5
2C
100
AcDbSymbolTableRecord
100
AcDbLinetypeTableRecord
  2
ACAD_ISO10W100
 70
              64
  3
ISO dash dot __ . __ . __ . __ . __ . __ . __ .
 72
              65
 73
               4
 40
18.0
 49
12.0
 74
               0
 49
-3.0
 74
               0
 49
0.0
 74
               0
 49
-3.0
 74
               0
  0
LTYPE
  5
2D
100
AcDbSymbolTableRecord
100
AcDbLinetypeTableRecord
  2
ACAD_ISO11W100
 70
              64
  3
ISO double-dash dot __ __ . __ __ . __ __ . __ 
 72
              65
 73
               6
 40
33.0
 49
12.0
 74
               0
 49
-3.0
 74
               0
 49
12.0
 74
               0
 49
-3.0
 74
               0
 49
0.0
 74
               0
 49
-3.0
 74
               0
  0
LTYPE
  5
2E
100
AcDbSymbolTableRecord
100
AcDbLinetypeTableRecord
  2
ACAD_ISO12W100
 70
              64
  3
ISO dash double-dot __ . . __ . . __ . . __ . .
 72
              65
 73
               6
 40
21.0
 49
12.0
 74
               0
 49
-3.0
 74
               0
 49
0.0
 74
               0
 49
-3.0
 74
               0
 49
0.0
 74
               0
 49
-3.0
 74
               0
  0
LTYPE
  5
2F
100
AcDbSymbolTableRecord
100
AcDbLinetypeTableRecord
  2
ACAD_ISO13W100
 70
              64
  3
ISO double-dash double-dot __ __ . . __ __ . . 
 72
              65
 73
               8
 40
36.0
 49
12.0
 74
               0
 49
-3.0
 74
               0
 49
12.0
 74
               0
 49
-3.0
 74
               0
 49
0.0
 74
               0
 49
-3.0
 74
               0
 49
0.0
 74
               0
 49
-3.0
 74
               0
  0
LTYPE
  5
30
100
AcDbSymbolTableRecord
100
AcDbLinetypeTableRecord
  2
ACAD_ISO14W100
 70
              64
  3
ISO dash triple-dot __ . . . __ . . . __ . . . 
 72
              65
 73
               8
 40
24.0
 49
12.0
 74
               0
 49
-3.0
 74
               0
 49
0.0
 74
               0
 49
-3.0
 74
               0
 49
0.0
 74
               0
 49
-3.0
 74
               0
 49
0.0
 74
               0
 49
-3.0
 74
               0
  0
LTYPE
  5
31
100
AcDbSymbolTableRecord
100
AcDbLinetypeTableRecord
  2
ACAD_ISO15W100
 70
              64
  3
ISO double-dash double-dot __ __ . . __ __ . . 
 72
              65
 73
              10
 40
39.0
 49
12.0
 74
               0
 49
-3.0
 74
               0
 49
12.0
 74
               0
 49
-3.0
 74
               0
 49
0.0
 74
               0
 49
-3.0
 74
               0
 49
0.0
 74
               0
 49
-3.0
 74
               0
 49
0.0
 74
               0
 49
-3.0
 74
               0
  0
ENDTAB
  0
TABLE
  2
LAYER
  5
2
100
AcDbSymbolTable
 70
              16
  0
LAYER
  5
14
100
AcDbSymbolTableRecord
100
AcDbLayerTableRecord
  2
0
 70
               0
 62
               7
  6
Continuous
  0
LAYER
  5
35
100
AcDbSymbolTableRecord
100
AcDbLayerTableRecord
  2
Layer00001
 70
               0
 62
               7
  6
Continuous
  0
LAYER
  5
36
100
AcDbSymbolTableRecord
100
AcDbLayerTableRecord
  2
Layer00002
 70
               0
 62
               7
  6
Continuous
  0
LAYER
  5
37
100
AcDbSymbolTableRecord
100
AcDbLayerTableRecord
  2
Layer00003
 70
               0
 62
               7
  6
Continuous
  0
LAYER
  5
38
100
AcDbSymbolTableRecord
100
AcDbLayerTableRecord
  2
Layer00004
 70
               0
 62
               7
  6
Continuous
  0
LAYER
  5
39
100
AcDbSymbolTableRecord
100
AcDbLayerTableRecord
  2
Layer00005
 70
               0
 62
               7
  6
Continuous
  0
LAYER
  5
3A
100
AcDbSymbolTableRecord
100
AcDbLayerTableRecord
  2
Layer00006
 70
               0
 62
               7
  6
Continuous
  0
LAYER
  5
3B
100
AcDbSymbolTableRecord
100
AcDbLayerTableRecord
  2
Layer00007
 70
               0
 62
               7
  6
Continuous
  0
LAYER
  5
3C
100
AcDbSymbolTableRecord
100
AcDbLayerTableRecord
  2
Layer00008
 70
               0
 62
               7
  6
Continuous
  0
LAYER
  5
3D
100
AcDbSymbolTableRecord
100
AcDbLayerTableRecord
  2
Layer00009
 70
               0
 62
               7
  6
Continuous
  0
LAYER
  5
3E
100
AcDbSymbolTableRecord
100
AcDbLayerTableRecord
  2
Layer00010
 70
               0
 62
               7
  6
Continuous
  0
LAYER
  5
3F
100
AcDbSymbolTableRecord
100
AcDbLayerTableRecord
  2
Layer00011
 70
               0
 62
               7
  6
Continuous
  0
LAYER
  5
40
100
AcDbSymbolTableRecord
100
AcDbLayerTableRecord
  2
Layer00012
 70
               0
 62
               7
  6
Continuous
  0
LAYER
  5
41
100
AcDbSymbolTableRecord
100
AcDbLayerTableRecord
  2
Layer00013
 70
               0
 62
               7
  6
Continuous
  0
LAYER
  5
42
100
AcDbSymbolTableRecord
100
AcDbLayerTableRecord
  2
Layer00014
 70
               0
 62
               7
  6
Continuous
  0
LAYER
  5
43
100
AcDbSymbolTableRecord
100
AcDbLayerTableRecord
  2
Layer00015
 70
               0
 62
               7
  6
Continuous
  0
ENDTAB
  0
TABLE
  2
STYLE
  5
3
100
AcDbSymbolTable
 70
               4
  0
STYLE
  5
17
100
AcDbSymbolTableRecord
100
AcDbTextStyleTableRecord
  2
Standard
 70
               0
 40
0.0
 41
1.0
 50
0.0
 71
               0
 42
0.0
  3
txt.shx
  4
bigfont.shx
  0
STYLE
  5
32
100
AcDbSymbolTableRecord
100
AcDbTextStyleTableRecord
  2
STANDARD_T
 70
               4
 40
0.0
 41
1.0
 50
0.0
 71
               0
 42
0.0
  3
txt.shx
  4
bigfont.shx
  0
STYLE
  5
33
100
AcDbSymbolTableRecord
100
AcDbTextStyleTableRecord
  2
FontTableH_0
 70
               0
 40
0.0
 41
1.0
 50
0.0
 71
               0
 42
0.0
  3
MS Gothic.ttf
  4

1001
ACAD
1000
MS Gothic
1071
    32817
  0
STYLE
  5
34
100
AcDbSymbolTableRecord
100
AcDbTextStyleTableRecord
  2
FontTableV_0
 70
               0
 40
0.0
 41
1.0
 50
0.0
 71
               0
 42
0.0
  3
@MS Gothic.ttf
  4

1001
ACAD
1000
@MS Gothic
1071
    32817
  0
ENDTAB
  0
TABLE
  2
VIEW
  5
5
100
AcDbSymbolTable
 70
               0
  0
ENDTAB
  0
TABLE
  2
UCS
  5
6
100
AcDbSymbolTable
 70
               0
  0
ENDTAB
  0
TABLE
  2
APPID
  5
8
100
AcDbSymbolTable
 70
               1
  0
APPID
  5
16
100
AcDbSymbolTableRecord
100
AcDbRegAppTableRecord
  2
ACAD
 70
               0
  0
ENDTAB
  0
TABLE
  2
DIMSTYLE
  5
9
100
AcDbSymbolTable
 70
               1
  0
DIMSTYLE
105
18
100
AcDbSymbolTableRecord
100
AcDbDimStyleTableRecord
  2
Standard
 70
               0
  3

  4

  5

  6

  7

 40
1.0
 41
0.18
 42
0.0625
 43
0.38
 44
0.18
 45
0.0
 46
0.0
 47
0.0
 48
0.0
 71
               0
 72
               0
 73
               1
 74
               1
 75
               0
 76
               0
 77
               0
 78
               0
140
0.18
141
0.09
142
0.0
143
25.399999999999999
144
1.0
145
0.0
146
1.0
147
0.09
170
               0
171
               2
172
               0
173
               0
174
               0
175
               0
176
               0
177
               0
178
               0
270
               2
271
               4
272
               4
273
               2
274
               2
275
               0
280
               0
281
               0
282
               0
283
               1
284
               0
285
               0
286
               0
287
               0
288
               0
340
17
  0
ENDTAB
  0
TABLE
  2
BLOCK_RECORD
  5
1
100
AcDbSymbolTable
 70
               0
  0
BLOCK_RECORD
  5
A
100
AcDbSymbolTableRecord
100
AcDbBlockTableRecord
  2
*MODEL_SPACE
  0
BLOCK_RECORD
  5
B
100
AcDbSymbolTableRecord
100
AcDbBlockTableRecord
  2
*PAPER_SPACE
  0
ENDTAB
  0
ENDSEC
  0
SECTION
  2
BLOCKS
  0
BLOCK
  5
D
100
AcDbEntity
  8
0
100
AcDbBlockBegin
  2
*MODEL_SPACE
 70
               0
 10
0.0
 20
0.0
 30
0.0
  3
*MODEL_SPACE
  1

  0
ENDBLK
  5
E
100
AcDbEntity
  8
0
100
AcDbBlockEnd
  0
BLOCK
  5
F
100
AcDbEntity
 67
               1
  8
0
100
AcDbBlockBegin
  2
*PAPER_SPACE
 70
               0
 10
0.0
 20
0.0
 30
0.0
  3
*PAPER_SPACE
  1

  0
ENDBLK
  5
10
100
AcDbEntity
 67
               1
  8
0
100
AcDbBlockEnd
  0
ENDSEC
  0
SECTION
  2
ENTITIES
  0
LINE
  5
44
100
AcDbEntity
  8
0
  6
Continuous
 62
               4
100
AcDbLine
 10
239.37399374667729
 20
369.31936126188384
 30
0.0
 11
239.37399374667729
 21
411.31936126188361
 31
0.0
  0
LINE
  5
45
100
AcDbEntity
  8
0
  6
Continuous
 62
               4
100
AcDbLine
 10
299.37399374667729
 20
369.31936126188407
 30
0.0
 11
299.37399374667751
 21
411.31936126188361
 31
0.0
  0
LINE
  5
46
100
AcDbEntity
  8
0
  6
Continuous
 62
               4
100
AcDbLine
 10
239.37399374667729
 20
408.31936126188361
 30
0.0
 11
299.37399374667751
 21
408.31936126188361
 31
0.0
  0
LINE
  5
47
100
AcDbEntity
  8
0
  6
Continuous
 62
               4
100
AcDbLine
 10
244.54095167795498
 20
352.41291270581996
 30
0.0
 11
244.54095167795498
 21
393.31936126188384
 31
0.0
  0
LINE
  5
48
100
AcDbEntity
  8
0
  6
Continuous
 62
               4
100
AcDbLine
 10
294.20703581539982
 20
352.41291270581996
 30
0.0
 11
294.20703581540005
 21
393.31936126188384
 31
0.0
  0
LINE
  5
49
100
AcDbEntity
  8
0
  6
Continuous
 62
               4
100
AcDbLine
 10
244.54095167795498
 20
390.31936126188384
 30
0.0
 11
294.20703581540005
 21
390.31936126188384
 31
0.0
  0
LINE
  5
4A
100
AcDbEntity
  8
0
  6
Continuous
 62
               3
100
AcDbLine
 10
169.37399374667712
 20
327.31936126188413
 30
0.0
 11
522.87399374667712
 21
327.31936126188413
 31
0.0
  0
LINE
  5
4B
100
AcDbEntity
  8
0
  6
Continuous
 62
               3
100
AcDbLine
 10
169.37399374667712
 20
315.31936126188413
 30
0.0
 11
522.87399374667712
 21
315.31936126188413
 31
0.0
  0
LINE
  5
4C
100
AcDbEntity
  8
0
  6
Continuous
 62
               6
100
AcDbLine
 10
518.27399384204455
 20
315.31936126188413
 30
0.0
 11
477.47399365130974
 21
315.31936126188413
 31
0.0
  0
LINE
  5
4D
100
AcDbEntity
  8
0
  6
Continuous
 62
               6
100
AcDbLine
 10
472.87399374667717
 20
310.7193613572515
 30
0.0
 11
472.87399374667717
 21
295.3193612618839
 31
0.0
  0
LINE
  5
4E
100
AcDbEntity
  8
0
  6
Continuous
 62
               6
100
AcDbLine
 10
472.87399374667717
 20
295.3193612618839
 30
0.0
 11
475.17399369899346
 21
295.3193612618839
 31
0.0
  0
LINE
  5
4F
100
AcDbEntity
  8
0
  6
Continuous
 62
               6
100
AcDbLine
 10
475.17399369899346
 20
295.3193612618839
 30
0.0
 11
475.17399369899346
 21
310.7193613572515
 31
0.0
  0
LINE
  5
50
100
AcDbEntity
  8
0
  6
Continuous
 62
               6
100
AcDbLine
 10
477.47399365130974
 20
313.01936130956778
 30
0.0
 11
518.27399384204455
 21
313.01936130956778
 31
0.0
  0
LINE
  5
51
100
AcDbEntity
  8
0
  6
Continuous
 62
               6
100
AcDbLine
 10
520.57399379436083
 20
310.7193613572515
 30
0.0
 11
520.57399379436083
 21
219.91936116651652
 31
0.0
  0
LINE
  5
52
100
AcDbEntity
  8
0
  6
Continuous
 62
               6
100
AcDbLine
 10
518.27399384204455
 20
217.61936121420018
 30
0.0
 11
477.47399365130974
 21
217.61936121420018
 31
0.0
  0
LINE
  5
53
100
AcDbEntity
  8
0
  6
Continuous
 62
               6
100
AcDbLine
 10
475.17399369899346
 20
219.91936116651652
 30
0.0
 11
475.17399369899346
 21
235.3193612618839
 31
0.0
  0
LINE
  5
54
100
AcDbEntity
  8
0
  6
Continuous
 62
               6
100
AcDbLine
 10
475.17399369899346
 20
235.3193612618839
 30
0.0
 11
472.87399374667717
 21
235.3193612618839
 31
0.0
  0
LINE
  5
55
100
AcDbEntity
  8
0
  6
Continuous
 62
               6
100
AcDbLine
 10
472.87399374667717
 20
235.3193612618839
 30
0.0
 11
472.87399374667717
 21
219.91936116651652
 31
0.0
  0
LINE
  5
56
100
AcDbEntity
  8
0
  6
Continuous
 62
               6
100
AcDbLine
 10
477.47399365130974
 20
215.3193612618839
 30
0.0
 11
518.27399384204455
 21
215.3193612618839
 31
0.0
  0
LINE
  5
57
100
AcDbEntity
  8
0
  6
Continuous
 62
               6
100
AcDbLine
 10
522.87399374667712
 20
219.91936116651652
 30
0.0
 11
522.87399374667712
 21
310.7193613572515
 31
0.0
  0
LINE
  5
58
100
AcDbEntity
  8
0
  6
Continuous
 62
               7
100
AcDbLine
 10
172.02875595511642
 20
315.31936126188413
 30
0.0
 11
169.37399374667712
 21
317.97412347032338
 31
0.0
  0
LINE
  5
59
100
AcDbEntity
  8
0
  6
Continuous
 62
               7
100
AcDbLine
 10
179.09982376698196
 20
315.31936126188413
 30
0.0
 11
169.37399374667712
 21
325.0451912821888
 31
0.0
  0
LINE
  5
5A
100
AcDbEntity
  8
0
  6
Continuous
 62
               7
100
AcDbLine
 10
186.17089157884743
 20
315.31936126188413
 30
0.0
 11
174.17089157884743
 21
327.31936126188401
 31
0.0
  0
LINE
  5
5B
100
AcDbEntity
  8
0
  6
Continuous
 62
               7
100
AcDbLine
 10
193.24195939071296
 20
315.31936126188413
 30
0.0
 11
181.24195939071296
 21
327.31936126188401
 31
0.0
  0
LINE
  5
5C
100
AcDbEntity
  8
0
  6
Continuous
 62
               7
100
AcDbLine
 10
200.31302720257833
 20
315.31936126188413
 30
0.0
 11
188.31302720257833
 21
327.31936126188401
 31
0.0
  0
LINE
  5
5D
100
AcDbEntity
  8
0
  6
Continuous
 62
               7
100
AcDbLine
 10
207.38409501444386
 20
315.31936126188413
 30
0.0
 11
195.38409501444386
 21
327.31936126188401
 31
0.0
  0
LINE
  5
5E
100
AcDbEntity
  8
0
  6
Continuous
 62
               7
100
AcDbLine
 10
214.45516282630933
 20
315.31936126188413
 30
0.0
 11
202.45516282630933
 21
327.31936126188401
 31
0.0
  0
LINE
  5
5F
100
AcDbEntity
  8
0
  6
Continuous
 62
               7
100
AcDbLine
 10
221.52623063817487
 20
315.31936126188413
 30
0.0
 11
209.52623063817487
 21
327.31936126188401
 31
0.0
  0
LINE
  5
60
100
AcDbEntity
  8
0
  6
Continuous
 62
               7
100
AcDbLine
 10
228.59729845004023
 20
315.31936126188413
 30
0.0
 11
216.59729845004023
 21
327.31936126188401
 31
0.0
  0
LINE
  5
61
100
AcDbEntity
  8
0
  6
Continuous
 62
               7
100
AcDbLine
 10
235.66836626190576
 20
315.31936126188413
 30
0.0
 11
223.66836626190576
 21
327.31936126188401
 31
0.0
  0
LINE
  5
62
100
AcDbEntity
  8
0
  6
Continuous
 62
               7
100
AcDbLine
 10
242.73943407377129
 20
315.31936126188413
 30
0.0
 11
230.73943407377124
 21
327.31936126188401
 31
0.0
  0
LINE
  5
63
100
AcDbEntity
  8
0
  6
Continuous
 62
               7
100
AcDbLine
 10
249.81050188563671
 20
315.31936126188413
 30
0.0
 11
237.81050188563677
 21
327.31936126188401
 31
0.0
  0
LINE
  5
64
100
AcDbEntity
  8
0
  6
Continuous
 62
               7
100
AcDbLine
 10
256.88156969750224
 20
315.31936126188413
 30
0.0
 11
244.88156969750224
 21
327.31936126188401
 31
0.0
  0
LINE
  5
65
100
AcDbEntity
  8
0
  6
Continuous
 62
               7
100
AcDbLine
 10
263.95263750936766
 20
315.31936126188413
 30
0.0
 11
251.95263750936766
 21
327.31936126188401
 31
0.0
  0
LINE
  5
66
100
AcDbEntity
  8
0
  6
Continuous
 62
               7
100
AcDbLine
 10
271.02370532123319
 20
315.31936126188413
 30
0.0
 11
259.02370532123319
 21
327.31936126188401
 31
0.0
  0
LINE
  5
67
100
AcDbEntity
  8
0
  6
Continuous
 62
               7
100
AcDbLine
 10
278.09477313309861
 20
315.31936126188413
 30
0.0
 11
266.09477313309861
 21
327.31936126188401
 31
0.0
  0
LINE
  5
68
100
AcDbEntity
  8
0
  6
Continuous
 62
               7
100
AcDbLine
 10
285.16584094496415
 20
315.31936126188413
 30
0.0
 11
273.16584094496415
 21
327.31936126188401
 31
0.0
  0
LINE
  5
69
100
AcDbEntity
  8
0
  6
Continuous
 62
               7
100
AcDbLine
 10
292.23690875682956
 20
315.31936126188413
 30
0.0
 11
280.23690875682956
 21
327.31936126188401
 31
0.0
  0
LINE
  5
6A
100
AcDbEntity
  8
0
  6
Continuous
 62
               7
100
AcDbLine
 10
299.3079765686951
 20
315.31936126188413
 30
0.0
 11
287.3079765686951
 21
327.31936126188401
 31
0.0
  0
LINE
  5
6B
100
AcDbEntity
  8
0
  6
Continuous
 62
               7
100
AcDbLine
 10
306.37904438056052
 20
315.31936126188413
 30
0.0
 11
294.37904438056052
 21
327.31936126188401
 31
0.0
  0
LINE
  5
6C
100
AcDbEntity
  8
0
  6
Continuous
 62
               7
100
AcDbLine
 10
313.45011219242605
 20
315.31936126188413
 30
0.0
 11
301.45011219242605
 21
327.31936126188401
 31
0.0
  0
LINE
  5
6D
100
AcDbEntity
  8
0
  6
Continuous
 62
               7
100
AcDbLine
 10
320.52118000429147
 20
315.31936126188413
 30
0.0
 11
308.52118000429147
 21
327.31936126188401
 31
0.0
  0
LINE
  5
6E
100
AcDbEntity
  8
0
  6
Continuous
 62
               7
100
AcDbLine
 10
327.592247816157
 20
315.31936126188413
 30
0.0
 11
315.592247816157
 21
327.31936126188401
 31
0.0
  0
LINE
  5
6F
100
AcDbEntity
  8
0
  6
Continuous
 62
               7
100
AcDbLine
 10
334.66331562802242
 20
315.31936126188413
 30
0.0
 11
322.66331562802242
 21
327.31936126188401
 31
0.0
  0
LINE
  5
70
100
AcDbEntity
  8
0
  6
Continuous
 62
               7
100
AcDbLine
 10
341.73438343988795
 20
315.31936126188413
 30
0.0
 11
329.73438343988795
 21
327.31936126188401
 31
0.0
  0
LINE
  5
71
100
AcDbEntity
  8
0
  6
Continuous
 62
               7
100
AcDbLine
 10
348.80545125175337
 20
315.31936126188413
 30
0.0
 11
336.80545125175337
 21
327.31936126188401
 31
0.0
  0
LINE
  5
72
100
AcDbEntity
  8
0
  6
Continuous
 62
               7
100
AcDbLine
 10
352.57593382310978
 20
318.61994650239308
 30
0.0
 11
343.8765190636189
 21
327.31936126188401
 31
0.0
  0
LINE
  5
73
100
AcDbEntity
  8
0
  6
Continuous
 62
               7
100
AcDbLine
 10
352.57593382310978
 20
325.6910143142585
 30
0.0
 11
350.94758687548432
 21
327.31936126188401
 31
0.0
  0
LINE
  5
74
100
AcDbEntity
  8
0
  6
Continuous
 62
               7
100
AcDbLine
 10
384.1607903110808
 20
315.31936126188413
 30
0.0
 11
382.9766684625576
 21
316.50348311040733
 31
0.0
  0
LINE
  5
75
100
AcDbEntity
  8
0
  6
Continuous
 62
               7
100
AcDbLine
 10
391.23185812294622
 20
315.31936126188413
 30
0.0
 11
382.9766684625576
 21
323.57455092227269
 31
0.0
  0
LINE
  5
76
100
AcDbEntity
  8
0
  6
Continuous
 62
               7
100
AcDbLine
 10
398.30292593481175
 20
315.31936126188413
 30
0.0
 11
386.30292593481175
 21
327.31936126188401
 31
0.0
  0
LINE
  5
77
100
AcDbEntity
  8
0
  6
Continuous
 62
               7
100
AcDbLine
 10
405.37399374667717
 20
315.31936126188413
 30
0.0
 11
393.37399374667717
 21
327.31936126188401
 31
0.0
  0
LINE
  5
78
100
AcDbEntity
  8
0
  6
Continuous
 62
               7
100
AcDbLine
 10
412.4450615585427
 20
315.31936126188413
 30
0.0
 11
400.4450615585427
 21
327.31936126188401
 31
0.0
  0
LINE
  5
79
100
AcDbEntity
  8
0
  6
Continuous
 62
               7
100
AcDbLine
 10
419.51612937040812
 20
315.31936126188413
 30
0.0
 11
407.51612937040812
 21
327.31936126188401
 31
0.0
  0
LINE
  5
7A
100
AcDbEntity
  8
0
  6
Continuous
 62
               7
100
AcDbLine
 10
426.58722007226407
 20
315.31936126188413
 30
0.0
 11
414.58719718227366
 21
327.31936126188401
 31
0.0
  0
LINE
  5
7B
100
AcDbEntity
  8
0
  6
Continuous
 62
               7
100
AcDbLine
 10
433.65826499413907
 20
315.31936126188413
 30
0.0
 11
421.65826499413907
 21
327.31936126188401
 31
0.0
  0
LINE
  5
7C
100
AcDbEntity
  8
0
  6
Continuous
 62
               7
100
AcDbLine
 10
440.72933280600461
 20
315.31936126188413
 30
0.0
 11
428.72933280600461
 21
327.31936126188401
 31
0.0
  0
LINE
  5
7D
100
AcDbEntity
  8
0
  6
Continuous
 62
               7
100
AcDbLine
 10
447.80040061787003
 20
315.31936126188413
 30
0.0
 11
435.80040061787003
 21
327.31936126188401
 31
0.0
  0
LINE
  5
7E
100
AcDbEntity
  8
0
  6
Continuous
 62
               7
100
AcDbLine
 10
454.87146842973556
 20
315.31936126188413
 30
0.0
 11
442.87146842973556
 21
327.31936126188401
 31
0.0
  0
LINE
  5
7F
100
AcDbEntity
  8
0
  6
Continuous
 62
               7
100
AcDbLine
 10
461.94253624160109
 20
315.31936126188413
 30
0.0
 11
449.94253624160098
 21
327.31936126188401
 31
0.0
  0
LINE
  5
80
100
AcDbEntity
  8
0
  6
Continuous
 62
               7
100
AcDbLine
 10
469.01360405346651
 20
315.31936126188413
 30
0.0
 11
457.01360405346651
 21
327.31936126188401
 31
0.0
  0
LINE
  5
81
100
AcDbEntity
  8
0
  6
Continuous
 62
               7
100
AcDbLine
 10
476.08467186533193
 20
315.31936126188413
 30
0.0
 11
464.08467186533193
 21
327.31936126188401
 31
0.0
  0
LINE
  5
82
100
AcDbEntity
  8
0
  6
Continuous
 62
               7
100
AcDbLine
 10
483.15573967719746
 20
315.31936126188413
 30
0.0
 11
471.15573967719746
 21
327.31936126188401
 31
0.0
  0
LINE
  5
83
100
AcDbEntity
  8
0
  6
Continuous
 62
               7
100
AcDbLine
 10
490.22680748906299
 20
315.31936126188413
 30
0.0
 11
478.22680748906288
 21
327.31936126188401
 31
0.0
  0
LINE
  5
84
100
AcDbEntity
  8
0
  6
Continuous
 62
               7
100
AcDbLine
 10
497.29787530092841
 20
315.31936126188413
 30
0.0
 11
485.29787530092841
 21
327.31936126188401
 31
0.0
  0
LINE
  5
85
100
AcDbEntity
  8
0
  6
Continuous
 62
               7
100
AcDbLine
 10
504.36894311279383
 20
315.31936126188413
 30
0.0
 11
492.36894311279383
 21
327.31936126188401
 31
0.0
  0
LINE
  5
86
100
AcDbEntity
  8
0
  6
Continuous
 62
               7
100
AcDbLine
 10
511.44001092465936
 20
315.31936126188413
 30
0.0
 11
499.44001092465936
 21
327.31936126188401
 31
0.0
  0
LINE
  5
87
100
AcDbEntity
  8
0
  6
Continuous
 62
               7
100
AcDbLine
 10
518.51107873652495
 20
315.31936126188413
 30
0.0
 11
506.51107873652478
 21
327.31936126188413
 31
0.0
  0
LINE
  5
88
100
AcDbEntity
  8
0
  6
Continuous
 62
               7
100
AcDbLine
 10
522.87399374667712
 20
318.0275140635971
 30
0.0
 11
513.58214654839026
 21
327.31936126188413
 31
0.0
  0
LINE
  5
89
100
AcDbEntity
  8
0
  6
Continuous
 62
               7
100
AcDbLine
 10
522.87399374667712
 20
325.09858187546263
 30
0.0
 11
520.65321436025579
 21
327.31936126188413
 31
0.0
  0
LINE
  5
8A
100
AcDbEntity
  8
0
  6
Continuous
 62
               6
100
AcDbLine
 10
472.87398156563455
 20
315.31936126188413
 30
0.0
 11
472.87399374667717
 21
215.3193612618839
 31
0.0
  0
LINE
  5
8B
100
AcDbEntity
  8
0
  6
Continuous
 62
               6
100
AcDbLine
 10
169.37399374667712
 20
215.3193612618839
 30
0.0
 11
472.87399374667717
 21
215.3193612618839
 31
0.0
  0
LINE
  5
8C
100
AcDbEntity
  8
0
  6
Continuous
 62
               6
100
AcDbLine
 10
169.37399374667712
 20
235.3193612618839
 30
0.0
 11
472.87399374667717
 21
235.3193612618839
 31
0.0
  0
LINE
  5
8D
100
AcDbEntity
  8
0
  6
Continuous
 62
               6
100
AcDbLine
 10
169.37399374667712
 20
295.3193612618839
 30
0.0
 11
472.87399374667717
 21
295.3193612618839
 31
0.0
  0
LINE
  5
8E
100
AcDbEntity
  8
0
  6
DASHED
 62
               6
100
AcDbLine
 10
169.37399374667712
 20
313.01936126188411
 30
0.0
 11
472.87399374667717
 21
313.01936126188411
 31
0.0
  0
LINE
  5
8F
100
AcDbEntity
  8
0
  6
DASHED
 62
               6
100
AcDbLine
 10
169.37399374667712
 20
217.6193612618838
 30
0.0
 11
472.87399374667717
 21
217.6193612618838
 31
0.0
  0
LINE
  5
90
100
AcDbEntity
  8
0
  6
Continuous
 62
               6
100
AcDbLine
 10
492.87399374667717
 20
215.3193612618839
 30
0.0
 11
462.87399374667717
 21
215.3193612618839
 31
0.0
  0
LINE
  5
91
100
AcDbEntity
  8
0
  6
Continuous
 62
               6
100
AcDbLine
 10
462.87399374667717
 20
215.3193612618839
 30
0.0
 11
462.87399374667717
 21
214.3193612618839
 31
0.0
  0
LINE
  5
92
100
AcDbEntity
  8
0
  6
Continuous
 62
               6
100
AcDbLine
 10
464.87399374667717
 20
212.3193612618839
 30
0.0
 11
485.87399374667717
 21
212.3193612618839
 31
0.0
  0
LINE
  5
93
100
AcDbEntity
  8
0
  6
Continuous
 62
               6
100
AcDbLine
 10
489.87399374667717
 20
208.3193612618839
 30
0.0
 11
489.87399374667717
 21
187.3193612618839
 31
0.0
  0
LINE
  5
94
100
AcDbEntity
  8
0
  6
Continuous
 62
               6
100
AcDbLine
 10
491.87399374667717
 20
185.3193612618839
 30
0.0
 11
492.87399374667717
 21
185.3193612618839
 31
0.0
  0
LINE
  5
95
100
AcDbEntity
  8
0
  6
Continuous
 62
               6
100
AcDbLine
 10
492.87399374667717
 20
185.3193612618839
 30
0.0
 11
492.87399374667717
 21
215.3193612618839
 31
0.0
  0
LINE
  5
96
100
AcDbEntity
  8
0
  6
Continuous
 62
               6
100
AcDbLine
 10
492.87399374667729
 20
180.3193612618839
 30
0.0
 11
522.87399374667734
 21
180.31936126188401
 31
0.0
  0
LINE
  5
97
100
AcDbEntity
  8
0
  6
Continuous
 62
               6
100
AcDbLine
 10
522.87399374667734
 20
180.31936126188401
 30
0.0
 11
522.87399374667734
 21
181.31936126188401
 31
0.0
  0
LINE
  5
98
100
AcDbEntity
  8
0
  6
Continuous
 62
               6
100
AcDbLine
 10
520.87399374667734
 20
183.31936126188401
 30
0.0
 11
499.87399374667729
 21
183.3193612618839
 31
0.0
  0
LINE
  5
99
100
AcDbEntity
  8
0
  6
Continuous
 62
               6
100
AcDbLine
 10
495.87399374667729
 20
187.3193612618839
 30
0.0
 11
495.87399374667717
 21
208.3193612618839
 31
0.0
  0
LINE
  5
9A
100
AcDbEntity
  8
0
  6
Continuous
 62
               6
100
AcDbLine
 10
493.87399374667717
 20
210.3193612618839
 30
0.0
 11
492.87399374667717
 21
210.3193612618839
 31
0.0
  0
LINE
  5
9B
100
AcDbEntity
  8
0
  6
Continuous
 62
               6
100
AcDbLine
 10
492.87399374667717
 20
210.3193612618839
 30
0.0
 11
492.87399374667729
 21
180.3193612618839
 31
0.0
  0
LINE
  5
9C
100
AcDbEntity
  8
0
  6
Continuous
 62
               4
100
AcDbLine
 10
522.87399374667666
 20
145.72361142034538
 30
0.0
 11
599.37399374667825
 21
187.00415566740412
 31
0.0
  0
LINE
  5
9D
100
AcDbEntity
  8
0
  6
Continuous
 62
               4
100
AcDbLine
 10
599.37399374667825
 20
187.00415566740412
 30
0.0
 11
626.45948740898734
 21
187.00415566740412
 31
0.0
  0
LINE
  5
9E
100
AcDbEntity
  8
0
  6
Continuous
 62
               4
100
AcDbLine
 10
522.87399374667666
 20
145.72361142034538
 30
0.0
 11
531.33122733374989
 21
148.80179271027652
 31
0.0
  0
LINE
  5
9F
100
AcDbEntity
  8
0
  6
Continuous
 62
               4
100
AcDbLine
 10
522.87399374667666
 20
145.72361142034538
 30
0.0
 11
529.76839373474741
 21
151.50869990752432
 31
0.0
  0
LINE
  5
A0
100
AcDbEntity
  8
0
  6
Continuous
 62
               4
100
AcDbLine
 10
365.37399374667717
 20
315.31936126188413
 30
0.0
 11
365.37399374667717
 21
327.31936126188401
 31
0.0
  0
LINE
  5
A1
100
AcDbEntity
  8
0
  6
Continuous
 62
               2
100
AcDbLine
 10
522.87399374667666
 20
159.31936126188401
 30
0.0
 11
522.87399374667734
 21
124.31936126188401
 31
0.0
  0
LINE
  5
A2
100
AcDbEntity
  8
0
  6
Continuous
 62
               2
100
AcDbLine
 10
520.51045046866852
 20
141.2967485853344
 30
0.0
 11
521.37399374667712
 21
124.81936126188401
 31
0.0
  0
LINE
  5
A3
100
AcDbEntity
  8
0
  6
Continuous
 62
               3
100
AcDbLine
 10
521.37399374667666
 20
158.3193612618839
 30
0.0
 11
169.37399374667712
 21
158.31936126188009
 31
0.0
  0
LINE
  5
A4
100
AcDbEntity
  8
0
  6
Continuous
 62
               2
100
AcDbLine
 10
522.87399374667666
 20
159.31936126188401
 30
0.0
 11
482.87399374667672
 21
159.31936126188361
 31
0.0
  0
LINE
  5
A5
100
AcDbEntity
  8
0
  6
Continuous
 62
               3
100
AcDbLine
 10
521.37399374667666
 20
158.3193612618839
 30
0.0
 11
521.37399374667689
 21
149.31936126188401
 31
0.0
  0
LINE
  5
A6
100
AcDbEntity
  8
0
  6
Continuous
 62
               3
100
AcDbLine
 10
521.37399374667689
 20
149.31936126188401
 30
0.0
 11
169.37399374667712
 21
149.3193612618802
 31
0.0
  0
LINE
  5
A7
100
AcDbEntity
  8
0
  6
Continuous
 62
               7
100
AcDbLine
 10
521.37399374667689
 20
151.56936126188401
 30
0.0
 11
169.37399374667712
 21
151.5693612618802
 31
0.0
  0
LINE
  5
A8
100
AcDbEntity
  8
0
  6
Continuous
 62
               7
100
AcDbLine
 10
521.37399374667689
 20
153.8193612618839
 30
0.0
 11
169.37399374667712
 21
153.81936126188009
 31
0.0
  0
LINE
  5
A9
100
AcDbEntity
  8
0
  6
Continuous
 62
               7
100
AcDbLine
 10
521.37399374667666
 20
156.0693612618839
 30
0.0
 11
169.37399374667712
 21
156.06936126188009
 31
0.0
  0
LINE
  5
AA
100
AcDbEntity
  8
0
  6
DIVIDE
 62
               4
100
AcDbLine
 10
522.87399374667666
 20
160.31936126188401
 30
0.0
 11
169.37399374667712
 21
160.31936126188373
 31
0.0
  0
LINE
  5
AB
100
AcDbEntity
  8
0
  6
DIVIDE
 62
               4
100
AcDbLine
 10
522.87399374667666
 20
160.31936126188401
 30
0.0
 11
522.87399374667643
 21
180.31936126188413
 31
0.0
  0
LINE
  5
AC
100
AcDbEntity
  8
0
  6
DIVIDE
 62
               4
100
AcDbLine
 10
522.87399374667666
 20
160.81936126188401
 30
0.0
 11
169.37399374667712
 21
160.81936126188373
 31
0.0
  0
LINE
  5
AD
100
AcDbEntity
  8
0
  6
Continuous
 62
               7
100
AcDbLine
 10
508.75421694069831
 20
177.45975863843921
 30
0.0
 11
508.75421694069763
 21
158.95975863843881
 31
0.0
  0
LINE
  5
AE
100
AcDbEntity
  8
0
  6
Continuous
 62
               7
100
AcDbLine
 10
506.2542169406974
 20
156.95975863843893
 30
0.0
 11
506.2542169406974
 21
158.95975863843893
 31
0.0
  0
LINE
  5
AF
100
AcDbEntity
  8
0
  6
Continuous
 62
               7
100
AcDbLine
 10
513.75421694069837
 20
177.45975863843898
 30
0.0
 11
513.75421694069746
 21
158.95975863843859
 31
0.0
  0
LINE
  5
B0
100
AcDbEntity
  8
0
  6
Continuous
 62
               7
100
AcDbLine
 10
516.25421694069746
 20
156.95975863843853
 30
0.0
 11
516.25421694069769
 21
158.9597586384387
 31
0.0
  0
LINE
  5
B1
100
AcDbEntity
  8
0
  6
Continuous
 62
               7
100
AcDbLine
 10
513.75421694069837
 20
177.45975863843898
 30
0.0
 11
511.25421694069843
 21
178.9597586384391
 31
0.0
  0
LINE
  5
B2
100
AcDbEntity
  8
0
  6
Continuous
 62
               7
100
AcDbLine
 10
508.75421694069831
 20
177.45975863843921
 30
0.0
 11
511.25421694069843
 21
178.9597586384391
 31
0.0
  0
LINE
  5
B3
100
AcDbEntity
  8
0
  6
Continuous
 62
               7
100
AcDbLine
 10
516.25421694069769
 20
158.9597586384387
 30
0.0
 11
506.2542169406974
 21
158.95975863843893
 31
0.0
  0
LINE
  5
B4
100
AcDbEntity
  8
0
  6
Continuous
 62
               7
100
AcDbLine
 10
508.75421694069763
 20
162.95975863843898
 30
0.0
 11
513.75421694069792
 21
164.95975863843898
 31
0.0
  0
LINE
  5
B5
100
AcDbEntity
  8
0
  6
Continuous
 62
               7
100
AcDbLine
 10
513.75421694069792
 20
166.95975863843893
 30
0.0
 11
508.75421694069775
 21
164.95975863843921
 31
0.0
  0
LINE
  5
B6
100
AcDbEntity
  8
0
  6
Continuous
 62
               7
100
AcDbLine
 10
508.75421694069786
 20
166.95975863843921
 30
0.0
 11
513.75421694069814
 21
168.95975863843893
 31
0.0
  0
LINE
  5
B7
100
AcDbEntity
  8
0
  6
Continuous
 62
               7
100
AcDbLine
 10
513.75421694069814
 20
170.95975863843893
 30
0.0
 11
508.75421694069809
 21
168.95975863843933
 31
0.0
  0
LINE
  5
B8
100
AcDbEntity
  8
0
  6
Continuous
 62
               7
100
AcDbLine
 10
513.75421694069837
 20
172.95975863843893
 30
0.0
 11
510.75421694069809
 21
171.75975863843922
 31
0.0
  0
LINE
  5
B9
100
AcDbEntity
  8
0
  6
Continuous
 62
               7
100
AcDbLine
 10
509.25421694069831
 20
176.95975863843921
 30
0.0
 11
509.25421694069809
 21
171.1597586384392
 31
0.0
  0
LINE
  5
BA
100
AcDbEntity
  8
0
  6
Continuous
 62
               7
100
AcDbLine
 10
508.75421694069831
 20
177.45975863843921
 30
0.0
 11
509.25421694069831
 21
176.95975863843921
 31
0.0
  0
LINE
  5
BB
100
AcDbEntity
  8
0
  6
Continuous
 62
               7
100
AcDbLine
 10
509.25421694069809
 20
171.15975863843931
 30
0.0
 11
509.70421694069813
 21
170.70975863843921
 31
0.0
  0
LINE
  5
BC
100
AcDbEntity
  8
0
  6
Continuous
 62
               7
100
AcDbLine
 10
510.75421694069809
 20
171.75975863843922
 30
0.0
 11
509.70421694069813
 21
170.70975863843921
 31
0.0
  0
LINE
  5
BD
100
AcDbEntity
  8
0
  6
Continuous
 62
               7
100
AcDbLine
 10
509.25421694069809
 20
171.1597586384392
 30
0.0
 11
508.75421694069809
 21
170.95975863843921
 31
0.0
  0
LINE
  5
BE
100
AcDbEntity
  8
0
  6
DIVIDE
 62
               4
100
AcDbLine
 10
522.87399374667666
 20
179.81936126188401
 30
0.0
 11
169.37399374667712
 21
179.81936126188373
 31
0.0
  0
LINE
  5
BF
100
AcDbEntity
  8
0
  6
DIVIDE
 62
               4
100
AcDbLine
 10
522.87399374667666
 20
180.31936126188401
 30
0.0
 11
169.37399374667712
 21
180.31936126188373
 31
0.0
  0
LINE
  5
C0
100
AcDbEntity
  8
0
  6
Continuous
 62
               4
100
AcDbLine
 10
714.78679656440374
 20
21.213203435596483
 30
0.0
 11
714.78679656440374
 21
41.213203435596483
 31
0.0
  0
LINE
  5
C1
100
AcDbEntity
  8
0
  6
Continuous
 62
               4
100
AcDbLine
 10
864.78679656440374
 20
21.213203435596483
 30
0.0
 11
714.78679656440374
 21
21.213203435596483
 31
0.0
  0
LINE
  5
C2
100
AcDbEntity
  8
0
  6
Continuous
 62
               4
100
AcDbLine
 10
864.78679656440374
 20
41.213203435596483
 30
0.0
 11
864.78679656440374
 21
21.213203435596483
 31
0.0
  0
LINE
  5
C3
100
AcDbEntity
  8
0
  6
Continuous
 62
               4
100
AcDbLine
 10
864.78679656440374
 20
41.213203435596483
 30
0.0
 11
714.78679656440374
 21
41.213203435596483
 31
0.0
  0
LINE
  5
C4
100
AcDbEntity
  8
0
  6
Continuous
 62
               4
100
AcDbLine
 10
14.142135623730949
 20
595.85786437626905
 30
0.0
 11
14.142135623730949
 21
615.85786437626905
 31
0.0
  0
LINE
  5
C5
100
AcDbEntity
  8
0
  6
Continuous
 62
               4
100
AcDbLine
 10
164.14213562373095
 20
595.85786437626905
 30
0.0
 11
14.142135623730949
 21
595.85786437626905
 31
0.0
  0
LINE
  5
C6
100
AcDbEntity
  8
0
  6
Continuous
 62
               4
100
AcDbLine
 10
164.14213562373095
 20
615.85786437626905
 30
0.0
 11
164.14213562373095
 21
595.85786437626905
 31
0.0
  0
LINE
  5
C7
100
AcDbEntity
  8
0
  6
Continuous
 62
               4
100
AcDbLine
 10
164.14213562373095
 20
615.85786437626905
 30
0.0
 11
14.142135623730949
 21
615.85786437626905
 31
0.0
  0
LINE
  5
C8
100
AcDbEntity
  8
0
  6
DASHED
 62
               6
100
AcDbLine
 10
320.37399374667717
 20
360.31936126188413
 30
0.0
 11
340.87399374667717
 21
360.31936126188413
 31
0.0
  0
LINE
  5
C9
100
AcDbEntity
  8
0
  6
DASHED
 62
               6
100
AcDbLine
 10
218.37399374667712
 20
360.31936126188413
 30
0.0
 11
197.87399374667712
 21
360.31936126188413
 31
0.0
  0
LINE
  5
CA
100
AcDbEntity
  8
0
  6
Continuous
 62
               3
100
AcDbLine
 10
320.37399374667717
 20
359.31936126188413
 30
0.0
 11
320.37399374667717
 21
347.31936126188401
 31
0.0
  0
LINE
  5
CB
100
AcDbEntity
  8
0
  6
Continuous
 62
               3
100
AcDbLine
 10
218.37399374667712
 20
359.31936126188413
 30
0.0
 11
218.37399374667712
 21
347.31936126188401
 31
0.0
  0
LINE
  5
CC
100
AcDbEntity
  8
0
  6
Continuous
 62
               3
100
AcDbLine
 10
218.37399374667712
 20
359.31936126188413
 30
0.0
 11
169.37399374667712
 21
359.31936126188413
 31
0.0
  0
LINE
  5
CD
100
AcDbEntity
  8
0
  6
Continuous
 62
               3
100
AcDbLine
 10
320.37399374667717
 20
359.31936126188413
 30
0.0
 11
522.87399374667712
 21
359.31936126188413
 31
0.0
  0
LINE
  5
CE
100
AcDbEntity
  8
0
  6
Continuous
 62
               2
100
AcDbLine
 10
529.37399374667712
 20
361.3193650943241
 30
0.0
 11
529.37399374667712
 21
322.02516128274908
 31
0.0
  0
LINE
  5
CF
100
AcDbEntity
  8
0
  6
Continuous
 62
               2
100
AcDbLine
 10
524.37399374667712
 20
360.81936126188413
 30
0.0
 11
524.37399374667712
 21
144.81936126188413
 31
0.0
  0
LINE
  5
D0
100
AcDbEntity
  8
0
  6
DASHED
 62
               6
100
AcDbLine
 10
345.87399374667717
 20
361.31936126188413
 30
0.0
 11
416.96353278982355
 21
361.31936126188413
 31
0.0
  0
LINE
  5
D1
100
AcDbEntity
  8
0
  6
DASHED
 62
               6
100
AcDbLine
 10
340.87399374667717
 20
360.31936126188413
 30
0.0
 11
345.87399374667717
 21
361.31936126188413
 31
0.0
  0
LINE
  5
D2
100
AcDbEntity
  8
0
  6
DASHED
 62
               6
100
AcDbLine
 10
192.87399374667712
 20
361.31936126188413
 30
0.0
 11
169.37399374667712
 21
361.31936126188413
 31
0.0
  0
LINE
  5
D3
100
AcDbEntity
  8
0
  6
DASHED
 62
               6
100
AcDbLine
 10
197.87399374667712
 20
360.31936126188413
 30
0.0
 11
192.87399374667712
 21
361.31936126188413
 31
0.0
  0
LINE
  5
D4
100
AcDbEntity
  8
0
  6
Continuous
 62
               7
100
AcDbLine
 10
522.87399374667712
 20
354.59605655852101
 30
0.0
 11
515.5972984500404
 21
347.31936126188401
 31
0.0
  0
LINE
  5
D5
100
AcDbEntity
  8
0
  6
Continuous
 62
               7
100
AcDbLine
 10
520.52623063817487
 20
359.31936126188413
 30
0.0
 11
508.52623063817481
 21
347.31936126188401
 31
0.0
  0
LINE
  5
D6
100
AcDbEntity
  8
0
  6
Continuous
 62
               7
100
AcDbLine
 10
513.45516282630933
 20
359.31936126188413
 30
0.0
 11
501.45516282630928
 21
347.31936126188401
 31
0.0
  0
LINE
  5
D7
100
AcDbEntity
  8
0
  6
Continuous
 62
               7
100
AcDbLine
 10
506.38409501444386
 20
359.31936126188413
 30
0.0
 11
494.38409501444386
 21
347.31936126188401
 31
0.0
  0
LINE
  5
D8
100
AcDbEntity
  8
0
  6
Continuous
 62
               7
100
AcDbLine
 10
499.31302720257844
 20
359.31936126188413
 30
0.0
 11
487.31302720257844
 21
347.31936126188401
 31
0.0
  0
LINE
  5
D9
100
AcDbEntity
  8
0
  6
Continuous
 62
               7
100
AcDbLine
 10
492.24195939071291
 20
359.31936126188413
 30
0.0
 11
480.24195939071291
 21
347.31936126188401
 31
0.0
  0
LINE
  5
DA
100
AcDbEntity
  8
0
  6
Continuous
 62
               7
100
AcDbLine
 10
485.17089157884737
 20
359.31936126188413
 30
0.0
 11
473.17089157884737
 21
347.31936126188401
 31
0.0
  0
LINE
  5
DB
100
AcDbEntity
  8
0
  6
Continuous
 62
               7
100
AcDbLine
 10
478.09982376698196
 20
359.31936126188413
 30
0.0
 11
466.09982376698196
 21
347.31936126188401
 31
0.0
  0
LINE
  5
DC
100
AcDbEntity
  8
0
  6
Continuous
 62
               7
100
AcDbLine
 10
471.02875595511654
 20
359.31936126188413
 30
0.0
 11
459.02875595511654
 21
347.31936126188401
 31
0.0
  0
LINE
  5
DD
100
AcDbEntity
  8
0
  6
Continuous
 62
               7
100
AcDbLine
 10
463.957688143251
 20
359.31936126188413
 30
0.0
 11
451.957688143251
 21
347.31936126188401
 31
0.0
  0
LINE
  5
DE
100
AcDbEntity
  8
0
  6
Continuous
 62
               7
100
AcDbLine
 10
456.88662033138547
 20
359.31936126188413
 30
0.0
 11
444.88662033138547
 21
347.31936126188401
 31
0.0
  0
LINE
  5
DF
100
AcDbEntity
  8
0
  6
Continuous
 62
               7
100
AcDbLine
 10
449.81555251952005
 20
359.31936126188413
 30
0.0
 11
437.81555251952005
 21
347.31936126188401
 31
0.0
  0
LINE
  5
E0
100
AcDbEntity
  8
0
  6
Continuous
 62
               7
100
AcDbLine
 10
442.74448470765464
 20
359.31936126188413
 30
0.0
 11
430.74448470765464
 21
347.31936126188401
 31
0.0
  0
LINE
  5
E1
100
AcDbEntity
  8
0
  6
Continuous
 62
               7
100
AcDbLine
 10
435.6734168957891
 20
359.31936126188413
 30
0.0
 11
423.6734168957891
 21
347.31936126188401
 31
0.0
  0
LINE
  5
E2
100
AcDbEntity
  8
0
  6
Continuous
 62
               7
100
AcDbLine
 10
428.60234908392357
 20
359.31936126188413
 30
0.0
 11
416.60234908392357
 21
347.31936126188401
 31
0.0
  0
LINE
  5
E3
100
AcDbEntity
  8
0
  6
Continuous
 62
               7
100
AcDbLine
 10
421.53128127205815
 20
359.31936126188413
 30
0.0
 11
409.53128127205815
 21
347.31936126188401
 31
0.0
  0
LINE
  5
E4
100
AcDbEntity
  8
0
  6
Continuous
 62
               7
100
AcDbLine
 10
414.46021346019273
 20
359.31936126188413
 30
0.0
 11
402.46021346019273
 21
347.31936126188401
 31
0.0
  0
LINE
  5
E5
100
AcDbEntity
  8
0
  6
Continuous
 62
               7
100
AcDbLine
 10
407.3891456483272
 20
359.31936126188413
 30
0.0
 11
395.3891456483272
 21
347.31936126188401
 31
0.0
  0
LINE
  5
E6
100
AcDbEntity
  8
0
  6
Continuous
 62
               7
100
AcDbLine
 10
400.31807783646167
 20
359.31936126188413
 30
0.0
 11
388.31807783646167
 21
347.31936126188401
 31
0.0
  0
LINE
  5
E7
100
AcDbEntity
  8
0
  6
Continuous
 62
               7
100
AcDbLine
 10
393.24701002459625
 20
359.31936126188413
 30
0.0
 11
382.9766684625576
 21
349.04901969984542
 31
0.0
  0
LINE
  5
E8
100
AcDbEntity
  8
0
  6
Continuous
 62
               7
100
AcDbLine
 10
386.17594221273083
 20
359.31936126188413
 30
0.0
 11
382.9766684625576
 21
356.12008751171089
 31
0.0
  0
LINE
  5
E9
100
AcDbEntity
  8
0
  6
Continuous
 62
               7
100
AcDbLine
 10
352.57593382310978
 20
354.00362411972498
 30
0.0
 11
345.89167096526893
 21
347.31936126188401
 31
0.0
  0
LINE
  5
EA
100
AcDbEntity
  8
0
  6
Continuous
 62
               7
100
AcDbLine
 10
350.8206031534034
 20
359.31936126188413
 30
0.0
 11
338.8206031534034
 21
347.31936126188401
 31
0.0
  0
LINE
  5
EB
100
AcDbEntity
  8
0
  6
Continuous
 62
               7
100
AcDbLine
 10
343.74953534153786
 20
359.31936126188413
 30
0.0
 11
331.74953534153786
 21
347.31936126188401
 31
0.0
  0
LINE
  5
EC
100
AcDbEntity
  8
0
  6
Continuous
 62
               7
100
AcDbLine
 10
336.67846752967245
 20
359.31936126188413
 30
0.0
 11
324.67846752967245
 21
347.31936126188401
 31
0.0
  0
LINE
  5
ED
100
AcDbEntity
  8
0
  6
Continuous
 62
               7
100
AcDbLine
 10
329.60739971780703
 20
359.31936126188413
 30
0.0
 11
320.37399374667717
 21
350.08595529075421
 31
0.0
  0
LINE
  5
EE
100
AcDbEntity
  8
0
  6
Continuous
 62
               7
100
AcDbLine
 10
322.53633190594149
 20
359.31936126188413
 30
0.0
 11
320.37399374667717
 21
357.15702310261969
 31
0.0
  0
LINE
  5
EF
100
AcDbEntity
  8
0
  6
Continuous
 62
               7
100
AcDbLine
 10
218.37399374667712
 20
354.1519724687364
 30
0.0
 11
211.54138253982484
 21
347.31936126188413
 31
0.0
  0
LINE
  5
F0
100
AcDbEntity
  8
0
  6
Continuous
 62
               7
100
AcDbLine
 10
216.47031472795936
 20
359.31936126188413
 30
0.0
 11
204.47031472795936
 21
347.31936126188401
 31
0.0
  0
LINE
  5
F1
100
AcDbEntity
  8
0
  6
Continuous
 62
               7
100
AcDbLine
 10
209.39924691609383
 20
359.31936126188413
 30
0.0
 11
197.39924691609383
 21
347.31936126188401
 31
0.0
  0
LINE
  5
F2
100
AcDbEntity
  8
0
  6
Continuous
 62
               7
100
AcDbLine
 10
202.32817910422847
 20
359.31936126188413
 30
0.0
 11
190.32817910422847
 21
347.31936126188401
 31
0.0
  0
LINE
  5
F3
100
AcDbEntity
  8
0
  6
Continuous
 62
               7
100
AcDbLine
 10
195.25711129236294
 20
359.31936126188413
 30
0.0
 11
183.25711129236294
 21
347.31936126188401
 31
0.0
  0
LINE
  5
F4
100
AcDbEntity
  8
0
  6
Continuous
 62
               7
100
AcDbLine
 10
188.18604348049746
 20
359.31936126188413
 30
0.0
 11
176.18604348049746
 21
347.31936126188401
 31
0.0
  0
LINE
  5
F5
100
AcDbEntity
  8
0
  6
Continuous
 62
               7
100
AcDbLine
 10
181.11497566863193
 20
359.31936126188413
 30
0.0
 11
169.37399374667712
 21
347.57837933992931
 31
0.0
  0
LINE
  5
F6
100
AcDbEntity
  8
0
  6
Continuous
 62
               7
100
AcDbLine
 10
174.04390785676657
 20
359.31936126188413
 30
0.0
 11
169.37399374667712
 21
354.64944715179473
 31
0.0
  0
LINE
  5
F7
100
AcDbEntity
  8
0
  6
Continuous
 62
               4
100
AcDbLine
 10
554.37399374667734
 20
367.31936126188401
 30
0.0
 11
554.37399374667734
 21
444.31936126188401
 31
0.0
  0
LINE
  5
F8
100
AcDbEntity
  8
0
  6
Continuous
 62
               4
100
AcDbLine
 10
529.37399374667712
 20
367.31936126188401
 30
0.0
 11
529.37399374667712
 21
388.31936126188401
 31
0.0
  0
LINE
  5
F9
100
AcDbEntity
  8
0
  6
Continuous
 62
               4
100
AcDbLine
 10
554.37399374667734
 20
385.31936126188401
 30
0.0
 11
529.37399374667712
 21
385.31936126188401
 31
0.0
  0
LINE
  5
FA
100
AcDbEntity
  8
0
  6
Continuous
 62
               4
100
AcDbLine
 10
269.37399374667717
 20
382.04489650291936
 30
0.0
 11
269.37399374667717
 21
444.31936126188401
 31
0.0
  0
LINE
  5
FB
100
AcDbEntity
  8
0
  6
Continuous
 62
               4
100
AcDbLine
 10
554.37399374667734
 20
441.31936126188401
 30
0.0
 11
269.37399374667717
 21
441.31936126188401
 31
0.0
  0
LINE
  5
FC
100
AcDbEntity
  8
0
  6
Continuous
 62
               4
100
AcDbLine
 10
269.37399374667717
 20
441.31936126188401
 30
0.0
 11
169.37399374667712
 21
441.31936126188401
 31
0.0
  0
LINE
  5
FD
100
AcDbEntity
  8
0
  6
Continuous
 62
               4
100
AcDbLine
 10
169.37399374667712
 20
441.31936126188401
 30
0.0
 11
178.23726352378702
 21
442.88219486088639
 31
0.0
  0
LINE
  5
FE
100
AcDbEntity
  8
0
  6
Continuous
 62
               4
100
AcDbLine
 10
169.37399374667712
 20
441.31936126188401
 30
0.0
 11
178.23726352378702
 21
439.75652766288164
 31
0.0
  0
LINE
  5
FF
100
AcDbEntity
  8
0
  6
Continuous
 62
               4
100
AcDbLine
 10
558.77399374667721
 20
361.3193650943241
 30
0.0
 11
578.3739937466778
 21
361.3193650943241
 31
0.0
  0
LINE
  5
100
100
AcDbEntity
  8
0
  6
Continuous
 62
               4
100
AcDbLine
 10
534.66819755825213
 20
321.3193650943241
 30
0.0
 11
578.3739937466778
 21
321.3193650943241
 31
0.0
  0
LINE
  5
101
100
AcDbEntity
  8
0
  6
Continuous
 62
               4
100
AcDbLine
 10
575.37399374667734
 20
361.3193650943241
 30
0.0
 11
575.37399374667734
 21
321.3193650943241
 31
0.0
  0
LINE
  5
102
100
AcDbEntity
  8
0
  6
Continuous
 62
               4
100
AcDbLine
 10
524.3739824386746
 20
270.66935638162869
 30
0.0
 11
598.8249253222782
 21
310.76687530252718
 31
0.0
  0
LINE
  5
103
100
AcDbEntity
  8
0
  6
Continuous
 62
               4
100
AcDbLine
 10
598.8249253222782
 20
310.76687530252718
 30
0.0
 11
696.82875941043176
 21
310.76687530252718
 31
0.0
  0
LINE
  5
104
100
AcDbEntity
  8
0
  6
Continuous
 62
               4
100
AcDbLine
 10
524.37399374667712
 20
270.66936126188392
 30
0.0
 11
532.83122733375035
 21
273.74754255181489
 31
0.0
  0
LINE
  5
105
100
AcDbEntity
  8
0
  6
Continuous
 62
               4
100
AcDbLine
 10
524.37399374667712
 20
270.66936126188392
 30
0.0
 11
531.26839373474809
 21
276.45444974906269
 31
0.0
  0
LINE
  5
106
100
AcDbEntity
  8
0
  6
Continuous
 62
               4
100
AcDbLine
 10
529.37399374667712
 20
297.31936509432393
 30
0.0
 11
529.37399374667712
 21
316.02516128274902
 31
0.0
  0
LINE
  5
107
100
AcDbEntity
  8
0
  6
Continuous
 62
               4
100
AcDbLine
 10
529.37399374667712
 20
300.31936509432393
 30
0.0
 11
524.37399374667712
 21
300.31936509432393
 31
0.0
  0
LINE
  5
108
100
AcDbEntity
  8
0
  6
Continuous
 62
               4
100
AcDbLine
 10
529.37399374667712
 20
340.51936126188411
 30
0.0
 11
599.37399374667757
 21
378.04712875920978
 31
0.0
  0
LINE
  5
109
100
AcDbEntity
  8
0
  6
Continuous
 62
               4
100
AcDbLine
 10
529.37399374667712
 20
340.51936126188411
 30
0.0
 11
536.26839373474809
 21
346.30444974906288
 31
0.0
  0
LINE
  5
10A
100
AcDbEntity
  8
0
  6
Continuous
 62
               4
100
AcDbLine
 10
529.37399374667712
 20
340.51936126188411
 30
0.0
 11
537.83122733375035
 21
343.59754255181508
 31
0.0
  0
LINE
  5
10B
100
AcDbEntity
  8
0
  6
Continuous
 62
               4
100
AcDbLine
 10
365.37399374667717
 20
347.31936126188401
 30
0.0
 11
365.37399374667717
 21
359.31936126188413
 31
0.0
  0
LINE
  5
10C
100
AcDbEntity
  8
0
  6
Continuous
 62
               4
100
AcDbLine
 10
365.37399374667717
 20
359.31936126188413
 30
0.0
 11
365.37399374667717
 21
364.31936126188401
 31
0.0
  0
LINE
  5
10D
100
AcDbEntity
  8
0
  6
Continuous
 62
               4
100
AcDbLine
 10
365.37399374667717
 20
364.31936126188401
 30
0.0
 11
365.37399374667717
 21
370.21935402092907
 31
0.0
  0
LINE
  5
10E
100
AcDbEntity
  8
0
  6
Continuous
 62
               2
100
AcDbLine
 10
525.37399374667712
 20
331.3193650943241
 30
0.0
 11
527.87399374667712
 21
322.0693650943241
 31
0.0
  0
LINE
  5
10F
100
AcDbEntity
  8
0
  6
Continuous
 62
               7
100
AcDbLine
 10
478.32129461492303
 20
322.51936126188428
 30
0.0
 11
478.32129461492337
 21
358.51936126188428
 31
0.0
  0
LINE
  5
110
100
AcDbEntity
  8
0
  6
Continuous
 62
               7
100
AcDbLine
 10
475.82129461492337
 20
361.01936126188428
 30
0.0
 11
475.82129461492337
 21
360.51936126188423
 31
0.0
  0
LINE
  5
111
100
AcDbEntity
  8
0
  6
Continuous
 62
               7
100
AcDbLine
 10
483.32129461492303
 20
322.51936126188423
 30
0.0
 11
483.32129461492337
 21
358.51936126188423
 31
0.0
  0
LINE
  5
112
100
AcDbEntity
  8
0
  6
Continuous
 62
               7
100
AcDbLine
 10
485.82129461492337
 20
361.01936126188428
 30
0.0
 11
485.82129461492337
 21
360.51936126188423
 31
0.0
  0
LINE
  5
113
100
AcDbEntity
  8
0
  6
Continuous
 62
               7
100
AcDbLine
 10
475.82129461492337
 20
361.01936126188428
 30
0.0
 11
485.82129461492337
 21
361.01936126188428
 31
0.0
  0
LINE
  5
114
100
AcDbEntity
  8
0
  6
Continuous
 62
               7
100
AcDbLine
 10
478.32129461492337
 20
358.51936126188428
 30
0.0
 11
483.32129461492337
 21
358.51936126188423
 31
0.0
  0
LINE
  5
115
100
AcDbEntity
  8
0
  6
Continuous
 62
               7
100
AcDbLine
 10
475.82129461492337
 20
360.51936126188428
 30
0.0
 11
478.32129461492337
 21
358.51936126188428
 31
0.0
  0
LINE
  5
116
100
AcDbEntity
  8
0
  6
Continuous
 62
               7
100
AcDbLine
 10
483.32129461492337
 20
358.51936126188423
 30
0.0
 11
485.82129461492337
 21
360.51936126188423
 31
0.0
  0
LINE
  5
117
100
AcDbEntity
  8
0
  6
Continuous
 62
               7
100
AcDbLine
 10
475.82129461492337
 20
360.51936126188423
 30
0.0
 11
485.82129461492337
 21
360.51936126188423
 31
0.0
  0
LINE
  5
118
100
AcDbEntity
  8
0
  6
Continuous
 62
               7
100
AcDbLine
 10
478.32129461492303
 20
322.51936126188428
 30
0.0
 11
480.82129461492303
 21
321.01936126188423
 31
0.0
  0
LINE
  5
119
100
AcDbEntity
  8
0
  6
Continuous
 62
               7
100
AcDbLine
 10
483.32129461492303
 20
322.51936126188423
 30
0.0
 11
480.82129461492303
 21
321.01936126188423
 31
0.0
  0
LINE
  5
11A
100
AcDbEntity
  8
0
  6
Continuous
 62
               7
100
AcDbLine
 10
478.32129461492326
 20
351.51936126188428
 30
0.0
 11
483.32129461492326
 21
353.51936126188423
 31
0.0
  0
LINE
  5
11B
100
AcDbEntity
  8
0
  6
Continuous
 62
               7
100
AcDbLine
 10
478.32129461492326
 20
349.51936126188428
 30
0.0
 11
483.32129461492337
 21
351.51936126188423
 31
0.0
  0
LINE
  5
11C
100
AcDbEntity
  8
0
  6
Continuous
 62
               7
100
AcDbLine
 10
478.32129461492326
 20
347.51936126188428
 30
0.0
 11
483.32129461492326
 21
349.51936126188428
 31
0.0
  0
LINE
  5
11D
100
AcDbEntity
  8
0
  6
Continuous
 62
               7
100
AcDbLine
 10
478.32129461492326
 20
345.51936126188428
 30
0.0
 11
483.32129461492326
 21
347.51936126188428
 31
0.0
  0
LINE
  5
11E
100
AcDbEntity
  8
0
  6
Continuous
 62
               7
100
AcDbLine
 10
478.32129461492326
 20
343.51936126188428
 30
0.0
 11
483.32129461492326
 21
345.51936126188428
 31
0.0
  0
LINE
  5
11F
100
AcDbEntity
  8
0
  6
Continuous
 62
               7
100
AcDbLine
 10
478.32129461492315
 20
341.5193612618844
 30
0.0
 11
483.32129461492315
 21
343.51936126188428
 31
0.0
  0
LINE
  5
120
100
AcDbEntity
  8
0
  6
Continuous
 62
               7
100
AcDbLine
 10
478.32129461492315
 20
339.51936126188428
 30
0.0
 11
483.32129461492315
 21
341.51936126188428
 31
0.0
  0
LINE
  5
121
100
AcDbEntity
  8
0
  6
Continuous
 62
               7
100
AcDbLine
 10
478.32129461492315
 20
337.5193612618844
 30
0.0
 11
483.32129461492315
 21
339.5193612618844
 31
0.0
  0
LINE
  5
122
100
AcDbEntity
  8
0
  6
Continuous
 62
               7
100
AcDbLine
 10
478.32129461492315
 20
335.5193612618844
 30
0.0
 11
483.32129461492315
 21
337.5193612618844
 31
0.0
  0
LINE
  5
123
100
AcDbEntity
  8
0
  6
Continuous
 62
               7
100
AcDbLine
 10
478.32129461492303
 20
333.51936126188428
 30
0.0
 11
483.32129461492315
 21
335.5193612618844
 31
0.0
  0
LINE
  5
124
100
AcDbEntity
  8
0
  6
Continuous
 62
               7
100
AcDbLine
 10
478.32129461492315
 20
331.51936126188428
 30
0.0
 11
483.32129461492303
 21
333.5193612618844
 31
0.0
  0
LINE
  5
125
100
AcDbEntity
  8
0
  6
Continuous
 62
               7
100
AcDbLine
 10
478.32129461492303
 20
329.5193612618844
 30
0.0
 11
481.32129461492315
 21
330.71936126188439
 31
0.0
  0
LINE
  5
126
100
AcDbEntity
  8
0
  6
Continuous
 62
               7
100
AcDbLine
 10
482.82129461492303
 20
323.01936126188428
 30
0.0
 11
482.82129461492315
 21
331.31936126188452
 31
0.0
  0
LINE
  5
127
100
AcDbEntity
  8
0
  6
Continuous
 62
               7
100
AcDbLine
 10
481.32129461492315
 20
330.71936126188433
 30
0.0
 11
482.37129461492322
 21
331.76936126188451
 31
0.0
  0
LINE
  5
128
100
AcDbEntity
  8
0
  6
Continuous
 62
               7
100
AcDbLine
 10
482.82129461492315
 20
331.3193612618843
 30
0.0
 11
482.37129461492322
 21
331.76936126188451
 31
0.0
  0
LINE
  5
129
100
AcDbEntity
  8
0
  6
Continuous
 62
               7
100
AcDbLine
 10
482.82129461492315
 20
331.31936126188452
 30
0.0
 11
483.32129461492315
 21
331.5193612618844
 31
0.0
  0
LINE
  5
12A
100
AcDbEntity
  8
0
  6
Continuous
 62
               7
100
AcDbLine
 10
483.32129461492303
 20
322.51936126188423
 30
0.0
 11
482.82129461492303
 21
323.01936126188428
 31
0.0
  0
LINE
  5
12B
100
AcDbEntity
  8
0
  6
Continuous
 62
               7
100
AcDbLine
 10
492.05857237650861
 20
323.71936126188422
 30
0.0
 11
492.05857237650895
 21
359.71936126188422
 31
0.0
  0
LINE
  5
12C
100
AcDbEntity
  8
0
  6
Continuous
 62
               7
100
AcDbLine
 10
489.55857237650895
 20
362.2193612618841
 30
0.0
 11
489.55857237650895
 21
361.7193612618841
 31
0.0
  0
LINE
  5
12D
100
AcDbEntity
  8
0
  6
Continuous
 62
               7
100
AcDbLine
 10
497.05857237650861
 20
323.71936126188422
 30
0.0
 11
497.05857237650895
 21
359.7193612618841
 31
0.0
  0
LINE
  5
12E
100
AcDbEntity
  8
0
  6
Continuous
 62
               7
100
AcDbLine
 10
499.55857237650895
 20
362.2193612618841
 30
0.0
 11
499.55857237650895
 21
361.7193612618841
 31
0.0
  0
LINE
  5
12F
100
AcDbEntity
  8
0
  6
Continuous
 62
               7
100
AcDbLine
 10
489.55857237650895
 20
362.2193612618841
 30
0.0
 11
499.55857237650895
 21
362.2193612618841
 31
0.0
  0
LINE
  5
130
100
AcDbEntity
  8
0
  6
Continuous
 62
               7
100
AcDbLine
 10
492.05857237650895
 20
359.71936126188422
 30
0.0
 11
497.05857237650895
 21
359.7193612618841
 31
0.0
  0
LINE
  5
131
100
AcDbEntity
  8
0
  6
Continuous
 62
               7
100
AcDbLine
 10
489.55857237650895
 20
361.7193612618841
 30
0.0
 11
492.05857237650895
 21
359.71936126188422
 31
0.0
  0
LINE
  5
132
100
AcDbEntity
  8
0
  6
Continuous
 62
               7
100
AcDbLine
 10
497.05857237650895
 20
359.7193612618841
 30
0.0
 11
499.55857237650883
 21
361.71936126188399
 31
0.0
  0
LINE
  5
133
100
AcDbEntity
  8
0
  6
Continuous
 62
               7
100
AcDbLine
 10
489.55857237650895
 20
361.7193612618841
 30
0.0
 11
499.55857237650883
 21
361.71936126188399
 31
0.0
  0
LINE
  5
134
100
AcDbEntity
  8
0
  6
Continuous
 62
               7
100
AcDbLine
 10
492.05857237650861
 20
323.71936126188422
 30
0.0
 11
494.55857237650861
 21
322.21936126188422
 31
0.0
  0
LINE
  5
135
100
AcDbEntity
  8
0
  6
Continuous
 62
               7
100
AcDbLine
 10
497.05857237650861
 20
323.71936126188422
 30
0.0
 11
494.55857237650861
 21
322.21936126188422
 31
0.0
  0
LINE
  5
136
100
AcDbEntity
  8
0
  6
Continuous
 62
               7
100
AcDbLine
 10
492.05857237650883
 20
352.71936126188422
 30
0.0
 11
497.05857237650883
 21
354.7193612618841
 31
0.0
  0
LINE
  5
137
100
AcDbEntity
  8
0
  6
Continuous
 62
               7
100
AcDbLine
 10
492.05857237650883
 20
350.71936126188422
 30
0.0
 11
497.05857237650883
 21
352.7193612618841
 31
0.0
  0
LINE
  5
138
100
AcDbEntity
  8
0
  6
Continuous
 62
               7
100
AcDbLine
 10
492.05857237650883
 20
348.7193612618841
 30
0.0
 11
497.05857237650883
 21
350.71936126188422
 31
0.0
  0
LINE
  5
139
100
AcDbEntity
  8
0
  6
Continuous
 62
               7
100
AcDbLine
 10
492.05857237650872
 20
346.71936126188422
 30
0.0
 11
497.05857237650883
 21
348.7193612618841
 31
0.0
  0
LINE
  5
13A
100
AcDbEntity
  8
0
  6
Continuous
 62
               7
100
AcDbLine
 10
492.05857237650883
 20
344.71936126188422
 30
0.0
 11
497.05857237650883
 21
346.7193612618841
 31
0.0
  0
LINE
  5
13B
100
AcDbEntity
  8
0
  6
Continuous
 62
               7
100
AcDbLine
 10
492.05857237650872
 20
342.71936126188422
 30
0.0
 11
497.05857237650872
 21
344.71936126188422
 31
0.0
  0
LINE
  5
13C
100
AcDbEntity
  8
0
  6
Continuous
 62
               7
100
AcDbLine
 10
492.05857237650872
 20
340.71936126188422
 30
0.0
 11
497.05857237650872
 21
342.7193612618841
 31
0.0
  0
LINE
  5
13D
100
AcDbEntity
  8
0
  6
Continuous
 62
               7
100
AcDbLine
 10
492.05857237650872
 20
338.71936126188422
 30
0.0
 11
497.05857237650872
 21
340.71936126188433
 31
0.0
  0
LINE
  5
13E
100
AcDbEntity
  8
0
  6
Continuous
 62
               7
100
AcDbLine
 10
492.05857237650861
 20
336.71936126188422
 30
0.0
 11
497.05857237650872
 21
338.71936126188433
 31
0.0
  0
LINE
  5
13F
100
AcDbEntity
  8
0
  6
Continuous
 62
               7
100
AcDbLine
 10
492.05857237650861
 20
334.71936126188422
 30
0.0
 11
497.05857237650861
 21
336.71936126188433
 31
0.0
  0
LINE
  5
140
100
AcDbEntity
  8
0
  6
Continuous
 62
               7
100
AcDbLine
 10
492.05857237650861
 20
332.71936126188433
 30
0.0
 11
497.05857237650861
 21
334.71936126188433
 31
0.0
  0
LINE
  5
141
100
AcDbEntity
  8
0
  6
Continuous
 62
               7
100
AcDbLine
 10
492.05857237650861
 20
330.71936126188433
 30
0.0
 11
495.05857237650872
 21
331.91936126188432
 31
0.0
  0
LINE
  5
142
100
AcDbEntity
  8
0
  6
Continuous
 62
               7
100
AcDbLine
 10
496.55857237650861
 20
324.21936126188422
 30
0.0
 11
496.55857237650872
 21
332.51936126188428
 31
0.0
  0
LINE
  5
143
100
AcDbEntity
  8
0
  6
Continuous
 62
               7
100
AcDbLine
 10
495.05857237650872
 20
331.91936126188432
 30
0.0
 11
496.10857237650868
 21
332.96936126188433
 31
0.0
  0
LINE
  5
144
100
AcDbEntity
  8
0
  6
Continuous
 62
               7
100
AcDbLine
 10
496.55857237650872
 20
332.51936126188428
 30
0.0
 11
496.10857237650868
 21
332.96936126188433
 31
0.0
  0
LINE
  5
145
100
AcDbEntity
  8
0
  6
Continuous
 62
               7
100
AcDbLine
 10
496.55857237650872
 20
332.51936126188428
 30
0.0
 11
497.05857237650861
 21
332.71936126188433
 31
0.0
  0
LINE
  5
146
100
AcDbEntity
  8
0
  6
Continuous
 62
               7
100
AcDbLine
 10
497.05857237650861
 20
323.71936126188422
 30
0.0
 11
496.55857237650861
 21
324.21936126188422
 31
0.0
  0
LINE
  5
147
100
AcDbEntity
  8
0
  6
Continuous
 62
               2
100
AcDbLine
 10
424.37399374667717
 20
360.81936126188413
 30
0.0
 11
524.37399374667712
 21
360.81936126188413
 31
0.0
  0
LINE
  5
148
100
AcDbEntity
  8
0
  6
Continuous
 62
               2
100
AcDbLine
 10
444.37399374667717
 20
362.81937957243093
 30
0.0
 11
552.1239938744252
 21
362.81936121930136
 31
0.0
  0
LINE
  5
149
100
AcDbEntity
  8
0
  6
DASHED
 62
               6
100
AcDbLine
 10
424.37399374667717
 20
361.81936126188413
 30
0.0
 11
522.87399374667712
 21
361.81936126188413
 31
0.0
  0
LINE
  5
14A
100
AcDbEntity
  8
0
  6
DASHED
 62
               6
100
AcDbLine
 10
424.37399374667717
 20
361.81936126188413
 30
0.0
 11
416.96353278982355
 21
361.31936126188413
 31
0.0
  0
LINE
  5
14B
100
AcDbEntity
  8
0
  6
Continuous
 62
               2
100
AcDbLine
 10
529.37399374667712
 20
361.3193650943241
 30
0.0
 11
552.12399361892926
 21
361.31936121930141
 31
0.0
  0
LINE
  5
14C
100
AcDbEntity
  8
0
  6
Continuous
 62
               2
100
AcDbLine
 10
531.37399374667712
 20
360.31936126188413
 30
0.0
 11
551.87399374667734
 21
359.31936126188413
 31
0.0
  0
LINE
  5
14D
100
AcDbEntity
  8
0
  6
Continuous
 62
               4
100
AcDbLine
 10
599.37399374667757
 20
378.04712875920978
 30
0.0
 11
696.72102009273647
 21
378.04712875920978
 31
0.0
  0
LINE
  5
14E
100
AcDbEntity
  8
0
  6
Continuous
 62
               3
100
AcDbLine
 10
218.37399374667712
 20
347.31936126188401
 30
0.0
 11
169.37399374667712
 21
347.31936126188401
 31
0.0
  0
LINE
  5
14F
100
AcDbEntity
  8
0
  6
DASHDOT
 62
               4
100
AcDbLine
 10
269.37399374667717
 20
306.64952427965011
 30
0.0
 11
269.37399374667717
 21
377.86282532643651
 31
0.0
  0
LINE
  5
150
100
AcDbEntity
  8
0
  6
Continuous
 62
               4
100
AcDbLine
 10
221.37399374667729
 20
362.31936126188396
 30
0.0
 11
197.87399374667729
 21
362.31936126188396
 31
0.0
  0
LINE
  5
151
100
AcDbEntity
  8
0
  6
Continuous
 62
               4
100
AcDbLine
 10
220.37399374667729
 20
361.019361261884
 30
0.0
 11
197.87399374667729
 21
361.019361261884
 31
0.0
  0
LINE
  5
152
100
AcDbEntity
  8
0
  6
Continuous
 62
               4
100
AcDbLine
 10
197.87399374667729
 20
362.31936126188396
 30
0.0
 11
197.87399374667729
 21
361.019361261884
 31
0.0
  0
LINE
  5
153
100
AcDbEntity
  8
0
  6
Continuous
 62
               4
100
AcDbLine
 10
317.37399374667729
 20
362.31936126188396
 30
0.0
 11
340.87399374667729
 21
362.31936126188396
 31
0.0
  0
LINE
  5
154
100
AcDbEntity
  8
0
  6
Continuous
 62
               4
100
AcDbLine
 10
318.37399374667729
 20
361.019361261884
 30
0.0
 11
340.87399374667729
 21
361.019361261884
 31
0.0
  0
LINE
  5
155
100
AcDbEntity
  8
0
  6
Continuous
 62
               4
100
AcDbLine
 10
340.87399374667729
 20
362.31936126188396
 30
0.0
 11
340.87399374667729
 21
361.019361261884
 31
0.0
  0
LINE
  5
156
100
AcDbEntity
  8
0
  6
Continuous
 62
               7
100
AcDbLine
 10
328.35031942963218
 20
324.319354553886
 30
0.0
 11
328.35031942963195
 21
360.31936126188407
 31
0.0
  0
LINE
  5
157
100
AcDbEntity
  8
0
  6
Continuous
 62
               7
100
AcDbLine
 10
325.85031942963218
 20
362.81936126188407
 30
0.0
 11
325.85031942963218
 21
362.31936126188407
 31
0.0
  0
LINE
  5
158
100
AcDbEntity
  8
0
  6
Continuous
 62
               7
100
AcDbLine
 10
333.35031942963172
 20
324.31936126188407
 30
0.0
 11
333.35031942963195
 21
360.31936126188407
 31
0.0
  0
LINE
  5
159
100
AcDbEntity
  8
0
  6
Continuous
 62
               7
100
AcDbLine
 10
335.85031942963218
 20
362.81936126188396
 30
0.0
 11
335.85031942963195
 21
362.31936126188396
 31
0.0
  0
LINE
  5
15A
100
AcDbEntity
  8
0
  6
Continuous
 62
               7
100
AcDbLine
 10
325.85031942963218
 20
362.81936126188407
 30
0.0
 11
335.85031942963218
 21
362.81936126188396
 31
0.0
  0
LINE
  5
15B
100
AcDbEntity
  8
0
  6
Continuous
 62
               7
100
AcDbLine
 10
328.35031942963195
 20
360.31936126188407
 30
0.0
 11
333.35031942963195
 21
360.31936126188407
 31
0.0
  0
LINE
  5
15C
100
AcDbEntity
  8
0
  6
Continuous
 62
               7
100
AcDbLine
 10
325.85031942963218
 20
362.31936126188407
 30
0.0
 11
328.35031942963195
 21
360.31936126188407
 31
0.0
  0
LINE
  5
15D
100
AcDbEntity
  8
0
  6
Continuous
 62
               7
100
AcDbLine
 10
333.35031942963195
 20
360.31936126188407
 30
0.0
 11
335.85031942963218
 21
362.31936126188396
 31
0.0
  0
LINE
  5
15E
100
AcDbEntity
  8
0
  6
Continuous
 62
               7
100
AcDbLine
 10
325.85031942963218
 20
362.31936126188407
 30
0.0
 11
335.85031942963218
 21
362.31936126188384
 31
0.0
  0
LINE
  5
15F
100
AcDbEntity
  8
0
  6
Continuous
 62
               7
100
AcDbLine
 10
328.35031942963172
 20
324.31936126188407
 30
0.0
 11
330.85031942963172
 21
322.81936126188407
 31
0.0
  0
LINE
  5
160
100
AcDbEntity
  8
0
  6
Continuous
 62
               7
100
AcDbLine
 10
333.35031942963172
 20
324.31936126188407
 30
0.0
 11
330.85031942963172
 21
322.81936126188407
 31
0.0
  0
LINE
  5
161
100
AcDbEntity
  8
0
  6
Continuous
 62
               7
100
AcDbLine
 10
328.35031942963195
 20
353.31936126188407
 30
0.0
 11
333.35031942963195
 21
355.31936126188407
 31
0.0
  0
LINE
  5
162
100
AcDbEntity
  8
0
  6
Continuous
 62
               7
100
AcDbLine
 10
328.35031942963195
 20
351.31936126188407
 30
0.0
 11
333.35031942963195
 21
353.31936126188407
 31
0.0
  0
LINE
  5
163
100
AcDbEntity
  8
0
  6
Continuous
 62
               7
100
AcDbLine
 10
328.35031942963195
 20
349.31936126188407
 30
0.0
 11
333.35031942963195
 21
351.31936126188407
 31
0.0
  0
LINE
  5
164
100
AcDbEntity
  8
0
  6
Continuous
 62
               7
100
AcDbLine
 10
328.35031942963195
 20
347.31936126188407
 30
0.0
 11
333.35031942963195
 21
349.31936126188407
 31
0.0
  0
LINE
  5
165
100
AcDbEntity
  8
0
  6
Continuous
 62
               7
100
AcDbLine
 10
328.35031942963195
 20
345.31936126188407
 30
0.0
 11
333.35031942963195
 21
347.31936126188407
 31
0.0
  0
LINE
  5
166
100
AcDbEntity
  8
0
  6
Continuous
 62
               7
100
AcDbLine
 10
328.35031942963172
 20
343.31936126188407
 30
0.0
 11
333.35031942963172
 21
345.31936126188407
 31
0.0
  0
LINE
  5
167
100
AcDbEntity
  8
0
  6
Continuous
 62
               7
100
AcDbLine
 10
328.35031942963172
 20
341.31936126188407
 30
0.0
 11
333.35031942963172
 21
343.31936126188407
 31
0.0
  0
LINE
  5
168
100
AcDbEntity
  8
0
  6
Continuous
 62
               7
100
AcDbLine
 10
328.35031942963172
 20
339.31936126188407
 30
0.0
 11
333.35031942963172
 21
341.31936126188407
 31
0.0
  0
LINE
  5
169
100
AcDbEntity
  8
0
  6
Continuous
 62
               7
100
AcDbLine
 10
328.35031942963172
 20
337.31936126188407
 30
0.0
 11
333.35031942963172
 21
339.31936126188407
 31
0.0
  0
LINE
  5
16A
100
AcDbEntity
  8
0
  6
Continuous
 62
               7
100
AcDbLine
 10
328.35031942963172
 20
335.31936126188407
 30
0.0
 11
333.35031942963172
 21
337.31936126188418
 31
0.0
  0
LINE
  5
16B
100
AcDbEntity
  8
0
  6
Continuous
 62
               7
100
AcDbLine
 10
328.35031942963172
 20
333.31936126188418
 30
0.0
 11
333.35031942963172
 21
335.31936126188407
 31
0.0
  0
LINE
  5
16C
100
AcDbEntity
  8
0
  6
Continuous
 62
               7
100
AcDbLine
 10
328.35031942963172
 20
331.31936126188418
 30
0.0
 11
331.35031942963172
 21
332.51936126188423
 31
0.0
  0
LINE
  5
16D
100
AcDbEntity
  8
0
  6
Continuous
 62
               7
100
AcDbLine
 10
332.85031942963172
 20
324.81936126188407
 30
0.0
 11
332.85031942963172
 21
333.11936126188436
 31
0.0
  0
LINE
  5
16E
100
AcDbEntity
  8
0
  6
Continuous
 62
               7
100
AcDbLine
 10
331.35031942963172
 20
332.51936126188423
 30
0.0
 11
332.40031942963168
 21
333.56936126188418
 31
0.0
  0
LINE
  5
16F
100
AcDbEntity
  8
0
  6
Continuous
 62
               7
100
AcDbLine
 10
332.85031942963172
 20
333.11936126188425
 30
0.0
 11
332.40031942963168
 21
333.56936126188418
 31
0.0
  0
LINE
  5
170
100
AcDbEntity
  8
0
  6
Continuous
 62
               7
100
AcDbLine
 10
332.85031942963172
 20
333.11936126188436
 30
0.0
 11
333.35031942963172
 21
333.31936126188407
 31
0.0
  0
LINE
  5
171
100
AcDbEntity
  8
0
  6
Continuous
 62
               7
100
AcDbLine
 10
333.35031942963172
 20
324.31936126188407
 30
0.0
 11
332.85031942963172
 21
324.81936126188407
 31
0.0
  0
LINE
  5
172
100
AcDbEntity
  8
0
  6
Continuous
 62
               7
100
AcDbLine
 10
205.39766806372239
 20
324.319354553886
 30
0.0
 11
205.39766806372239
 21
360.31936126188407
 31
0.0
  0
LINE
  5
173
100
AcDbEntity
  8
0
  6
Continuous
 62
               7
100
AcDbLine
 10
202.89766806372239
 20
362.81936126188407
 30
0.0
 11
202.89766806372239
 21
362.31936126188407
 31
0.0
  0
LINE
  5
174
100
AcDbEntity
  8
0
  6
Continuous
 62
               7
100
AcDbLine
 10
210.39766806372194
 20
324.31936126188407
 30
0.0
 11
210.39766806372239
 21
360.31936126188407
 31
0.0
  0
LINE
  5
175
100
AcDbEntity
  8
0
  6
Continuous
 62
               7
100
AcDbLine
 10
212.89766806372239
 20
362.81936126188396
 30
0.0
 11
212.89766806372239
 21
362.31936126188396
 31
0.0
  0
LINE
  5
176
100
AcDbEntity
  8
0
  6
Continuous
 62
               7
100
AcDbLine
 10
202.89766806372239
 20
362.81936126188407
 30
0.0
 11
212.89766806372239
 21
362.81936126188396
 31
0.0
  0
LINE
  5
177
100
AcDbEntity
  8
0
  6
Continuous
 62
               7
100
AcDbLine
 10
205.39766806372239
 20
360.31936126188407
 30
0.0
 11
210.39766806372239
 21
360.31936126188407
 31
0.0
  0
LINE
  5
178
100
AcDbEntity
  8
0
  6
Continuous
 62
               7
100
AcDbLine
 10
202.89766806372239
 20
362.31936126188407
 30
0.0
 11
205.39766806372239
 21
360.31936126188407
 31
0.0
  0
LINE
  5
179
100
AcDbEntity
  8
0
  6
Continuous
 62
               7
100
AcDbLine
 10
210.39766806372239
 20
360.31936126188407
 30
0.0
 11
212.89766806372239
 21
362.31936126188396
 31
0.0
  0
LINE
  5
17A
100
AcDbEntity
  8
0
  6
Continuous
 62
               7
100
AcDbLine
 10
202.89766806372239
 20
362.31936126188407
 30
0.0
 11
212.89766806372239
 21
362.31936126188384
 31
0.0
  0
LINE
  5
17B
100
AcDbEntity
  8
0
  6
Continuous
 62
               7
100
AcDbLine
 10
205.39766806372194
 20
324.31936126188407
 30
0.0
 11
207.89766806372194
 21
322.81936126188407
 31
0.0
  0
LINE
  5
17C
100
AcDbEntity
  8
0
  6
Continuous
 62
               7
100
AcDbLine
 10
210.39766806372194
 20
324.31936126188407
 30
0.0
 11
207.89766806372194
 21
322.81936126188407
 31
0.0
  0
LINE
  5
17D
100
AcDbEntity
  8
0
  6
Continuous
 62
               7
100
AcDbLine
 10
205.39766806372239
 20
353.31936126188407
 30
0.0
 11
210.39766806372239
 21
355.31936126188407
 31
0.0
  0
LINE
  5
17E
100
AcDbEntity
  8
0
  6
Continuous
 62
               7
100
AcDbLine
 10
205.39766806372239
 20
351.31936126188407
 30
0.0
 11
210.39766806372239
 21
353.31936126188407
 31
0.0
  0
LINE
  5
17F
100
AcDbEntity
  8
0
  6
Continuous
 62
               7
100
AcDbLine
 10
205.39766806372239
 20
349.31936126188407
 30
0.0
 11
210.39766806372239
 21
351.31936126188407
 31
0.0
  0
LINE
  5
180
100
AcDbEntity
  8
0
  6
Continuous
 62
               7
100
AcDbLine
 10
205.39766806372216
 20
347.31936126188407
 30
0.0
 11
210.39766806372216
 21
349.31936126188407
 31
0.0
  0
LINE
  5
181
100
AcDbEntity
  8
0
  6
Continuous
 62
               7
100
AcDbLine
 10
205.39766806372216
 20
345.31936126188407
 30
0.0
 11
210.39766806372216
 21
347.31936126188407
 31
0.0
  0
LINE
  5
182
100
AcDbEntity
  8
0
  6
Continuous
 62
               7
100
AcDbLine
 10
205.39766806372216
 20
343.31936126188407
 30
0.0
 11
210.39766806372216
 21
345.31936126188407
 31
0.0
  0
LINE
  5
183
100
AcDbEntity
  8
0
  6
Continuous
 62
               7
100
AcDbLine
 10
205.39766806372216
 20
341.31936126188407
 30
0.0
 11
210.39766806372216
 21
343.31936126188407
 31
0.0
  0
LINE
  5
184
100
AcDbEntity
  8
0
  6
Continuous
 62
               7
100
AcDbLine
 10
205.39766806372216
 20
339.31936126188407
 30
0.0
 11
210.39766806372216
 21
341.31936126188407
 31
0.0
  0
LINE
  5
185
100
AcDbEntity
  8
0
  6
Continuous
 62
               7
100
AcDbLine
 10
205.39766806372194
 20
337.31936126188407
 30
0.0
 11
210.39766806372194
 21
339.31936126188407
 31
0.0
  0
LINE
  5
186
100
AcDbEntity
  8
0
  6
Continuous
 62
               7
100
AcDbLine
 10
205.39766806372194
 20
335.31936126188407
 30
0.0
 11
210.39766806372194
 21
337.31936126188418
 31
0.0
  0
LINE
  5
187
100
AcDbEntity
  8
0
  6
Continuous
 62
               7
100
AcDbLine
 10
205.39766806372194
 20
333.31936126188418
 30
0.0
 11
210.39766806372194
 21
335.31936126188407
 31
0.0
  0
LINE
  5
188
100
AcDbEntity
  8
0
  6
Continuous
 62
               7
100
AcDbLine
 10
205.39766806372194
 20
331.31936126188418
 30
0.0
 11
208.39766806372194
 21
332.51936126188423
 31
0.0
  0
LINE
  5
189
100
AcDbEntity
  8
0
  6
Continuous
 62
               7
100
AcDbLine
 10
209.89766806372194
 20
324.81936126188407
 30
0.0
 11
209.89766806372194
 21
333.11936126188436
 31
0.0
  0
LINE
  5
18A
100
AcDbEntity
  8
0
  6
Continuous
 62
               7
100
AcDbLine
 10
208.39766806372194
 20
332.51936126188423
 30
0.0
 11
209.44766806372212
 21
333.56936126188418
 31
0.0
  0
LINE
  5
18B
100
AcDbEntity
  8
0
  6
Continuous
 62
               7
100
AcDbLine
 10
209.89766806372194
 20
333.11936126188425
 30
0.0
 11
209.44766806372212
 21
333.56936126188418
 31
0.0
  0
LINE
  5
18C
100
AcDbEntity
  8
0
  6
Continuous
 62
               7
100
AcDbLine
 10
209.89766806372194
 20
333.11936126188436
 30
0.0
 11
210.39766806372194
 21
333.31936126188407
 31
0.0
  0
LINE
  5
18D
100
AcDbEntity
  8
0
  6
Continuous
 62
               7
100
AcDbLine
 10
210.39766806372194
 20
324.31936126188407
 30
0.0
 11
209.89766806372194
 21
324.81936126188407
 31
0.0
  0
LINE
  5
18E
100
AcDbEntity
  8
0
  6
Continuous
 62
               4
100
AcDbLine
 10
169.37399374667729
 20
337.31936126188452
 30
0.0
 11
179.3739937466766
 21
347.31936126188384
 31
0.0
  0
LINE
  5
18F
100
AcDbEntity
  8
0
  6
Continuous
 62
               4
100
AcDbLine
 10
173.51612937040767
 20
327.31936126188407
 30
0.0
 11
193.51612937040767
 21
347.31936126188384
 31
0.0
  0
LINE
  5
190
100
AcDbEntity
  8
0
  6
Continuous
 62
               4
100
AcDbLine
 10
187.65826499413873
 20
327.31936126188407
 30
0.0
 11
207.65826499413851
 21
347.31936126188384
 31
0.0
  0
LINE
  5
191
100
AcDbEntity
  8
0
  6
Continuous
 62
               4
100
AcDbLine
 10
169.37399374667729
 20
337.31936126188452
 30
0.0
 11
179.3739937466766
 21
327.31936126188521
 31
0.0
  0
LINE
  5
192
100
AcDbEntity
  8
0
  6
Continuous
 62
               4
100
AcDbLine
 10
173.51612937040767
 20
347.31936126188498
 30
0.0
 11
193.51612937040767
 21
327.31936126188521
 31
0.0
  0
LINE
  5
193
100
AcDbEntity
  8
0
  6
Continuous
 62
               4
100
AcDbLine
 10
187.65826499413873
 20
347.31936126188498
 30
0.0
 11
207.65826499413851
 21
327.31936126188521
 31
0.0
  0
LINE
  5
194
100
AcDbEntity
  8
0
  6
Continuous
 62
               4
100
AcDbLine
 10
329.07962123144802
 20
327.31936126188384
 30
0.0
 11
349.07962123144779
 21
347.31936126188373
 31
0.0
  0
LINE
  5
195
100
AcDbEntity
  8
0
  6
Continuous
 62
               4
100
AcDbLine
 10
329.07962123144802
 20
347.31936126188475
 30
0.0
 11
349.07962123144779
 21
327.31936126188498
 31
0.0
  0
LINE
  5
196
100
AcDbEntity
  8
0
  6
Continuous
 62
               4
100
AcDbLine
 10
218.37399374667729
 20
347.31936126188384
 30
0.0
 11
218.37399374667729
 21
327.31936126188521
 31
0.0
  0
LINE
  5
197
100
AcDbEntity
  8
0
  6
Continuous
 62
               4
100
AcDbLine
 10
320.37399374667729
 20
347.31936126188396
 30
0.0
 11
320.37399374667729
 21
327.31936126188498
 31
0.0
  0
LINE
  5
198
100
AcDbEntity
  8
0
  6
Continuous
 62
               4
100
AcDbLine
 10
320.37399374667729
 20
327.74071749919358
 30
0.0
 11
320.79534998398589
 21
327.31936126188498
 31
0.0
  0
LINE
  5
199
100
AcDbEntity
  8
0
  6
Continuous
 62
               4
100
AcDbLine
 10
320.37399374667729
 20
332.75586940084418
 30
0.0
 11
334.93748560771695
 21
347.31936126188373
 31
0.0
  0
LINE
  5
19A
100
AcDbEntity
  8
0
  6
Continuous
 62
               4
100
AcDbLine
 10
320.37399374667729
 20
341.88285312292442
 30
0.0
 11
334.93748560771695
 21
327.31936126188498
 31
0.0
  0
LINE
  5
19B
100
AcDbEntity
  8
0
  6
Continuous
 62
               4
100
AcDbLine
 10
320.37399374667729
 20
346.89800502457524
 30
0.0
 11
320.79534998398589
 21
347.31936126188373
 31
0.0
  0
LINE
  5
19C
100
AcDbEntity
  8
0
  6
Continuous
 62
               4
100
AcDbLine
 10
218.37399374667729
 20
344.88790375680833
 30
0.0
 11
215.94253624160064
 21
347.31936126188498
 31
0.0
  0
LINE
  5
19D
100
AcDbEntity
  8
0
  6
Continuous
 62
               4
100
AcDbLine
 10
218.37399374667729
 20
343.89295439069178
 30
0.0
 11
201.80040061786957
 21
327.31936126188407
 31
0.0
  0
LINE
  5
19E
100
AcDbEntity
  8
0
  6
Continuous
 62
               4
100
AcDbLine
 10
218.37399374667729
 20
330.74576813307749
 30
0.0
 11
201.80040061786957
 21
347.31936126188498
 31
0.0
  0
LINE
  5
19F
100
AcDbEntity
  8
0
  6
Continuous
 62
               4
100
AcDbLine
 10
218.37399374667729
 20
329.75081876696072
 30
0.0
 11
215.94253624160064
 21
327.31936126188407
 31
0.0
  0
LINE
  5
1A0
100
AcDbEntity
  8
0
  6
Continuous
 62
               4
100
AcDbLine
 10
223.37399374667729
 20
330.31936126188407
 30
0.0
 11
269.37399374667729
 21
330.31936126188407
 31
0.0
  0
LINE
  5
1A1
100
AcDbEntity
  8
0
  6
Continuous
 62
               4
100
AcDbLine
 10
246.37399374667729
 20
331.81936126188407
 30
0.0
 11
267.37399374667729
 21
331.81936126188407
 31
0.0
  0
LINE
  5
1A2
100
AcDbEntity
  8
0
  6
Continuous
 62
               4
100
AcDbLine
 10
268.37399374667729
 20
332.81936126188407
 30
0.0
 11
268.37399374667729
 21
334.81936126188407
 31
0.0
  0
LINE
  5
1A3
100
AcDbEntity
  8
0
  6
Continuous
 62
               4
100
AcDbLine
 10
265.83562234007053
 20
334.81936126188407
 30
0.0
 11
268.37399374667729
 21
334.81936126188407
 31
0.0
  0
LINE
  5
1A4
100
AcDbEntity
  8
0
  6
Continuous
 62
               4
100
AcDbLine
 10
265.5614788754844
 20
335.24120280170018
 30
0.0
 11
269.37399374667729
 21
343.81936126188407
 31
0.0
  0
LINE
  5
1A5
100
AcDbEntity
  8
0
  6
Continuous
 62
               4
100
AcDbLine
 10
245.37399374667729
 20
332.81936126188407
 30
0.0
 11
245.37399374667729
 21
341.40542891045629
 31
0.0
  0
LINE
  5
1A6
100
AcDbEntity
  8
0
  6
Continuous
 62
               4
100
AcDbLine
 10
243.37399374667729
 20
332.81936126188407
 30
0.0
 11
243.37399374667729
 21
341.26557528656917
 31
0.0
  0
LINE
  5
1A7
100
AcDbEntity
  8
0
  6
Continuous
 62
               4
100
AcDbLine
 10
237.8727757718072
 20
342.88577644794259
 30
0.0
 11
257.87521172154737
 21
344.28448302501215
 31
0.0
  0
LINE
  5
1A8
100
AcDbEntity
  8
0
  6
Continuous
 62
               4
100
AcDbLine
 10
258.01472466903573
 20
342.2893549244925
 30
0.0
 11
245.37399374667729
 21
341.40542891045629
 31
0.0
  0
LINE
  5
1A9
100
AcDbEntity
  8
0
  6
Continuous
 62
               4
100
AcDbLine
 10
238.01228871929555
 20
340.89064834742294
 30
0.0
 11
243.37399374667729
 21
341.26557528656917
 31
0.0
  0
LINE
  5
1AA
100
AcDbEntity
  8
0
  6
Continuous
 62
               4
100
AcDbLine
 10
237.40887198354943
 20
342.35211618594053
 30
0.0
 11
237.4786284572935
 21
341.35455213568071
 31
0.0
  0
LINE
  5
1AB
100
AcDbEntity
  8
0
  6
Continuous
 62
               4
100
AcDbLine
 10
258.40887198354943
 20
343.82057923675416
 30
0.0
 11
258.4786284572935
 21
342.82301518649433
 31
0.0
  0
LINE
  5
1AC
100
AcDbEntity
  8
0
  6
Continuous
 62
               4
100
AcDbLine
 10
223.87399374667729
 20
331.81936126188407
 30
0.0
 11
242.37399374667729
 21
331.81936126188407
 31
0.0
  0
LINE
  5
1AD
100
AcDbEntity
  8
0
  6
Continuous
 62
               4
100
AcDbLine
 10
315.37399374667729
 20
330.31936126188407
 30
0.0
 11
269.37399374667729
 21
330.31936126188407
 31
0.0
  0
LINE
  5
1AE
100
AcDbEntity
  8
0
  6
Continuous
 62
               4
100
AcDbLine
 10
292.37399374667729
 20
331.81936126188407
 30
0.0
 11
271.37399374667729
 21
331.81936126188407
 31
0.0
  0
LINE
  5
1AF
100
AcDbEntity
  8
0
  6
Continuous
 62
               4
100
AcDbLine
 10
270.37399374667729
 20
332.81936126188407
 30
0.0
 11
270.37399374667729
 21
334.81936126188407
 31
0.0
  0
LINE
  5
1B0
100
AcDbEntity
  8
0
  6
Continuous
 62
               4
100
AcDbLine
 10
272.91236515328404
 20
334.81936126188407
 30
0.0
 11
270.37399374667729
 21
334.81936126188407
 31
0.0
  0
LINE
  5
1B1
100
AcDbEntity
  8
0
  6
Continuous
 62
               4
100
AcDbLine
 10
273.18650861787017
 20
335.24120280170018
 30
0.0
 11
269.37399374667729
 21
343.81936126188407
 31
0.0
  0
LINE
  5
1B2
100
AcDbEntity
  8
0
  6
Continuous
 62
               4
100
AcDbLine
 10
293.37399374667729
 20
332.81936126188407
 30
0.0
 11
293.37399374667729
 21
341.40542891045629
 31
0.0
  0
LINE
  5
1B3
100
AcDbEntity
  8
0
  6
Continuous
 62
               4
100
AcDbLine
 10
295.37399374667729
 20
332.81936126188407
 30
0.0
 11
295.37399374667729
 21
341.26557528656917
 31
0.0
  0
LINE
  5
1B4
100
AcDbEntity
  8
0
  6
Continuous
 62
               4
100
AcDbLine
 10
300.87521172154737
 20
342.88577644794259
 30
0.0
 11
280.8727757718072
 21
344.28448302501215
 31
0.0
  0
LINE
  5
1B5
100
AcDbEntity
  8
0
  6
Continuous
 62
               4
100
AcDbLine
 10
280.73326282431907
 20
342.2893549244925
 30
0.0
 11
293.37399374667729
 21
341.40542891045629
 31
0.0
  0
LINE
  5
1B6
100
AcDbEntity
  8
0
  6
Continuous
 62
               4
100
AcDbLine
 10
300.73569877405924
 20
340.89064834742294
 30
0.0
 11
295.37399374667729
 21
341.26557528656917
 31
0.0
  0
LINE
  5
1B7
100
AcDbEntity
  8
0
  6
Continuous
 62
               4
100
AcDbLine
 10
301.33911550980537
 20
342.35211618594053
 30
0.0
 11
301.26935903606108
 21
341.35455213568071
 31
0.0
  0
LINE
  5
1B8
100
AcDbEntity
  8
0
  6
Continuous
 62
               4
100
AcDbLine
 10
280.33911550980537
 20
343.82057923675416
 30
0.0
 11
280.26935903606108
 21
342.82301518649433
 31
0.0
  0
LINE
  5
1B9
100
AcDbEntity
  8
0
  6
Continuous
 62
               4
100
AcDbLine
 10
314.87399374667729
 20
331.81936126188407
 30
0.0
 11
296.37399374667729
 21
331.81936126188407
 31
0.0
  0
LINE
  5
1BA
100
AcDbEntity
  8
0
  6
Continuous
 62
               3
100
AcDbLine
 10
264.1020691187436
 20
332.86282532643668
 30
0.0
 11
267.87399374667729
 21
332.86282532643668
 31
0.0
  0
LINE
  5
1BB
100
AcDbEntity
  8
0
  6
Continuous
 62
               3
100
AcDbLine
 10
244.54095167795498
 20
346.41291270581996
 30
0.0
 11
249.37399374667729
 21
347.86282532643668
 31
0.0
  0
LINE
  5
1BC
100
AcDbEntity
  8
0
  6
Continuous
 62
               3
100
AcDbLine
 10
244.67856635685388
 20
345.95419710948954
 30
0.0
 11
249.37399374667729
 21
347.36282532643668
 31
0.0
  0
LINE
  5
1BD
100
AcDbEntity
  8
0
  6
Continuous
 62
               3
100
AcDbLine
 10
249.37399374667729
 20
347.36282532643668
 30
0.0
 11
264.64591837461097
 21
347.36282532643668
 31
0.0
  0
LINE
  5
1BE
100
AcDbEntity
  8
0
  6
Continuous
 62
               3
100
AcDbLine
 10
265.6251787941182
 20
346.1602197224006
 30
0.0
 11
263.1228086992366
 21
334.06543093047253
 31
0.0
  0
LINE
  5
1BF
100
AcDbEntity
  8
0
  6
Continuous
 62
               3
100
AcDbLine
 10
249.37399374667729
 20
347.86282532643668
 30
0.0
 11
289.37399374667729
 21
347.86282532643668
 31
0.0
  0
LINE
  5
1C0
100
AcDbEntity
  8
0
  6
Continuous
 62
               3
100
AcDbLine
 10
274.64591837461097
 20
332.86282532643668
 30
0.0
 11
270.87399374667729
 21
332.86282532643668
 31
0.0
  0
LINE
  5
1C1
100
AcDbEntity
  8
0
  6
Continuous
 62
               3
100
AcDbLine
 10
294.20703581539982
 20
346.41291270581996
 30
0.0
 11
289.37399374667729
 21
347.86282532643668
 31
0.0
  0
LINE
  5
1C2
100
AcDbEntity
  8
0
  6
Continuous
 62
               3
100
AcDbLine
 10
294.06942113650069
 20
345.95419710948954
 30
0.0
 11
289.37399374667729
 21
347.36282532643668
 31
0.0
  0
LINE
  5
1C3
100
AcDbEntity
  8
0
  6
Continuous
 62
               3
100
AcDbLine
 10
274.1020691187436
 20
347.36282532643668
 30
0.0
 11
289.37399374667729
 21
347.36282532643668
 31
0.0
  0
LINE
  5
1C4
100
AcDbEntity
  8
0
  6
Continuous
 62
               3
100
AcDbLine
 10
273.1228086992366
 20
346.1602197224006
 30
0.0
 11
275.6251787941182
 21
334.06543093047253
 31
0.0
  0
LINE
  5
1C5
100
AcDbEntity
  8
0
  6
Continuous
 62
               4
100
AcDbLine
 10
318.37399374667729
 20
361.019361261884
 30
0.0
 11
318.37399374667729
 21
333.31936126188407
 31
0.0
  0
LINE
  5
1C6
100
AcDbEntity
  8
0
  6
Continuous
 62
               4
100
AcDbLine
 10
316.87399374667751
 20
361.81936126188407
 30
0.0
 11
316.87399374667729
 21
333.81936126188407
 31
0.0
  0
LINE
  5
1C7
100
AcDbEntity
  8
0
  6
Continuous
 62
               4
100
AcDbLine
 10
220.37399374667729
 20
361.019361261884
 30
0.0
 11
220.37399374667729
 21
333.31936126188407
 31
0.0
  0
LINE
  5
1C8
100
AcDbEntity
  8
0
  6
Continuous
 62
               4
100
AcDbLine
 10
221.87399374667729
 20
361.81936126188407
 30
0.0
 11
221.87399374667729
 21
333.81936126188407
 31
0.0
  0
LINE
  5
1C9
100
AcDbEntity
  8
0
  6
Continuous
 62
               2
100
AcDbLine
 10
239.37399374667729
 20
364.31936126188407
 30
0.0
 11
169.37399374667712
 21
364.31936126188401
 31
0.0
  0
LINE
  5
1CA
100
AcDbEntity
  8
0
  6
Continuous
 62
               2
100
AcDbLine
 10
239.37399374667729
 20
364.31936126188407
 30
0.0
 11
239.37399374667729
 21
344.96282532643625
 31
0.0
  0
LINE
  5
1CB
100
AcDbEntity
  8
0
  6
DASHED
 62
               6
100
AcDbLine
 10
219.37399374667731
 20
329.81936126188407
 30
0.0
 11
219.37399374667731
 21
359.31936126188407
 31
0.0
  0
LINE
  5
1CC
100
AcDbEntity
  8
0
  6
DASHED
 62
               6
100
AcDbLine
 10
319.37399374667729
 20
329.81936126188407
 30
0.0
 11
319.37399374667729
 21
359.31936126188407
 31
0.0
  0
LINE
  5
1CD
100
AcDbEntity
  8
0
  6
DASHED
 62
               6
100
AcDbLine
 10
318.37399374667729
 20
328.81936126188407
 30
0.0
 11
220.37399374667729
 21
328.81936126188407
 31
0.0
  0
LINE
  5
1CE
100
AcDbEntity
  8
0
  6
Continuous
 62
               2
100
AcDbLine
 10
299.37399374667729
 20
364.31936126188401
 30
0.0
 11
299.37399374667729
 21
344.96282532643625
 31
0.0
  0
LINE
  5
1CF
100
AcDbEntity
  8
0
  6
Continuous
 62
               2
100
AcDbLine
 10
299.37399374667729
 20
364.31936126188401
 30
0.0
 11
551.87399374667734
 21
364.31936126188401
 31
0.0
  0
LINE
  5
1D0
100
AcDbEntity
  8
0
  6
Continuous
 62
               4
100
AcDbLine
 10
310.52591753532403
 20
400.30974231865059
 30
0.0
 11
405.55887948921321
 21
400.30974231865059
 31
0.0
  0
LINE
  5
1D1
100
AcDbEntity
  8
0
  6
Continuous
 62
               4
100
AcDbLine
 10
337.08402991804672
 20
386.30974231865059
 30
0.0
 11
467.4597830158819
 21
386.30974231865059
 31
0.0
  0
LINE
  5
1D2
100
AcDbEntity
  8
0
  6
Continuous
 62
               4
100
AcDbLine
 10
280.24567589170323
 20
347.86282532643656
 30
0.0
 11
310.52591753532403
 21
400.30974231865059
 31
0.0
  0
LINE
  5
1D3
100
AcDbEntity
  8
0
  6
Continuous
 62
               4
100
AcDbLine
 10
305.62399374667729
 20
331.81936126188407
 30
0.0
 11
337.08402991804672
 21
386.30974231865059
 31
0.0
  0
LINE
  5
1D4
100
AcDbEntity
  8
0
  6
Continuous
 62
               4
100
AcDbLine
 10
280.24567589170323
 20
347.86282532643656
 30
0.0
 11
286.03076437888211
 21
354.75722531450731
 31
0.0
  0
LINE
  5
1D5
100
AcDbEntity
  8
0
  6
Continuous
 62
               4
100
AcDbLine
 10
280.24567589170323
 20
347.86282532643656
 30
0.0
 11
283.3238571816342
 21
356.32005891350968
 31
0.0
  0
LINE
  5
1D6
100
AcDbEntity
  8
0
  6
Continuous
 62
               4
100
AcDbLine
 10
305.62399374667729
 20
331.81936126188407
 30
0.0
 11
311.40908223385617
 21
338.71376124995498
 31
0.0
  0
LINE
  5
1D7
100
AcDbEntity
  8
0
  6
Continuous
 62
               4
100
AcDbLine
 10
305.62399374667729
 20
331.81936126188407
 30
0.0
 11
308.70217503660825
 21
340.27659484895725
 31
0.0
  0
LINE
  5
1D8
100
AcDbEntity
  8
0
  6
Continuous
 62
               4
100
AcDbLine
 10
379.37399374667717
 20
364.31936126188407
 30
0.0
 11
379.37399374667717
 21
315.31936126188413
 31
0.0
  0
LINE
  5
1D9
100
AcDbEntity
  8
0
  6
Continuous
 62
               3
100
AcDbLine
 10
320.37399374667717
 20
347.31936126188396
 30
0.0
 11
522.87399374667712
 21
347.31936126188396
 31
0.0
  0
LINE
  5
1DA
100
AcDbEntity
  8
0
  6
Continuous
 62
               4
100
AcDbLine
 10
385.64816372637205
 20
327.31936126188384
 30
0.0
 11
405.64816372637182
 21
347.31936126188373
 31
0.0
  0
LINE
  5
1DB
100
AcDbEntity
  8
0
  6
Continuous
 62
               4
100
AcDbLine
 10
385.64816372637205
 20
347.31936126188475
 30
0.0
 11
405.64816372637182
 21
327.31936126188498
 31
0.0
  0
LINE
  5
1DC
100
AcDbEntity
  8
0
  6
Continuous
 62
               4
100
AcDbLine
 10
399.790299350103
 20
327.31936126188384
 30
0.0
 11
419.79029935010277
 21
347.31936126188373
 31
0.0
  0
LINE
  5
1DD
100
AcDbEntity
  8
0
  6
Continuous
 62
               4
100
AcDbLine
 10
399.790299350103
 20
347.31936126188475
 30
0.0
 11
419.79029935010277
 21
327.31936126188498
 31
0.0
  0
LINE
  5
1DE
100
AcDbEntity
  8
0
  6
Continuous
 62
               4
100
AcDbLine
 10
413.93243497383395
 20
327.31936126188384
 30
0.0
 11
433.93243497383372
 21
347.31936126188373
 31
0.0
  0
LINE
  5
1DF
100
AcDbEntity
  8
0
  6
Continuous
 62
               4
100
AcDbLine
 10
413.93243497383395
 20
347.31936126188475
 30
0.0
 11
433.93243497383372
 21
327.31936126188498
 31
0.0
  0
LINE
  5
1E0
100
AcDbEntity
  8
0
  6
Continuous
 62
               4
100
AcDbLine
 10
428.0745705975649
 20
327.31936126188384
 30
0.0
 11
448.07457059756467
 21
347.31936126188373
 31
0.0
  0
LINE
  5
1E1
100
AcDbEntity
  8
0
  6
Continuous
 62
               4
100
AcDbLine
 10
428.0745705975649
 20
347.31936126188475
 30
0.0
 11
448.07457059756467
 21
327.31936126188498
 31
0.0
  0
LINE
  5
1E2
100
AcDbEntity
  8
0
  6
Continuous
 62
               4
100
AcDbLine
 10
442.21670622129591
 20
327.31936126188384
 30
0.0
 11
462.21670622129568
 21
347.31936126188373
 31
0.0
  0
LINE
  5
1E3
100
AcDbEntity
  8
0
  6
Continuous
 62
               4
100
AcDbLine
 10
442.21670622129591
 20
347.31936126188475
 30
0.0
 11
462.21670622129568
 21
327.31936126188498
 31
0.0
  0
LINE
  5
1E4
100
AcDbEntity
  8
0
  6
Continuous
 62
               4
100
AcDbLine
 10
456.35884184502686
 20
327.31936126188384
 30
0.0
 11
476.35884184502663
 21
347.31936126188373
 31
0.0
  0
LINE
  5
1E5
100
AcDbEntity
  8
0
  6
Continuous
 62
               4
100
AcDbLine
 10
456.35884184502686
 20
347.31936126188475
 30
0.0
 11
476.35884184502663
 21
327.31936126188498
 31
0.0
  0
LINE
  5
1E6
100
AcDbEntity
  8
0
  6
Continuous
 62
               4
100
AcDbLine
 10
470.50097746875781
 20
327.31936126188384
 30
0.0
 11
490.50097746875758
 21
347.31936126188373
 31
0.0
  0
LINE
  5
1E7
100
AcDbEntity
  8
0
  6
Continuous
 62
               4
100
AcDbLine
 10
470.50097746875781
 20
347.31936126188475
 30
0.0
 11
490.50097746875758
 21
327.31936126188498
 31
0.0
  0
LINE
  5
1E8
100
AcDbEntity
  8
0
  6
Continuous
 62
               4
100
AcDbLine
 10
484.64311309248876
 20
327.31936126188384
 30
0.0
 11
504.64311309248853
 21
347.31936126188373
 31
0.0
  0
LINE
  5
1E9
100
AcDbEntity
  8
0
  6
Continuous
 62
               4
100
AcDbLine
 10
484.64311309248876
 20
347.31936126188475
 30
0.0
 11
504.64311309248853
 21
327.31936126188498
 31
0.0
  0
LINE
  5
1EA
100
AcDbEntity
  8
0
  6
Continuous
 62
               4
100
AcDbLine
 10
498.78524871621977
 20
327.31936126188384
 30
0.0
 11
518.78524871621948
 21
347.31936126188373
 31
0.0
  0
LINE
  5
1EB
100
AcDbEntity
  8
0
  6
Continuous
 62
               4
100
AcDbLine
 10
498.78524871621977
 20
347.31936126188475
 30
0.0
 11
518.78524871621948
 21
327.31936126188498
 31
0.0
  0
LINE
  5
1EC
100
AcDbEntity
  8
0
  6
Continuous
 62
               3
100
AcDbLine
 10
522.87399374667712
 20
347.31936126188396
 30
0.0
 11
522.87399374667712
 21
359.31936126188413
 31
0.0
  0
LINE
  5
1ED
100
AcDbEntity
  8
0
  6
Continuous
 62
               4
100
AcDbLine
 10
522.873993746677
 20
347.3193612618839
 30
0.0
 11
522.873993746677
 21
327.31936126188413
 31
0.0
  0
LINE
  5
1EE
100
AcDbEntity
  8
0
  6
Continuous
 62
               3
100
AcDbLine
 10
522.87399374667712
 20
315.31936126188413
 30
0.0
 11
522.87399374667712
 21
327.31936126188413
 31
0.0
  0
LINE
  5
1EF
100
AcDbEntity
  8
0
  6
Continuous
 62
               4
100
AcDbLine
 10
522.873993746677
 20
337.37275185515836
 30
0.0
 11
512.92738433995078
 21
347.31936126188475
 31
0.0
  0
LINE
  5
1F0
100
AcDbEntity
  8
0
  6
Continuous
 62
               4
100
AcDbLine
 10
522.873993746677
 20
337.26597066861029
 30
0.0
 11
512.92738433995078
 21
327.31936126188384
 31
0.0
  0
LINE
  5
1F1
100
AcDbEntity
  8
0
  6
Continuous
 62
               4
100
AcDbLine
 10
352.57593382310984
 20
336.67353822981465
 30
0.0
 11
343.22175685517902
 21
327.31936126188384
 31
0.0
  0
LINE
  5
1F2
100
AcDbEntity
  8
0
  6
Continuous
 62
               4
100
AcDbLine
 10
352.57593382310984
 20
337.96518429395405
 30
0.0
 11
343.22175685517902
 21
347.31936126188475
 31
0.0
  0
LINE
  5
1F3
100
AcDbEntity
  8
0
  6
Continuous
 62
               4
100
AcDbLine
 10
382.9766684625576
 20
338.79000162180046
 30
0.0
 11
391.50602810264081
 21
347.31936126188373
 31
0.0
  0
LINE
  5
1F4
100
AcDbEntity
  8
0
  6
Continuous
 62
               4
100
AcDbLine
 10
382.9766684625576
 20
335.84872090196819
 30
0.0
 11
391.50602810264081
 21
327.31936126188498
 31
0.0
  0
LINE
  5
1F5
100
AcDbEntity
  8
0
  6
Continuous
 62
               4
100
AcDbLine
 10
365.37399374667712
 20
327.31936126188413
 30
0.0
 11
365.37399374667712
 21
347.31936126188396
 31
0.0
  0
LINE
  5
1F6
100
AcDbEntity
  8
0
  6
Continuous
 62
               4
100
AcDbLine
 10
512.22379572419527
 20
534.31936126188396
 30
0.0
 11
662.53232379485564
 21
534.31936126188396
 31
0.0
  0
LINE
  5
1F7
100
AcDbEntity
  8
0
  6
Continuous
 62
               4
100
AcDbLine
 10
503.56354168635085
 20
519.31936126188361
 30
0.0
 11
662.53232379485564
 21
519.31936126188373
 31
0.0
  0
LINE
  5
1F8
100
AcDbEntity
  8
0
  6
Continuous
 62
               4
100
AcDbLine
 10
494.90328764850642
 20
504.31936126188384
 30
0.0
 11
662.53232379485553
 21
504.3193612618835
 31
0.0
  0
LINE
  5
1F9
100
AcDbEntity
  8
0
  6
Continuous
 62
               4
100
AcDbLine
 10
486.24303361066217
 20
489.31936126188396
 30
0.0
 11
662.53232379485553
 21
489.31936126188378
 31
0.0
  0
LINE
  5
1FA
100
AcDbEntity
  8
0
  6
Continuous
 62
               4
100
AcDbLine
 10
477.58277957281774
 20
474.31936126188396
 30
0.0
 11
662.53232379485553
 21
474.31936126188378
 31
0.0
  0
LINE
  5
1FB
100
AcDbEntity
  8
0
  6
Continuous
 62
               4
100
AcDbLine
 10
512.22379572419516
 20
534.31936126188396
 30
0.0
 11
389.24818838680488
 21
321.31936126188413
 31
0.0
  0
CIRCLE
  5
1FC
100
AcDbEntity
  8
0
  6
Continuous
 62
               4
100
AcDbCircle
 10
239.37399374667729
 20
408.31936126188361
 30
0.0
 40
1.500000000000002
  0
CIRCLE
  5
1FD
100
AcDbEntity
  8
0
  6
Continuous
 62
               4
100
AcDbCircle
 10
299.37399374667751
 20
408.31936126188361
 30
0.0
 40
1.500000000000002
  0
CIRCLE
  5
1FE
100
AcDbEntity
  8
0
  6
Continuous
 62
               4
100
AcDbCircle
 10
244.54095167795498
 20
390.31936126188384
 30
0.0
 40
1.500000000000002
  0
CIRCLE
  5
1FF
100
AcDbEntity
  8
0
  6
Continuous
 62
               4
100
AcDbCircle
 10
294.20703581540005
 20
390.31936126188384
 30
0.0
 40
1.500000000000002
  0
CIRCLE
  5
200
100
AcDbEntity
  8
0
  6
Continuous
 62
               4
100
AcDbCircle
 10
389.24818838680488
 20
321.31936126188413
 30
0.0
 40
1.5
  0
CIRCLE
  5
201
100
AcDbEntity
  8
0
  6
Continuous
 62
               4
100
AcDbCircle
 10
379.37399374667717
 20
315.31936126188413
 30
0.0
 40
1.5
  0
CIRCLE
  5
202
100
AcDbEntity
  8
0
  6
Continuous
 62
               4
100
AcDbCircle
 10
365.37399374667717
 20
315.31936126188413
 30
0.0
 40
1.5
  0
CIRCLE
  5
203
100
AcDbEntity
  8
0
  6
Continuous
 62
               4
100
AcDbCircle
 10
365.37399374667717
 20
327.31936126188401
 30
0.0
 40
1.5
  0
CIRCLE
  5
204
100
AcDbEntity
  8
0
  6
Continuous
 62
               4
100
AcDbCircle
 10
365.37399374667717
 20
327.31936126188401
 30
0.0
 40
1.5
  0
CIRCLE
  5
205
100
AcDbEntity
  8
0
  6
Continuous
 62
               4
100
AcDbCircle
 10
554.37399374667734
 20
385.31936126188401
 30
0.0
 40
1.5
  0
CIRCLE
  5
206
100
AcDbEntity
  8
0
  6
Continuous
 62
               4
100
AcDbCircle
 10
529.37399374667712
 20
385.31936126188401
 30
0.0
 40
1.5
  0
CIRCLE
  5
207
100
AcDbEntity
  8
0
  6
Continuous
 62
               4
100
AcDbCircle
 10
554.37399374667734
 20
441.31936126188401
 30
0.0
 40
1.5
  0
CIRCLE
  5
208
100
AcDbEntity
  8
0
  6
Continuous
 62
               4
100
AcDbCircle
 10
269.37399374667717
 20
441.31936126188401
 30
0.0
 40
1.5
  0
CIRCLE
  5
209
100
AcDbEntity
  8
0
  6
Continuous
 62
               4
100
AcDbCircle
 10
269.37399374667717
 20
441.31936126188401
 30
0.0
 40
1.5
  0
CIRCLE
  5
20A
100
AcDbEntity
  8
0
  6
Continuous
 62
               4
100
AcDbCircle
 10
575.37399374667734
 20
361.3193650943241
 30
0.0
 40
1.5
  0
CIRCLE
  5
20B
100
AcDbEntity
  8
0
  6
Continuous
 62
               4
100
AcDbCircle
 10
575.37399374667734
 20
321.3193650943241
 30
0.0
 40
1.5
  0
CIRCLE
  5
20C
100
AcDbEntity
  8
0
  6
Continuous
 62
               4
100
AcDbCircle
 10
529.37399374667712
 20
300.31936509432393
 30
0.0
 40
1.5
  0
CIRCLE
  5
20D
100
AcDbEntity
  8
0
  6
Continuous
 62
               4
100
AcDbCircle
 10
524.37399374667712
 20
300.31936509432393
 30
0.0
 40
1.5
  0
CIRCLE
  5
20E
100
AcDbEntity
  8
0
  6
Continuous
 62
               4
100
AcDbCircle
 10
379.37399374667717
 20
364.31936126188401
 30
0.0
 40
1.5
  0
CIRCLE
  5
20F
100
AcDbEntity
  8
0
  6
Continuous
 62
               4
100
AcDbCircle
 10
365.37399374667717
 20
359.31936126188413
 30
0.0
 40
1.5
  0
CIRCLE
  5
210
100
AcDbEntity
  8
0
  6
Continuous
 62
               4
100
AcDbCircle
 10
365.37399374667717
 20
359.31936126188413
 30
0.0
 40
1.5
  0
CIRCLE
  5
211
100
AcDbEntity
  8
0
  6
Continuous
 62
               4
100
AcDbCircle
 10
365.37399374667717
 20
364.31936126188401
 30
0.0
 40
1.5
  0
CIRCLE
  5
212
100
AcDbEntity
  8
0
  6
Continuous
 62
               4
100
AcDbCircle
 10
407.72339700087292
 20
353.3193612618843
 30
0.0
 40
1.5
  0
CIRCLE
  5
213
100
AcDbEntity
  8
0
  6
Continuous
 62
               4
100
AcDbCircle
 10
412.34219915439002
 20
361.3193612618843
 30
0.0
 40
1.5
  0
CIRCLE
  5
214
100
AcDbEntity
  8
0
  6
Continuous
 62
               4
100
AcDbCircle
 10
414.07424996195886
 20
364.31936126188418
 30
0.0
 40
1.5
  0
CIRCLE
  5
215
100
AcDbEntity
  8
0
  6
Continuous
 62
               4
100
AcDbCircle
 10
365.37399374667717
 20
347.31936126188401
 30
0.0
 40
1.5
  0
CIRCLE
  5
216
100
AcDbEntity
  8
0
  6
Continuous
 62
               4
100
AcDbCircle
 10
365.37399374667717
 20
347.31936126188401
 30
0.0
 40
1.5
  0
ARC
  5
217
100
AcDbEntity
  8
0
  6
Continuous
 62
               6
100
AcDbCircle
 10
518.27399384204455
 20
310.7193613572515
 30
0.0
 40
2.2999999523162842
100
AcDbArc
 50
0.0
 51
90.000000000000028
  0
ARC
  5
218
100
AcDbEntity
  8
0
  6
Continuous
 62
               6
100
AcDbCircle
 10
518.27399384204455
 20
310.7193613572515
 30
0.0
 40
4.5999999046325684
100
AcDbArc
 50
0.0
 51
90.000000000000028
  0
ARC
  5
219
100
AcDbEntity
  8
0
  6
Continuous
 62
               6
100
AcDbCircle
 10
477.47399365130974
 20
310.7193613572515
 30
0.0
 40
2.2999999523162842
100
AcDbArc
 50
90.000000000000028
 51
180.0
  0
ARC
  5
21A
100
AcDbEntity
  8
0
  6
Continuous
 62
               6
100
AcDbCircle
 10
477.47399365130974
 20
310.7193613572515
 30
0.0
 40
4.5999999046325684
100
AcDbArc
 50
90.000000000000028
 51
180.0
  0
ARC
  5
21B
100
AcDbEntity
  8
0
  6
Continuous
 62
               6
100
AcDbCircle
 10
477.47399365130974
 20
219.91936116651652
 30
0.0
 40
4.5999999046325684
100
AcDbArc
 50
180.0
 51
270.0
  0
ARC
  5
21C
100
AcDbEntity
  8
0
  6
Continuous
 62
               6
100
AcDbCircle
 10
477.47399365130974
 20
219.91936116651652
 30
0.0
 40
2.2999999523162842
100
AcDbArc
 50
180.0
 51
270.0
  0
ARC
  5
21D
100
AcDbEntity
  8
0
  6
Continuous
 62
               6
100
AcDbCircle
 10
518.27399384204455
 20
219.91936116651652
 30
0.0
 40
2.2999999523162842
100
AcDbArc
 50
270.0
 51
0.0
  0
ARC
  5
21E
100
AcDbEntity
  8
0
  6
Continuous
 62
               6
100
AcDbCircle
 10
518.27399384204455
 20
219.91936116651652
 30
0.0
 40
4.5999999046325684
100
AcDbArc
 50
270.0
 51
0.0
  0
ARC
  5
21F
100
AcDbEntity
  8
0
  6
Continuous
 62
               6
100
AcDbCircle
 10
464.87399374667717
 20
214.3193612618839
 30
0.0
 40
2.0
100
AcDbArc
 50
180.0
 51
270.0
  0
ARC
  5
220
100
AcDbEntity
  8
0
  6
Continuous
 62
               6
100
AcDbCircle
 10
491.87399374667717
 20
187.3193612618839
 30
0.0
 40
2.0
100
AcDbArc
 50
180.0
 51
270.0
  0
ARC
  5
221
100
AcDbEntity
  8
0
  6
Continuous
 62
               6
100
AcDbCircle
 10
485.87399374667717
 20
208.3193612618839
 30
0.0
 40
4.0
100
AcDbArc
 50
0.0
 51
90.000000000000199
  0
ARC
  5
222
100
AcDbEntity
  8
0
  6
Continuous
 62
               6
100
AcDbCircle
 10
520.87399374667734
 20
181.31936126188401
 30
0.0
 40
2.0
100
AcDbArc
 50
0.0
 51
90.000000000000028
  0
ARC
  5
223
100
AcDbEntity
  8
0
  6
Continuous
 62
               6
100
AcDbCircle
 10
493.87399374667717
 20
208.3193612618839
 30
0.0
 40
2.0
100
AcDbArc
 50
0.0
 51
90.000000000000028
  0
ARC
  5
224
100
AcDbEntity
  8
0
  6
Continuous
 62
               6
100
AcDbCircle
 10
499.87399374667729
 20
187.3193612618839
 30
0.0
 40
4.0
100
AcDbArc
 50
180.0
 51
270.0
  0
ARC
  5
225
100
AcDbEntity
  8
0
  6
Continuous
 62
               2
100
AcDbCircle
 10
522.87399374667712
 20
124.81936126188401
 30
0.0
 40
1.500000000000004
100
AcDbArc
 50
180.0
 51
0.0
  0
ARC
  5
226
100
AcDbEntity
  8
0
  6
Continuous
 62
               7
100
AcDbCircle
 10
511.25421694069809
 20
168.9597586384391
 30
0.0
 40
13.0
100
AcDbArc
 50
247.38013505196099
 51
292.61986494804154
  0
ARC
  5
227
100
AcDbEntity
  8
0
  6
Continuous
 62
               7
100
AcDbCircle
 10
530.74443860402221
 20
172.38508883215889
 30
0.0
 40
20.0
100
AcDbArc
 50
161.71562731393624
 51
181.7917310571265
  0
ARC
  5
228
100
AcDbEntity
  8
0
  6
Continuous
 62
               2
100
AcDbCircle
 10
551.87399374667734
 20
361.81936126188413
 30
0.0
 40
2.5000000000000142
100
AcDbArc
 50
270.0
 51
90.0
  0
ARC
  5
229
100
AcDbEntity
  8
0
  6
Continuous
 62
               2
100
AcDbCircle
 10
528.62399374667712
 20
322.0693650943241
 30
0.0
 40
0.750000000000007
100
AcDbArc
 50
180.0
 51
0.0
  0
ARC
  5
22A
100
AcDbEntity
  8
0
  6
Continuous
 62
               7
100
AcDbCircle
 10
451.36219789441651
 20
329.15330772151378
 30
0.0
 40
30.0
100
AcDbArc
 50
344.86278517270802
 51
2.9923020128758626
  0
ARC
  5
22B
100
AcDbEntity
  8
0
  6
Continuous
 62
               7
100
AcDbCircle
 10
465.09947565600208
 20
330.35330772151383
 30
0.0
 40
30.0
100
AcDbArc
 50
344.86278517270802
 51
2.9923020128758626
  0
ARC
  5
22C
100
AcDbEntity
  8
0
  6
Continuous
 62
               2
100
AcDbCircle
 10
552.12399374667734
 20
362.06936121930136
 30
0.0
 40
0.749999999999996
100
AcDbArc
 50
269.99999024077198
 51
89.999990240771467
  0
ARC
  5
22D
100
AcDbEntity
  8
0
  6
DASHED
 62
               6
100
AcDbCircle
 10
320.37399374667729
 20
359.31936126188407
 30
0.0
 40
1.0
100
AcDbArc
 50
90.000000000000028
 51
180.0
  0
ARC
  5
22E
100
AcDbEntity
  8
0
  6
DASHED
 62
               6
100
AcDbCircle
 10
218.37399374667729
 20
359.31936126188407
 30
0.0
 40
1.0
100
AcDbArc
 50
0.0
 51
90.000000000000028
  0
ARC
  5
22F
100
AcDbEntity
  8
0
  6
Continuous
 62
               7
100
AcDbCircle
 10
301.39122270912497
 20
330.95330772151385
 30
0.0
 40
30.0
100
AcDbArc
 50
344.86278517270807
 51
2.9923020128759648
  0
ARC
  5
230
100
AcDbEntity
  8
0
  6
Continuous
 62
               7
100
AcDbCircle
 10
178.43857134321519
 20
330.95330772151385
 30
0.0
 40
30.0
100
AcDbArc
 50
344.86278517270807
 51
2.9923020128759648
  0
ARC
  5
231
100
AcDbEntity
  8
0
  6
Continuous
 62
               4
100
AcDbCircle
 10
265.83562234007053
 20
335.11936126188425
 30
0.0
 40
0.3
100
AcDbArc
 50
156.03751102542176
 51
270.0
  0
ARC
  5
232
100
AcDbEntity
  8
0
  6
Continuous
 62
               4
100
AcDbCircle
 10
267.37399374667729
 20
332.81936126188407
 30
0.0
 40
1.0
100
AcDbArc
 50
270.0
 51
0.0
  0
ARC
  5
233
100
AcDbEntity
  8
0
  6
Continuous
 62
               4
100
AcDbCircle
 10
257.97984643216358
 20
342.78813694962241
 30
0.0
 40
0.5
100
AcDbArc
 50
273.99999999999989
 51
3.9999999999999547
  0
ARC
  5
234
100
AcDbEntity
  8
0
  6
Continuous
 62
               4
100
AcDbCircle
 10
257.91008995841952
 20
343.78570099988224
 30
0.0
 40
0.5
100
AcDbArc
 50
3.9999999999999898
 51
93.999999999999901
  0
ARC
  5
235
100
AcDbEntity
  8
0
  6
Continuous
 62
               4
100
AcDbCircle
 10
237.97741048242341
 20
341.38943037255285
 30
0.0
 40
0.5
100
AcDbArc
 50
183.99999999999997
 51
273.99999999999994
  0
ARC
  5
236
100
AcDbEntity
  8
0
  6
Continuous
 62
               4
100
AcDbCircle
 10
237.90765400867934
 20
342.38699442281268
 30
0.0
 40
0.5
100
AcDbArc
 50
93.999999999999901
 51
183.99999999999997
  0
ARC
  5
237
100
AcDbEntity
  8
0
  6
Continuous
 62
               4
100
AcDbCircle
 10
246.37399374667729
 20
332.81936126188407
 30
0.0
 40
1.0
100
AcDbArc
 50
180.0
 51
270.0
  0
ARC
  5
238
100
AcDbEntity
  8
0
  6
Continuous
 62
               4
100
AcDbCircle
 10
242.37399374667729
 20
332.81936126188407
 30
0.0
 40
1.0
100
AcDbArc
 50
270.0
 51
0.0
  0
ARC
  5
239
100
AcDbEntity
  8
0
  6
Continuous
 62
               4
100
AcDbCircle
 10
223.87399374667729
 20
333.81936126188407
 30
0.0
 40
2.0
100
AcDbArc
 50
180.0
 51
270.0
  0
ARC
  5
23A
100
AcDbEntity
  8
0
  6
Continuous
 62
               4
100
AcDbCircle
 10
223.37399374667729
 20
333.31936126188407
 30
0.0
 40
3.0
100
AcDbArc
 50
180.0
 51
270.0
  0
ARC
  5
23B
100
AcDbEntity
  8
0
  6
Continuous
 62
               4
100
AcDbCircle
 10
272.91236515328404
 20
335.11936126188425
 30
0.0
 40
0.3
100
AcDbArc
 50
270.0
 51
23.962488974578136
  0
ARC
  5
23C
100
AcDbEntity
  8
0
  6
Continuous
 62
               4
100
AcDbCircle
 10
271.37399374667729
 20
332.81936126188407
 30
0.0
 40
1.0
100
AcDbArc
 50
180.0
 51
270.0
  0
ARC
  5
23D
100
AcDbEntity
  8
0
  6
Continuous
 62
               4
100
AcDbCircle
 10
280.76814106119099
 20
342.78813694962241
 30
0.0
 40
0.5
100
AcDbArc
 50
176.00000000000011
 51
266.00000000000011
  0
ARC
  5
23E
100
AcDbEntity
  8
0
  6
Continuous
 62
               4
100
AcDbCircle
 10
280.83789753493528
 20
343.78570099988224
 30
0.0
 40
0.5
100
AcDbArc
 50
85.999999999999986
 51
175.99999999999989
  0
ARC
  5
23F
100
AcDbEntity
  8
0
  6
Continuous
 62
               4
100
AcDbCircle
 10
300.77057701093116
 20
341.38943037255285
 30
0.0
 40
0.5
100
AcDbArc
 50
266.0
 51
356.00000000000011
  0
ARC
  5
240
100
AcDbEntity
  8
0
  6
Continuous
 62
               4
100
AcDbCircle
 10
300.84033348467545
 20
342.38699442281268
 30
0.0
 40
0.5
100
AcDbArc
 50
355.99999999999989
 51
86.0
  0
ARC
  5
241
100
AcDbEntity
  8
0
  6
Continuous
 62
               4
100
AcDbCircle
 10
292.37399374667729
 20
332.81936126188407
 30
0.0
 40
1.0
100
AcDbArc
 50
270.0
 51
0.0
  0
ARC
  5
242
100
AcDbEntity
  8
0
  6
Continuous
 62
               4
100
AcDbCircle
 10
296.37399374667729
 20
332.81936126188407
 30
0.0
 40
1.0
100
AcDbArc
 50
180.0
 51
270.0
  0
ARC
  5
243
100
AcDbEntity
  8
0
  6
Continuous
 62
               4
100
AcDbCircle
 10
314.87399374667729
 20
333.81936126188407
 30
0.0
 40
2.0
100
AcDbArc
 50
270.0
 51
0.0
  0
ARC
  5
244
100
AcDbEntity
  8
0
  6
Continuous
 62
               4
100
AcDbCircle
 10
315.37399374667729
 20
333.31936126188407
 30
0.0
 40
3.0
100
AcDbArc
 50
270.0
 51
0.0
  0
ARC
  5
245
100
AcDbEntity
  8
0
  6
Continuous
 62
               3
100
AcDbCircle
 10
264.1020691187436
 20
333.86282532643668
 30
0.0
 40
1.0
100
AcDbArc
 50
168.31063082456077
 51
270.0
  0
ARC
  5
246
100
AcDbEntity
  8
0
  6
Continuous
 62
               3
100
AcDbCircle
 10
264.64591837461097
 20
346.36282532643668
 30
0.0
 40
1.0
100
AcDbArc
 50
348.31063082456069
 51
90.0
  0
ARC
  5
247
100
AcDbEntity
  8
0
  6
Continuous
 62
               3
100
AcDbCircle
 10
244.60975901740443
 20
346.18355490765475
 30
0.0
 40
0.23945657130529
100
AcDbArc
 50
106.6992442339936
 51
286.69924423399368
  0
ARC
  5
248
100
AcDbEntity
  8
0
  6
Continuous
 62
               3
100
AcDbCircle
 10
274.64591837461097
 20
333.86282532643668
 30
0.0
 40
1.0
100
AcDbArc
 50
270.0
 51
11.68936917543915
  0
ARC
  5
249
100
AcDbEntity
  8
0
  6
Continuous
 62
               3
100
AcDbCircle
 10
274.1020691187436
 20
346.36282532643668
 30
0.0
 40
1.0
100
AcDbArc
 50
90.000000000000028
 51
191.68936917543911
  0
ARC
  5
24A
100
AcDbEntity
  8
0
  6
Continuous
 62
               3
100
AcDbCircle
 10
294.13822847595037
 20
346.18355490765475
 30
0.0
 40
0.23945657130529
100
AcDbArc
 50
253.30075576600635
 51
73.30075576600639
  0
ARC
  5
24B
100
AcDbEntity
  8
0
  6
Continuous
 62
               4
100
AcDbCircle
 10
317.37399374667729
 20
361.81936126188407
 30
0.0
 40
0.5
100
AcDbArc
 50
90.000000000000028
 51
180.0
  0
ARC
  5
24C
100
AcDbEntity
  8
0
  6
Continuous
 62
               4
100
AcDbCircle
 10
317.37399374667729
 20
361.81936126188407
 30
0.0
 40
0.5
100
AcDbArc
 50
90.000000000000028
 51
180.0
  0
ARC
  5
24D
100
AcDbEntity
  8
0
  6
Continuous
 62
               4
100
AcDbCircle
 10
221.37399374667729
 20
361.81936126188407
 30
0.0
 40
0.5
100
AcDbArc
 50
0.0
 51
90.000000000000028
  0
ARC
  5
24E
100
AcDbEntity
  8
0
  6
DASHED
 62
               6
100
AcDbCircle
 10
220.37399374667729
 20
329.81936126188407
 30
0.0
 40
1.0
100
AcDbArc
 50
180.0
 51
270.0
  0
ARC
  5
24F
100
AcDbEntity
  8
0
  6
DASHED
 62
               6
100
AcDbCircle
 10
318.37399374667729
 20
329.81936126188407
 30
0.0
 40
1.0
100
AcDbArc
 50
270.0
 51
0.0
  0
TEXT
  5
250
100
AcDbEntity
  8
0
 62
               7
100
AcDbText
 10
264.5739937466775
 20
408.31936126188361
 30
0.0
 40
9.6000000000000103
  1
60
 41
0.7695
  7
FontTableH_0
 72
               5
 11
274.17399374667752
 21
408.31936126188361
 31
0.0
100
AcDbText
  0
TEXT
  5
251
100
AcDbEntity
  8
0
 62
               7
100
AcDbText
 10
264.5739937466775
 20
390.31936126188384
 30
0.0
 40
9.6000000000000103
  1
50
 41
0.7695
  7
FontTableH_0
 72
               5
 11
274.17399374667752
 21
390.31936126188384
 31
0.0
100
AcDbText
  0
TEXT
  5
252
100
AcDbEntity
  8
0
 62
               7
100
AcDbText
 10
740.28679787570582
 20
26.713203554805766
 30
0.0
 40
8.9999997615814333
  1
ケラバ詳細図 【S=1/3】
 41
0.7695
  7
FontTableH_0
 72
               5
 11
839.28679525310156
 21
26.713203554805766
 31
0.0
100
AcDbText
  0
TEXT
  5
253
100
AcDbEntity
  8
0
 62
               7
100
AcDbText
 10
606.1471435924218
 20
188.5065825519826
 30
0.0
 40
9.6000000000000103
  1
力板
 41
0.7695
  7
FontTableH_0
 72
               5
 11
625.34714359242184
 21
188.5065825519826
 31
0.0
100
AcDbText
  0
TEXT
  5
254
100
AcDbEntity
  8
0
 62
               7
100
AcDbText
 10
363.87382816273424
 20
316.51955252268573
 30
0.0
 40
9.6000000000000103
  1
12
 50
89.999982013910653
 41
0.7695
  7
FontTableH_0
 72
               5
 11
363.87383117633243
 21
326.11955252268524
 31
0.0
100
AcDbText
  0
TEXT
  5
255
100
AcDbEntity
  8
0
 62
               7
100
AcDbText
 10
537.0740234752343
 20
386.8196929035451
 30
0.0
 40
9.599999999999806
  1
25
 41
0.7695
  7
FontTableH_0
 72
               5
 11
546.67402347523443
 21
386.8196929035451
 31
0.0
100
AcDbText
  0
TEXT
  5
256
100
AcDbEntity
  8
0
 62
               7
100
AcDbText
 10
368.67381595570299
 20
442.8196929035451
 30
0.0
 40
9.5999999999999766
  1
（割付により調整）
 41
0.7695
  7
FontTableH_0
 72
               5
 11
455.07381595570314
 21
442.8196929035451
 31
0.0
100
AcDbText
  0
TEXT
  5
257
100
AcDbEntity
  8
0
 62
               7
100
AcDbText
 10
573.8746826549218
 20
336.51979666331073
 30
0.0
 40
9.5999999999999392
  1
40
 50
89.99998201391135
 41
0.7695
  7
FontTableH_0
 72
               5
 11
573.87468566851987
 21
346.11979666331018
 31
0.0
100
AcDbText
  0
TEXT
  5
258
100
AcDbEntity
  8
0
 62
               7
100
AcDbText
 10
524.4739258189843
 20
301.81960135081073
 30
0.0
 40
9.5999999999999766
  1
5
 41
0.7695
  7
FontTableH_0
 72
               5
 11
529.27392581898437
 21
301.81960135081073
 31
0.0
100
AcDbText
  0
TEXT
  5
259
100
AcDbEntity
  8
0
 62
               7
100
AcDbText
 10
363.87382816273424
 20
348.5195220051076
 30
0.0
 40
9.5999999999999392
  1
12
 50
89.999982013910383
 41
0.7695
  7
FontTableH_0
 72
               5
 11
363.87383117633249
 21
358.11952200510706
 31
0.0
100
AcDbText
  0
TEXT
  5
25A
100
AcDbEntity
  8
0
 62
               7
100
AcDbText
 10
363.87382816273424
 20
365.41960745432635
 30
0.0
 40
9.5999999999999392
  1
5
 50
89.99998201391135
 41
0.7695
  7
FontTableH_0
 72
               5
 11
363.87382966953328
 21
370.21960745432608
 31
0.0
100
AcDbText
  0
TEXT
  5
25B
100
AcDbEntity
  8
0
 62
               7
100
AcDbText
 10
599.37399374667757
 20
379.5473540363576
 30
0.0
 40
9.5999999999999766
  1
ケラバ唐草：屋根同材
 41
0.7695
  7
FontTableH_0
 72
               5
 11
695.37399374667768
 21
379.5473540363576
 31
0.0
100
AcDbText
  0
TEXT
  5
25C
100
AcDbEntity
  8
0
 62
               7
100
AcDbText
 10
598.82492532227832
 20
312.26912527659198
 30
0.0
 40
9.5999999999999766
  1
ケラバ役物：屋根同材
 41
0.7695
  7
FontTableH_0
 72
               5
 11
694.82492532227843
 21
312.26912527659198
 31
0.0
100
AcDbText
  0
TEXT
  5
25D
100
AcDbEntity
  8
0
 62
               7
100
AcDbText
 10
337.08403037201208
 20
387.81298081543582
 30
0.0
 40
9.600000000000243
  1
ガーター（アルミアルマイト）
 50
359.99998269715593
 41
0.7695
  7
FontTableH_0
 72
               5
 11
471.48403037200615
 21
387.8129402277649
 31
0.0
100
AcDbText
  0
TEXT
  5
25E
100
AcDbEntity
  8
0
 62
               7
100
AcDbText
 10
310.5259179884228
 20
401.8101112960847
 30
0.0
 40
9.6000000000000725
  1
ジョイナー：屋根同材
 50
359.99998269715599
 41
0.7695
  7
FontTableH_0
 72
               5
 11
406.52591798841843
 21
401.8100823048913
 31
0.0
100
AcDbText
  0
TEXT
  5
25F
100
AcDbEntity
  8
0
 62
               7
100
AcDbText
 10
377.87383110839687
 20
334.40310900687928
 30
0.0
 40
9.6000000000000103
  1
49
 50
89.999982013910653
 41
0.7695
  7
FontTableH_0
 72
               5
 11
377.87383412199506
 21
344.00310900687879
 31
0.0
100
AcDbText
  0
TEXT
  5
260
100
AcDbEntity
  8
0
 62
               7
100
AcDbText
 10
363.87383110839681
 20
331.90310900687911
 30
0.0
 40
9.5999999999999392
  1
20
 50
89.999982013910383
 41
0.7695
  7
FontTableH_0
 72
               5
 11
363.87383412199506
 21
341.50310900687856
 31
0.0
100
AcDbText
  0
TEXT
  5
261
100
AcDbEntity
  8
0
 62
               7
100
AcDbText
 10
209.61324763390411
 20
441.31936126188401
 30
0.0
 40
9.5999999999999766
  1
@925
 41
0.7695
  7
FontTableH_0
 72
               5
 11
228.81324763390415
 21
441.31936126188401
 31
0.0
100
AcDbText
  0
TEXT
  5
262
100
AcDbEntity
  8
0
 62
               7
100
AcDbText
 10
515.22344748051501
 20
520.81887800712263
 30
0.0
 40
9.6000000000001471
  1
アスファルトルーフィング 22Kg
 41
0.7695
  7
FontTableH_0
 72
               5
 11
654.42344748051505
 21
520.81887800712263
 31
0.0
100
AcDbText
  0
TEXT
  5
263
100
AcDbEntity
  8
0
 62
               7
100
AcDbText
 10
515.22344748051501
 20
535.81887800712286
 30
0.0
 40
9.6000000000001471
  1
プロムナ－ル－フV：各種金属板
 41
0.7695
  7
FontTableH_0
 72
               5
 11
654.42344748051505
 21
535.81887800712286
 31
0.0
100
AcDbText
  0
TEXT
  5
264
100
AcDbEntity
  8
0
 62
               7
100
AcDbText
 10
515.22344748051501
 20
505.81887800712286
 30
0.0
 40
9.5999999999999766
  1
硬質木片セメント板 12mm
 41
0.7695
  7
FontTableH_0
 72
               5
 11
625.62344748051498
 21
505.81887800712286
 31
0.0
100
AcDbText
  0
TEXT
  5
265
100
AcDbEntity
  8
0
 62
               7
100
AcDbText
 10
515.22344748051501
 20
475.81887800712281
 30
0.0
 40
9.5999999999996355
  1
硬質木片セメント板 12mm
 41
0.7695
  7
FontTableH_0
 72
               5
 11
625.62344748051498
 21
475.81887800712281
 31
0.0
100
AcDbText
  0
TEXT
  5
266
100
AcDbEntity
  8
0
 62
               7
100
AcDbText
 10
515.22344748051501
 20
490.81887800712281
 30
0.0
 40
9.6000000000003158
  1
断熱材 20mm
 41
0.7695
  7
FontTableH_0
 72
               5
 11
568.02344748051519
 21
490.81887800712281
 31
0.0
100
AcDbText
  0
TEXT
  5
267
100
AcDbEntity
  8
0
 62
               7
100
AcDbText
 10
50.892136637009877
 20
601.35786449547834
 30
0.0
 40
8.9999997615814333
  1
プロムナールーフV
 41
0.7695
  7
FontTableH_0
 72
               5
 11
127.39213461045206
 21
601.35786449547834
 31
0.0
100
AcDbText
  0
LINE
  5
268
100
AcDbEntity
  8
Layer00001
  6
Continuous
 62
               2
100
AcDbLine
 10
299.37399374667774
 20
344.96282532643653
 30
0.0
 11
279.37399374667774
 21
344.9628253264371
 31
0.0
  0
LINE
  5
269
100
AcDbEntity
  8
Layer00001
  6
Continuous
 62
               2
100
AcDbLine
 10
239.37399374667774
 20
344.96282532643653
 30
0.0
 11
259.37399374667774
 21
344.9628253264371
 31
0.0
  0
ENDSEC
  0
SECTION
  2
OBJECTS
  0
DICTIONARY
  5
19
100
AcDbDictionary
  3
ACAD_GROUP
350
1A
  3
ACAD_MLINESTYLE
350
1B
  3
DWGPROPS
350
26A
  0
DICTIONARY
  5
1A
102
{ACAD_REACTORS
330
19
102
}
100
AcDbDictionary
  0
DICTIONARY
  5
1B
102
{ACAD_REACTORS
330
19
102
}
100
AcDbDictionary
  3
STANDARD
350
1C
  0
MLINESTYLE
  5
1C
102
{ACAD_REACTORS
330
1B
102
}
100
AcDbMlineStyle
  2
Standard
 70
               0
  3

 62
               0
 51
90.0
 52
90.0
 71
               2
 49
0.5
 62
             256
  6
ByLayer
 49
-0.5
 62
             256
  6
ByLayer
  0
XRECORD
  5
26A
100
AcDbXrecord
  1
DWGPROPS COOKIE
  2

  3

  4

  6

  7

  0
ENDSEC
  0
EOF
