  0
SECTION
  2
HEADER
  9
$ACADVER
  1
AC1014
  9
$ACADMAINTVER
 70
               0
  9
$DWGCODEPAGE
  3
ANSI_932
  9
$INSBASE
 10
0.0
 20
0.0
 30
0.0
  9
$EXTMIN
 10
0.0
 20
0.0
 30
0.0
  9
$EXTMAX
 10
891.00000000000091
 20
630.00000000000068
 30
0.0
  9
$LIMMIN
 10
0.0
 20
0.0
  9
$LIMMAX
 10
891.00000000000091
 20
630.00000000000068
  9
$ORTHOMODE
 70
               0
  9
$REGENMODE
 70
               1
  9
$FILLMODE
 70
               1
  9
$QTEXTMODE
 70
               0
  9
$MIRRTEXT
 70
               1
  9
$DRAGMODE
 70
               2
  9
$LTSCALE
 40
3.0000000000000031
  9
$OSMODE
 70
               0
  9
$ATTMODE
 70
               1
  9
$TEXTSIZE
 40
0.2
  9
$TRACEWID
 40
0.05
  9
$TEXTSTYLE
  7
Standard
  9
$CLAYER
  8
0
  9
$CELTYPE
  6
Continuous
  9
$CECOLOR
 62
             256
  9
$CELTSCALE
 40
1.0
  9
$DELOBJ
 70
               1
  9
$DISPSILH
 70
               0
  9
$DIMSCALE
 40
1.0
  9
$DIMASZ
 40
0.18
  9
$DIMEXO
 40
0.0625
  9
$DIMDLI
 40
0.38
  9
$DIMRND
 40
0.0
  9
$DIMDLE
 40
0.0
  9
$DIMEXE
 40
0.18
  9
$DIMTP
 40
0.0
  9
$DIMTM
 40
0.0
  9
$DIMTXT
 40
0.18
  9
$DIMCEN
 40
0.09
  9
$DIMTSZ
 40
0.0
  9
$DIMTOL
 70
               0
  9
$DIMLIM
 70
               0
  9
$DIMTIH
 70
               1
  9
$DIMTOH
 70
               1
  9
$DIMSE1
 70
               0
  9
$DIMSE2
 70
               0
  9
$DIMTAD
 70
               0
  9
$DIMZIN
 70
               0
  9
$DIMBLK
  1

  9
$DIMASO
 70
               1
  9
$DIMSHO
 70
               1
  9
$DIMPOST
  1

  9
$DIMAPOST
  1

  9
$DIMALT
 70
               0
  9
$DIMALTD
 70
               2
  9
$DIMALTF
 40
25.399999999999999
  9
$DIMLFAC
 40
1.0
  9
$DIMTOFL
 70
               0
  9
$DIMTVP
 40
0.0
  9
$DIMTIX
 70
               0
  9
$DIMSOXD
 70
               0
  9
$DIMSAH
 70
               0
  9
$DIMBLK1
  1

  9
$DIMBLK2
  1

  9
$DIMSTYLE
  2
Standard
  9
$DIMCLRD
 70
               0
  9
$DIMCLRE
 70
               0
  9
$DIMCLRT
 70
               0
  9
$DIMTFAC
 40
1.0
  9
$DIMGAP
 40
0.09
  9
$DIMJUST
 70
               0
  9
$DIMSD1
 70
               0
  9
$DIMSD2
 70
               0
  9
$DIMTOLJ
 70
               1
  9
$DIMTZIN
 70
               0
  9
$DIMALTZ
 70
               0
  9
$DIMALTTZ
 70
               0
  9
$DIMFIT
 70
               3
  9
$DIMUPT
 70
               0
  9
$DIMUNIT
 70
               2
  9
$DIMDEC
 70
               4
  9
$DIMTDEC
 70
               4
  9
$DIMALTU
 70
               2
  9
$DIMALTTD
 70
               2
  9
$DIMTXSTY
  7
Standard
  9
$DIMAUNIT
 70
               0
  9
$LUNITS
 70
               2
  9
$LUPREC
 70
               4
  9
$SKETCHINC
 40
0.1
  9
$FILLETRAD
 40
0.0
  9
$AUNITS
 70
               0
  9
$AUPREC
 70
               0
  9
$MENU
  1
acad
  9
$ELEVATION
 40
0.0
  9
$PELEVATION
 40
0.0
  9
$THICKNESS
 40
0.0
  9
$LIMCHECK
 70
               0
  9
$BLIPMODE
 70
               1
  9
$CHAMFERA
 40
0.0
  9
$CHAMFERB
 40
0.0
  9
$CHAMFERC
 40
0.0
  9
$CHAMFERD
 40
0.0
  9
$SKPOLY
 70
               0
  9
$TDCREATE
 40
0.000000000
  9
$TDUPDATE
 40
0.000000000
  9
$TDINDWG
 40
0.0000000000
  9
$TDUSRTIMER
 40
0.0000000000
  9
$USRTIMER
 70
               1
  9
$ANGBASE
 50
0.0
  9
$ANGDIR
 70
               0
  9
$PDMODE
 70
               0
  9
$PDSIZE
 40
0.0
  9
$PLINEWID
 40
0.0
  9
$COORDS
 70
               0
  9
$SPLFRAME
 70
               0
  9
$SPLINETYPE
 70
               6
  9
$SPLINESEGS
 70
               8
  9
$ATTDIA
 70
               0
  9
$ATTREQ
 70
               1
  9
$HANDLING
 70
               1
  9
$HANDSEED
  5
203
  9
$SURFTAB1
 70
               6
  9
$SURFTAB2
 70
               6
  9
$SURFTYPE
 70
               6
  9
$SURFU
 70
               6
  9
$SURFV
 70
               6
  9
$UCSNAME
  2

  9
$UCSORG
 10
0.0
 20
0.0
 30
0.0
  9
$UCSXDIR
 10
1.0
 20
0.0
 30
0.0
  9
$UCSYDIR
 10
0.0
 20
1.0
 30
0.0
  9
$PUCSNAME
  2

  9
$PUCSORG
 10
0.0
 20
0.0
 30
0.0
  9
$PUCSXDIR
 10
1.0
 20
0.0
 30
0.0
  9
$PUCSYDIR
 10
0.0
 20
1.0
 30
0.0
  9
$USERI1
 70
               0
  9
$USERI2
 70
               0
  9
$USERI3
 70
               0
  9
$USERI4
 70
               0
  9
$USERI5
 70
               0
  9
$USERR1
 40
0.0
  9
$USERR2
 40
0.0
  9
$USERR3
 40
0.0
  9
$USERR4
 40
0.0
  9
$USERR5
 40
0.0
  9
$WORLDVIEW
 70
               1
  9
$SHADEDGE
 70
               3
  9
$SHADEDIF
 70
              70
  9
$TILEMODE
 70
               1
  9
$MAXACTVP
 70
              16
  9
$PINSBASE
 10
0.0
 20
0.0
 30
0.0
  9
$PLIMCHECK
 70
               0
  9
$PEXTMIN
 10
1.0000000000000000E+20
 20
1.0000000000000000E+20
 30
1.0000000000000000E+20
  9
$PEXTMAX
 10
-1.0000000000000000E+20
 20
-1.0000000000000000E+20
 30
-1.0000000000000000E+20
  9
$PLIMMIN
 10
0.0
 20
0.0
  9
$PLIMMAX
 10
12.0
 20
9.0
  9
$UNITMODE
 70
               0
  9
$VISRETAIN
 70
               0
  9
$PLINEGEN
 70
               1
  9
$PSLTSCALE
 70
               0
  9
$TREEDEPTH
 70
            3020
  9
$PICKSTYLE
 70
               1
  9
$CMLSTYLE
  2
Standard
  9
$CMLJUST
 70
               0
  9
$CMLSCALE
 40
1.0
  9
$PROXYGRAPHICS
 70
               0
  9
$MEASUREMENT
 70
               0
  0
ENDSEC
  0
SECTION
  2
CLASSES
  0
CLASS
  1
LWPOLYLINE
  2
AcDbPolyline
  3
"AutoCAD"
 90
        0
280
               0
281
               1
  0
CLASS
  1
IMAGE
  2
AcDbRasterImage
  3
ISM
 90
      127
280
               0
281
               1
  0
CLASS
  1
OLE2FRAME
  2
AcDbOle2Frame
  3
""
 90
        0
280
               0
281
               1
  0
CLASS
  1
HATCH
  2
AcDbHatch
  3
"ACAD_SEDONA"
 90
        0
280
               0
281
               1
  0
CLASS
  1
DICTIONARYVAR
  2
AcDbDictionaryVar
  3
"AutoCAD"
 90
        0
280
               0
281
               0
  0
CLASS
  1
RASTERVARIABLES
  2
AcDbRasterVariables
  3
ISM
 90
        0
280
               0
281
               0
  0
CLASS
  1
IMAGEDEF
  2
AcDbRasterImageDef
  3
ISM
 90
        0
280
               0
281
               0
  0
CLASS
  1
IMAGEDEF_REACTOR
  2
AcDbRasterImageDefReactor
  3
ISM
 90
        1
280
               0
281
               0
  0
CLASS
  1
IDBUFFER
  2
AcDbIdBuffer
  3
"Acad"
 90
        0
280
               0
281
               0
  0
CLASS
  1
SPATIAL_FILTER
  2
AcDbSpatialFilter
  3
"Acad"
 90
        0
280
               0
281
               0
  0
CLASS
  1
XRECORD
  2
AcDbXrecord
  3
"<Built In>"
 90
        0
280
               0
281
               0
  0
CLASS
  1
SORTENTSTABLE
  2
AcDbSortentsTable
  3
"AutoCAD"
 90
        0
280
               0
281
               0
  0
CLASS
  1
LAYER_INDEX
  2
AcDbLayerIndex
  3
"Acad"
 90
        0
280
               0
281
               0
  0
CLASS
  1
SPATIAL_INDEX
  2
AcDbSpatialIndex
  3
"Acad"
 90
        0
280
               0
281
               0
  0
CLASS
  1
OBJECT_PTR
  2
CAseDLPNTableRecord
  3
"ASE-LPNTableRecord"
 90
        1
280
               0
281
               0
  0
CLASS
  1
LAYOUT
  2
AcDbLayout
  3
"AutoCAD 2000"
 90
        0
280
               0
281
               0
  0
CLASS
  1
PLOTSETTINGS
  2
AcDbPlotSettings
  3
"AutoCAD 2000"
 90
        0
280
               0
281
               0
  0
CLASS
  1
ACDBDICTIONARYWDFLT
  2
AcDbDictionaryWithDefault
  3
"AutoCAD 2000"
 90
        0
280
               0
281
               0
  0
CLASS
  1
ACDBPLACEHOLDER
  2
AcDbPlaceHolder
  3
"AutoCAD 2000"
 90
        0
280
               0
281
               0
  0
CLASS
  1
VBA_PROJECT
  2
AcDbVbaProject
  3
"acadvba"
 90
        0
280
               0
281
               0
  0
CLASS
  1
WIPEOUT
  2
AcDbWipeout
  3
WipeOut|AutoCAD Express Tool|expresstools@autodesk.com
 90
      127
280
               0
281
               1
  0
CLASS
  1
WIPEOUTVARIABLES
  2
AcDbWipeoutVariables
  3
WipeOut|AutoCAD Express Tool|expresstools@autodesk.com
 90
        0
280
               0
281
               0
  0
CLASS
  1
RTEXT
  2
RText
  3
RText|AutoCAD Express Tool|expresstools@autodesk.com
 90
        0
280
               0
281
               1
  0
CLASS
  1
ARCALIGNEDTEXT
  2
AcDbArcAlignedText
  3
ATEXT|AutoCAD Express Tool|expresstools@autodesk.com
 90
        0
280
               0
281
               1
  0
ENDSEC
  0
SECTION
  2
TABLES
  0
TABLE
  2
VPORT
  5
7
100
AcDbSymbolTable
 70
               1
  0
VPORT
  5
15
100
AcDbSymbolTableRecord
100
AcDbViewportTableRecord
  2
*ACTIVE
 70
               0
 10
0.0
 20
0.0
 11
1.0
 21
1.0
 12
445.50000000000045
 22
315.00000000000034
 13
0.0
 23
0.0
 14
10.0
 24
10.0
 15
10.0
 25
10.0
 16
0.0
 26
0.0
 36
1.0
 17
0.0
 27
0.0
 37
0.0
 40
630.00000000000068
 41
1.4142857142857141
 42
50.0
 43
0.0
 44
0.0
 50
0.0
 51
0.0
 71
               0
 72
             100
 73
               1
 74
               1
 75
               0
 76
               0
 77
               0
 78
               0
  0
ENDTAB
  0
TABLE
  2
LTYPE
  5
4
100
AcDbSymbolTable
 70
              24
  0
LTYPE
  5
11
100
AcDbSymbolTableRecord
100
AcDbLinetypeTableRecord
  2
ByBlock
 70
              64
  3

 72
              65
 73
               0
 40
0.0
  0
LTYPE
  5
12
100
AcDbSymbolTableRecord
100
AcDbLinetypeTableRecord
  2
ByLayer
 70
              64
  3

 72
              65
 73
               0
 40
0.0
  0
LTYPE
  5
13
100
AcDbSymbolTableRecord
100
AcDbLinetypeTableRecord
  2
Continuous
 70
              64
  3
Solid line
 72
              65
 73
               0
 40
0.0
  0
LTYPE
  5
1D
100
AcDbSymbolTableRecord
100
AcDbLinetypeTableRecord
  2
DOT
 70
              64
  3
Dot . . . . . . . . . . . . . . . . . . . . . .
 72
              65
 73
               2
 40
6.3499999999999996
 49
0.35
 74
               0
 49
-6.0
 74
               0
  0
LTYPE
  5
1E
100
AcDbSymbolTableRecord
100
AcDbLinetypeTableRecord
  2
DASHED
 70
              64
  3
Dashed __ __ __ __ __ __ __ __ __ __ __ __ __ _
 72
              65
 73
               2
 40
12.699999999999999
 49
6.3499999999999996
 74
               0
 49
-6.3499999999999996
 74
               0
  0
LTYPE
  5
1F
100
AcDbSymbolTableRecord
100
AcDbLinetypeTableRecord
  2
DASHDOT
 70
              64
  3
Dash dot __ . __ . __ . __ . __ . __ . __ . __
 72
              65
 73
               4
 40
25.399999999999999
 49
12.699999999999999
 74
               0
 49
-6.0
 74
               0
 49
0.7
 74
               0
 49
-6.0
 74
               0
  0
LTYPE
  5
20
100
AcDbSymbolTableRecord
100
AcDbLinetypeTableRecord
  2
DIVIDE
 70
              64
  3
Divide ____ . . ____ . . ____ . . ____ . . ____
 72
              65
 73
               6
 40
31.75
 49
12.699999999999999
 74
               0
 49
-6.0
 74
               0
 49
0.875
 74
               0
 49
-6.0
 74
               0
 49
0.875
 74
               0
 49
-6.0
 74
               0
  0
LTYPE
  5
21
100
AcDbSymbolTableRecord
100
AcDbLinetypeTableRecord
  2
HIDDEN
 70
              64
  3
Hidden __ __ __ __ __ __ __ __ __ __ __ __ __ _
 72
              65
 73
               2
 40
9.5250000000000004
 49
6.3499999999999996
 74
               0
 49
-3.1749999999999998
 74
               0
  0
LTYPE
  5
22
100
AcDbSymbolTableRecord
100
AcDbLinetypeTableRecord
  2
CENTER
 70
              64
  3
Center ____ _ ____ _ ____ _ ____ _ ____ _ ____
 72
              65
 73
               4
 40
50.799999999999997
 49
31.75
 74
               0
 49
-6.3499999999999996
 74
               0
 49
6.3499999999999996
 74
               0
 49
-6.3499999999999996
 74
               0
  0
LTYPE
  5
23
100
AcDbSymbolTableRecord
100
AcDbLinetypeTableRecord
  2
PHANTOM
 70
              64
  3
Phantom ______  __  __  ______  __  __  ______
 72
              65
 73
               6
 40
63.5
 49
31.75
 74
               0
 49
-6.3499999999999996
 74
               0
 49
6.3499999999999996
 74
               0
 49
-6.3499999999999996
 74
               0
 49
6.3499999999999996
 74
               0
 49
-6.3499999999999996
 74
               0
  0
LTYPE
  5
24
100
AcDbSymbolTableRecord
100
AcDbLinetypeTableRecord
  2
ACAD_ISO02W100
 70
              64
  3
ISO dash __ __ __ __ __ __ __ __ __ __ __ __ __
 72
              65
 73
               2
 40
15.0
 49
12.0
 74
               0
 49
-3.0
 74
               0
  0
LTYPE
  5
25
100
AcDbSymbolTableRecord
100
AcDbLinetypeTableRecord
  2
ACAD_ISO03W100
 70
              64
  3
ISO dash space __ __ __ __ __ __ __ __ __ __ __ __ __ __
 72
              65
 73
               2
 40
30.0
 49
12.0
 74
               0
 49
-18.0
 74
               0
  0
LTYPE
  5
26
100
AcDbSymbolTableRecord
100
AcDbLinetypeTableRecord
  2
ACAD_ISO04W100
 70
              64
  3
ISO long-dash dot ____ . ____ . ____ . ____ . _
 72
              65
 73
               4
 40
30.0
 49
24.0
 74
               0
 49
-3.0
 74
               0
 49
0.0
 74
               0
 49
-3.0
 74
               0
  0
LTYPE
  5
27
100
AcDbSymbolTableRecord
100
AcDbLinetypeTableRecord
  2
ACAD_ISO05W100
 70
              64
  3
ISO long-dash double-dot ____ .. ____ .. ____ .
 72
              65
 73
               6
 40
33.0
 49
24.0
 74
               0
 49
-3.0
 74
               0
 49
0.0
 74
               0
 49
-3.0
 74
               0
 49
0.0
 74
               0
 49
-3.0
 74
               0
  0
LTYPE
  5
28
100
AcDbSymbolTableRecord
100
AcDbLinetypeTableRecord
  2
ACAD_ISO06W100
 70
              64
  3
ISO long-dash triple-dot ____ ... ____ ... ____
 72
              65
 73
               8
 40
36.0
 49
24.0
 74
               0
 49
-3.0
 74
               0
 49
0.0
 74
               0
 49
-3.0
 74
               0
 49
0.0
 74
               0
 49
-3.0
 74
               0
 49
0.0
 74
               0
 49
-3.0
 74
               0
  0
LTYPE
  5
29
100
AcDbSymbolTableRecord
100
AcDbLinetypeTableRecord
  2
ACAD_ISO07W100
 70
              64
  3
ISO dot . . . . . . . . . . . . . . . . . . . .
 72
              65
 73
               2
 40
3.0
 49
0.0
 74
               0
 49
-3.0
 74
               0
  0
LTYPE
  5
2A
100
AcDbSymbolTableRecord
100
AcDbLinetypeTableRecord
  2
ACAD_ISO08W100
 70
              64
  3
ISO long-dash short-dash ____ __ ____ __ ____ _
 72
              65
 73
               4
 40
36.0
 49
24.0
 74
               0
 49
-3.0
 74
               0
 49
6.0
 74
               0
 49
-3.0
 74
               0
  0
LTYPE
  5
2B
100
AcDbSymbolTableRecord
100
AcDbLinetypeTableRecord
  2
ACAD_ISO09W100
 70
              64
  3
ISO long-dash double-short-dash ____ __ __ ____
 72
              65
 73
               6
 40
45.0
 49
24.0
 74
               0
 49
-3.0
 74
               0
 49
6.0
 74
               0
 49
-3.0
 74
               0
 49
6.0
 74
               0
 49
-3.0
 74
               0
  0
LTYPE
  5
2C
100
AcDbSymbolTableRecord
100
AcDbLinetypeTableRecord
  2
ACAD_ISO10W100
 70
              64
  3
ISO dash dot __ . __ . __ . __ . __ . __ . __ .
 72
              65
 73
               4
 40
18.0
 49
12.0
 74
               0
 49
-3.0
 74
               0
 49
0.0
 74
               0
 49
-3.0
 74
               0
  0
LTYPE
  5
2D
100
AcDbSymbolTableRecord
100
AcDbLinetypeTableRecord
  2
ACAD_ISO11W100
 70
              64
  3
ISO double-dash dot __ __ . __ __ . __ __ . __ 
 72
              65
 73
               6
 40
33.0
 49
12.0
 74
               0
 49
-3.0
 74
               0
 49
12.0
 74
               0
 49
-3.0
 74
               0
 49
0.0
 74
               0
 49
-3.0
 74
               0
  0
LTYPE
  5
2E
100
AcDbSymbolTableRecord
100
AcDbLinetypeTableRecord
  2
ACAD_ISO12W100
 70
              64
  3
ISO dash double-dot __ . . __ . . __ . . __ . .
 72
              65
 73
               6
 40
21.0
 49
12.0
 74
               0
 49
-3.0
 74
               0
 49
0.0
 74
               0
 49
-3.0
 74
               0
 49
0.0
 74
               0
 49
-3.0
 74
               0
  0
LTYPE
  5
2F
100
AcDbSymbolTableRecord
100
AcDbLinetypeTableRecord
  2
ACAD_ISO13W100
 70
              64
  3
ISO double-dash double-dot __ __ . . __ __ . . 
 72
              65
 73
               8
 40
36.0
 49
12.0
 74
               0
 49
-3.0
 74
               0
 49
12.0
 74
               0
 49
-3.0
 74
               0
 49
0.0
 74
               0
 49
-3.0
 74
               0
 49
0.0
 74
               0
 49
-3.0
 74
               0
  0
LTYPE
  5
30
100
AcDbSymbolTableRecord
100
AcDbLinetypeTableRecord
  2
ACAD_ISO14W100
 70
              64
  3
ISO dash triple-dot __ . . . __ . . . __ . . . 
 72
              65
 73
               8
 40
24.0
 49
12.0
 74
               0
 49
-3.0
 74
               0
 49
0.0
 74
               0
 49
-3.0
 74
               0
 49
0.0
 74
               0
 49
-3.0
 74
               0
 49
0.0
 74
               0
 49
-3.0
 74
               0
  0
LTYPE
  5
31
100
AcDbSymbolTableRecord
100
AcDbLinetypeTableRecord
  2
ACAD_ISO15W100
 70
              64
  3
ISO double-dash double-dot __ __ . . __ __ . . 
 72
              65
 73
              10
 40
39.0
 49
12.0
 74
               0
 49
-3.0
 74
               0
 49
12.0
 74
               0
 49
-3.0
 74
               0
 49
0.0
 74
               0
 49
-3.0
 74
               0
 49
0.0
 74
               0
 49
-3.0
 74
               0
 49
0.0
 74
               0
 49
-3.0
 74
               0
  0
ENDTAB
  0
TABLE
  2
LAYER
  5
2
100
AcDbSymbolTable
 70
              16
  0
LAYER
  5
14
100
AcDbSymbolTableRecord
100
AcDbLayerTableRecord
  2
0
 70
               0
 62
               7
  6
Continuous
  0
LAYER
  5
35
100
AcDbSymbolTableRecord
100
AcDbLayerTableRecord
  2
Layer00001
 70
               0
 62
               7
  6
Continuous
  0
LAYER
  5
36
100
AcDbSymbolTableRecord
100
AcDbLayerTableRecord
  2
Layer00002
 70
               0
 62
               7
  6
Continuous
  0
LAYER
  5
37
100
AcDbSymbolTableRecord
100
AcDbLayerTableRecord
  2
Layer00003
 70
               0
 62
               7
  6
Continuous
  0
LAYER
  5
38
100
AcDbSymbolTableRecord
100
AcDbLayerTableRecord
  2
Layer00004
 70
               0
 62
               7
  6
Continuous
  0
LAYER
  5
39
100
AcDbSymbolTableRecord
100
AcDbLayerTableRecord
  2
Layer00005
 70
               0
 62
               7
  6
Continuous
  0
LAYER
  5
3A
100
AcDbSymbolTableRecord
100
AcDbLayerTableRecord
  2
Layer00006
 70
               0
 62
               7
  6
Continuous
  0
LAYER
  5
3B
100
AcDbSymbolTableRecord
100
AcDbLayerTableRecord
  2
Layer00007
 70
               0
 62
               7
  6
Continuous
  0
LAYER
  5
3C
100
AcDbSymbolTableRecord
100
AcDbLayerTableRecord
  2
Layer00008
 70
               0
 62
               7
  6
Continuous
  0
LAYER
  5
3D
100
AcDbSymbolTableRecord
100
AcDbLayerTableRecord
  2
Layer00009
 70
               0
 62
               7
  6
Continuous
  0
LAYER
  5
3E
100
AcDbSymbolTableRecord
100
AcDbLayerTableRecord
  2
Layer00010
 70
               0
 62
               7
  6
Continuous
  0
LAYER
  5
3F
100
AcDbSymbolTableRecord
100
AcDbLayerTableRecord
  2
Layer00011
 70
               0
 62
               7
  6
Continuous
  0
LAYER
  5
40
100
AcDbSymbolTableRecord
100
AcDbLayerTableRecord
  2
Layer00012
 70
               0
 62
               7
  6
Continuous
  0
LAYER
  5
41
100
AcDbSymbolTableRecord
100
AcDbLayerTableRecord
  2
Layer00013
 70
               0
 62
               7
  6
Continuous
  0
LAYER
  5
42
100
AcDbSymbolTableRecord
100
AcDbLayerTableRecord
  2
Layer00014
 70
               0
 62
               7
  6
Continuous
  0
LAYER
  5
43
100
AcDbSymbolTableRecord
100
AcDbLayerTableRecord
  2
Layer00015
 70
               0
 62
               7
  6
Continuous
  0
ENDTAB
  0
TABLE
  2
STYLE
  5
3
100
AcDbSymbolTable
 70
               4
  0
STYLE
  5
17
100
AcDbSymbolTableRecord
100
AcDbTextStyleTableRecord
  2
Standard
 70
               0
 40
0.0
 41
1.0
 50
0.0
 71
               0
 42
0.0
  3
txt.shx
  4
bigfont.shx
  0
STYLE
  5
32
100
AcDbSymbolTableRecord
100
AcDbTextStyleTableRecord
  2
STANDARD_T
 70
               4
 40
0.0
 41
1.0
 50
0.0
 71
               0
 42
0.0
  3
txt.shx
  4
bigfont.shx
  0
STYLE
  5
33
100
AcDbSymbolTableRecord
100
AcDbTextStyleTableRecord
  2
FontTableH_0
 70
               0
 40
0.0
 41
1.0
 50
0.0
 71
               0
 42
0.0
  3
MS Gothic.ttf
  4

1001
ACAD
1000
MS Gothic
1071
    32817
  0
STYLE
  5
34
100
AcDbSymbolTableRecord
100
AcDbTextStyleTableRecord
  2
FontTableV_0
 70
               0
 40
0.0
 41
1.0
 50
0.0
 71
               0
 42
0.0
  3
@MS Gothic.ttf
  4

1001
ACAD
1000
@MS Gothic
1071
    32817
  0
ENDTAB
  0
TABLE
  2
VIEW
  5
5
100
AcDbSymbolTable
 70
               0
  0
ENDTAB
  0
TABLE
  2
UCS
  5
6
100
AcDbSymbolTable
 70
               0
  0
ENDTAB
  0
TABLE
  2
APPID
  5
8
100
AcDbSymbolTable
 70
               1
  0
APPID
  5
16
100
AcDbSymbolTableRecord
100
AcDbRegAppTableRecord
  2
ACAD
 70
               0
  0
ENDTAB
  0
TABLE
  2
DIMSTYLE
  5
9
100
AcDbSymbolTable
 70
               1
  0
DIMSTYLE
105
18
100
AcDbSymbolTableRecord
100
AcDbDimStyleTableRecord
  2
Standard
 70
               0
  3

  4

  5

  6

  7

 40
1.0
 41
0.18
 42
0.0625
 43
0.38
 44
0.18
 45
0.0
 46
0.0
 47
0.0
 48
0.0
 71
               0
 72
               0
 73
               1
 74
               1
 75
               0
 76
               0
 77
               0
 78
               0
140
0.18
141
0.09
142
0.0
143
25.399999999999999
144
1.0
145
0.0
146
1.0
147
0.09
170
               0
171
               2
172
               0
173
               0
174
               0
175
               0
176
               0
177
               0
178
               0
270
               2
271
               4
272
               4
273
               2
274
               2
275
               0
280
               0
281
               0
282
               0
283
               1
284
               0
285
               0
286
               0
287
               0
288
               0
340
17
  0
ENDTAB
  0
TABLE
  2
BLOCK_RECORD
  5
1
100
AcDbSymbolTable
 70
               0
  0
BLOCK_RECORD
  5
A
100
AcDbSymbolTableRecord
100
AcDbBlockTableRecord
  2
*MODEL_SPACE
  0
BLOCK_RECORD
  5
B
100
AcDbSymbolTableRecord
100
AcDbBlockTableRecord
  2
*PAPER_SPACE
  0
ENDTAB
  0
ENDSEC
  0
SECTION
  2
BLOCKS
  0
BLOCK
  5
D
100
AcDbEntity
  8
0
100
AcDbBlockBegin
  2
*MODEL_SPACE
 70
               0
 10
0.0
 20
0.0
 30
0.0
  3
*MODEL_SPACE
  1

  0
ENDBLK
  5
E
100
AcDbEntity
  8
0
100
AcDbBlockEnd
  0
BLOCK
  5
F
100
AcDbEntity
 67
               1
  8
0
100
AcDbBlockBegin
  2
*PAPER_SPACE
 70
               0
 10
0.0
 20
0.0
 30
0.0
  3
*PAPER_SPACE
  1

  0
ENDBLK
  5
10
100
AcDbEntity
 67
               1
  8
0
100
AcDbBlockEnd
  0
ENDSEC
  0
SECTION
  2
ENTITIES
  0
LINE
  5
44
100
AcDbEntity
  8
0
  6
Continuous
 62
               6
100
AcDbLine
 10
465.19098137313631
 20
260.93045493179761
 30
0.0
 11
226.33039486269831
 21
201.21530830418632
 31
0.0
  0
LINE
  5
45
100
AcDbEntity
  8
0
  6
Continuous
 62
               6
100
AcDbLine
 10
440.93741886950295
 20
357.94470494633049
 30
0.0
 11
226.33039486269831
 21
304.29294894462998
 31
0.0
  0
LINE
  5
46
100
AcDbEntity
  8
0
  6
Continuous
 62
               6
100
AcDbLine
 10
440.93741886950295
 20
357.94470494633049
 30
0.0
 11
465.19098137313631
 21
260.93045493179761
 31
0.0
  0
LINE
  5
47
100
AcDbEntity
  8
0
  6
DASHDOT
 62
               4
100
AcDbLine
 10
467.08891950554471
 20
441.17822017333856
 30
0.0
 11
467.08891950554471
 21
240.78941133681136
 31
0.0
  0
LINE
  5
48
100
AcDbEntity
  8
0
  6
Continuous
 62
               6
100
AcDbLine
 10
468.98685763795322
 20
260.93045493179761
 30
0.0
 11
688.44459414548533
 21
206.06602080491334
 31
0.0
  0
LINE
  5
49
100
AcDbEntity
  8
0
  6
Continuous
 62
               6
100
AcDbLine
 10
688.44459414548533
 20
309.14366144535597
 30
0.0
 11
493.24042014158636
 21
357.9447049463306
 31
0.0
  0
LINE
  5
4A
100
AcDbEntity
  8
0
  6
Continuous
 62
               6
100
AcDbLine
 10
493.24042014158636
 20
357.9447049463306
 30
0.0
 11
468.98685763795322
 21
260.93045493179761
 31
0.0
  0
LINE
  5
4B
100
AcDbEntity
  8
0
  6
Continuous
 62
               6
100
AcDbLine
 10
389.47751949391818
 20
345.59511830563656
 30
0.0
 11
467.08891950554471
 21
364.99796830854325
 31
0.0
  0
LINE
  5
4C
100
AcDbEntity
  8
0
  6
Continuous
 62
               6
100
AcDbLine
 10
544.70031951717135
 20
345.59511830563656
 30
0.0
 11
467.08891950554471
 21
364.99796830854325
 31
0.0
  0
LINE
  5
4D
100
AcDbEntity
  8
0
  6
DASHED
 62
               6
100
AcDbLine
 10
683.59388164475865
 20
289.7408114424494
 30
0.0
 11
488.38970764085968
 21
338.54185494342391
 31
0.0
  0
LINE
  5
4E
100
AcDbEntity
  8
0
  6
DASHED
 62
               6
100
AcDbLine
 10
473.83757013867989
 20
280.3333049347043
 30
0.0
 11
688.44459414548533
 21
226.68154893300172
 31
0.0
  0
LINE
  5
4F
100
AcDbEntity
  8
0
  6
DASHED
 62
               6
100
AcDbLine
 10
460.34026887240941
 20
280.3333049347043
 30
0.0
 11
226.33039486269831
 21
221.83083643227465
 31
0.0
  0
LINE
  5
50
100
AcDbEntity
  8
0
  6
DASHED
 62
               6
100
AcDbLine
 10
445.78813137022951
 20
338.5418549434238
 30
0.0
 11
231.18110736342493
 21
284.89009894172329
 31
0.0
  0
LINE
  5
51
100
AcDbEntity
  8
0
  6
Continuous
 62
               4
100
AcDbLine
 10
714.78679656440374
 20
21.213203435596487
 30
0.0
 11
714.78679656440374
 21
41.213203435596498
 31
0.0
  0
LINE
  5
52
100
AcDbEntity
  8
0
  6
Continuous
 62
               4
100
AcDbLine
 10
864.78679656440374
 20
21.213203435596487
 30
0.0
 11
714.78679656440374
 21
21.213203435596487
 31
0.0
  0
LINE
  5
53
100
AcDbEntity
  8
0
  6
Continuous
 62
               4
100
AcDbLine
 10
864.78679656440374
 20
41.213203435596498
 30
0.0
 11
864.78679656440374
 21
21.213203435596487
 31
0.0
  0
LINE
  5
54
100
AcDbEntity
  8
0
  6
Continuous
 62
               4
100
AcDbLine
 10
864.78679656440374
 20
41.213203435596498
 30
0.0
 11
714.78679656440374
 21
41.213203435596498
 31
0.0
  0
LINE
  5
55
100
AcDbEntity
  8
0
  6
Continuous
 62
               4
100
AcDbLine
 10
14.142135623730949
 20
595.85786437626905
 30
0.0
 11
14.142135623730949
 21
615.85786437626905
 31
0.0
  0
LINE
  5
56
100
AcDbEntity
  8
0
  6
Continuous
 62
               4
100
AcDbLine
 10
164.14213562373095
 20
595.85786437626905
 30
0.0
 11
14.142135623730949
 21
595.85786437626905
 31
0.0
  0
LINE
  5
57
100
AcDbEntity
  8
0
  6
Continuous
 62
               4
100
AcDbLine
 10
164.14213562373095
 20
615.85786437626905
 30
0.0
 11
164.14213562373095
 21
595.85786437626905
 31
0.0
  0
LINE
  5
58
100
AcDbEntity
  8
0
  6
Continuous
 62
               4
100
AcDbLine
 10
164.14213562373095
 20
615.85786437626905
 30
0.0
 11
14.142135623730949
 21
615.85786437626905
 31
0.0
  0
LINE
  5
59
100
AcDbEntity
  8
0
  6
Continuous
 62
               4
100
AcDbLine
 10
251.28396239042337
 20
325.58064964907868
 30
0.0
 11
254.19438460273005
 21
313.93897134788455
 31
0.0
  0
LINE
  5
5A
100
AcDbEntity
  8
0
  6
Continuous
 62
               7
100
AcDbLine
 10
292.62483884202271
 20
323.54655769883021
 30
0.0
 11
280.23720423461265
 21
330.98979949732581
 31
0.0
  0
LINE
  5
5B
100
AcDbEntity
  8
0
  6
Continuous
 62
               7
100
AcDbLine
 10
299.48044698233508
 20
325.26045973390848
 30
0.0
 11
284.94305207473354
 21
333.99540783713798
 31
0.0
  0
LINE
  5
5C
100
AcDbEntity
  8
0
  6
Continuous
 62
               7
100
AcDbLine
 10
306.33605718385849
 20
326.9743355814083
 30
0.0
 11
291.79863665452086
 21
335.70932402880777
 31
0.0
  0
LINE
  5
5D
100
AcDbEntity
  8
0
  6
Continuous
 62
               7
100
AcDbLine
 10
285.76925732309138
 20
321.83261471893508
 30
0.0
 11
281.95328320398499
 21
324.1254898392977
 31
0.0
  0
LINE
  5
5E
100
AcDbEntity
  8
0
  6
Continuous
 62
               7
100
AcDbLine
 10
250.30330544296424
 20
313.97689853872436
 30
0.0
 11
236.95384521253203
 21
321.99806347646569
 31
0.0
  0
LINE
  5
5F
100
AcDbEntity
  8
0
  6
Continuous
 62
               7
100
AcDbLine
 10
248.58723188676635
 20
320.84118654407467
 30
0.0
 11
243.80945235319945
 21
323.71196611219108
 31
0.0
  0
LINE
  5
60
100
AcDbEntity
  8
0
  6
Continuous
 62
               7
100
AcDbLine
 10
230.9244392597214
 20
308.12139511140987
 30
0.0
 11
226.3303948626986
 21
310.88177547164497
 31
0.0
  0
LINE
  5
61
100
AcDbEntity
  8
0
  6
Continuous
 62
               7
100
AcDbLine
 10
237.78004740003377
 20
309.83529714648813
 30
0.0
 11
226.3303948626986
 21
316.71494245772175
 31
0.0
  0
LINE
  5
62
100
AcDbEntity
  8
0
  6
Continuous
 62
               7
100
AcDbLine
 10
244.63565760155717
 20
311.54917299398818
 30
0.0
 11
230.09823707221955
 21
320.28416144138743
 31
0.0
  0
LINE
  5
63
100
AcDbEntity
  8
0
  6
Continuous
 62
               3
100
AcDbLine
 10
226.3303948626986
 20
306.97296760128103
 30
0.0
 11
467.08891950554499
 21
367.16259876199257
 31
0.0
  0
LINE
  5
64
100
AcDbEntity
  8
0
  6
Continuous
 62
               3
100
AcDbLine
 10
467.0889473466795
 20
367.16265115967445
 30
0.0
 11
464.17849200510904
 21
378.80430876373663
 31
0.0
  0
LINE
  5
65
100
AcDbEntity
  8
0
  6
Continuous
 62
               3
100
AcDbLine
 10
688.44459414548555
 20
311.82368010200759
 30
0.0
 11
467.08891950554499
 21
367.16259876199257
 31
0.0
  0
LINE
  5
66
100
AcDbEntity
  8
0
  6
Continuous
 62
               3
100
AcDbLine
 10
467.08891950554499
 20
367.16259876199257
 30
0.0
 11
469.99934700598095
 21
378.80430876373663
 31
0.0
  0
LINE
  5
67
100
AcDbEntity
  8
0
  6
Continuous
 62
               7
100
AcDbLine
 10
313.19163870278959
 20
328.68827856130366
 30
0.0
 11
298.65424479483335
 21
337.42322606388603
 31
0.0
  0
LINE
  5
68
100
AcDbEntity
  8
0
  6
Continuous
 62
               7
100
AcDbLine
 10
320.04724684310219
 20
330.40218059638192
 30
0.0
 11
305.50985193550065
 21
339.13712869961142
 31
0.0
  0
LINE
  5
69
100
AcDbEntity
  8
0
  6
Continuous
 62
               7
100
AcDbLine
 10
326.90285704462536
 20
332.11605644388175
 30
0.0
 11
312.36543651528785
 21
340.85104489128122
 31
0.0
  0
LINE
  5
6A
100
AcDbEntity
  8
0
  6
Continuous
 62
               7
100
AcDbLine
 10
333.75846312372704
 20
333.829984666538
 30
0.0
 11
319.22104465560034
 21
342.56494692635948
 31
0.0
  0
LINE
  5
6B
100
AcDbEntity
  8
0
  6
Continuous
 62
               7
100
AcDbLine
 10
340.61407126403952
 20
335.54388670161626
 30
0.0
 11
326.07665279591282
 21
344.27884896143752
 31
0.0
  0
LINE
  5
6C
100
AcDbEntity
  8
0
  6
Continuous
 62
               7
100
AcDbLine
 10
347.46967940435201
 20
337.25778873669429
 30
0.0
 11
332.9322609362253
 21
345.99275099651555
 31
0.0
  0
LINE
  5
6D
100
AcDbEntity
  8
0
  6
Continuous
 62
               7
100
AcDbLine
 10
354.32528754466449
 20
338.97169077177233
 30
0.0
 11
339.7878690765379
 21
347.70665303159359
 31
0.0
  0
LINE
  5
6E
100
AcDbEntity
  8
0
  6
Continuous
 62
               7
100
AcDbLine
 10
361.18089568497697
 20
340.68559280685059
 30
0.0
 11
346.64347721685027
 21
349.42055506667185
 31
0.0
  0
LINE
  5
6F
100
AcDbEntity
  8
0
  6
Continuous
 62
               7
100
AcDbLine
 10
368.03650382528934
 20
342.39949484192863
 30
0.0
 11
353.49908535716276
 21
351.13445710174989
 31
0.0
  0
LINE
  5
70
100
AcDbEntity
  8
0
  6
Continuous
 62
               7
100
AcDbLine
 10
374.89211196560183
 20
344.11339687700689
 30
0.0
 11
360.35469349747513
 21
352.84835913682815
 31
0.0
  0
LINE
  5
71
100
AcDbEntity
  8
0
  6
Continuous
 62
               7
100
AcDbLine
 10
381.74772010591431
 20
345.82729891208493
 30
0.0
 11
367.21030163778761
 21
354.56226117190619
 31
0.0
  0
LINE
  5
72
100
AcDbEntity
  8
0
  6
Continuous
 62
               7
100
AcDbLine
 10
388.60332824622679
 20
347.54120094716296
 30
0.0
 11
374.06590977810009
 21
356.27616320698422
 31
0.0
  0
LINE
  5
73
100
AcDbEntity
  8
0
  6
Continuous
 62
               7
100
AcDbLine
 10
395.45893638653928
 20
349.25510298224123
 30
0.0
 11
380.92151791841258
 21
357.99006524206249
 31
0.0
  0
LINE
  5
74
100
AcDbEntity
  8
0
  6
Continuous
 62
               7
100
AcDbLine
 10
402.31454452685176
 20
350.96900501731926
 30
0.0
 11
387.77712605872506
 21
359.70396727714052
 31
0.0
  0
LINE
  5
75
100
AcDbEntity
  8
0
  6
Continuous
 62
               7
100
AcDbLine
 10
409.17015266716425
 20
352.6829070523973
 30
0.0
 11
394.63273419903754
 21
361.41786931221878
 31
0.0
  0
LINE
  5
76
100
AcDbEntity
  8
0
  6
Continuous
 62
               7
100
AcDbLine
 10
416.02576080747684
 20
354.39680908747556
 30
0.0
 11
401.48834233935003
 21
363.13177134729682
 31
0.0
  0
LINE
  5
77
100
AcDbEntity
  8
0
  6
Continuous
 62
               7
100
AcDbLine
 10
422.88136894778921
 20
356.1107111225536
 30
0.0
 11
408.34395047966251
 21
364.84567338237486
 31
0.0
  0
LINE
  5
78
100
AcDbEntity
  8
0
  6
Continuous
 62
               7
100
AcDbLine
 10
429.7369770881017
 20
357.82461315763163
 30
0.0
 11
415.19955861997499
 21
366.55957541745312
 31
0.0
  0
LINE
  5
79
100
AcDbEntity
  8
0
  6
Continuous
 62
               7
100
AcDbLine
 10
436.59258522841418
 20
359.53851519270989
 30
0.0
 11
422.05516676028748
 21
368.27347745253115
 31
0.0
  0
LINE
  5
7A
100
AcDbEntity
  8
0
  6
Continuous
 62
               7
100
AcDbLine
 10
443.44819336872678
 20
361.25241722778793
 30
0.0
 11
428.91077490059996
 21
369.98737948760919
 31
0.0
  0
LINE
  5
7B
100
AcDbEntity
  8
0
  6
Continuous
 62
               7
100
AcDbLine
 10
450.30380150903926
 20
362.96631926286619
 30
0.0
 11
435.76638304091244
 21
371.70128152268745
 31
0.0
  0
LINE
  5
7C
100
AcDbEntity
  8
0
  6
Continuous
 62
               7
100
AcDbLine
 10
457.15940964935174
 20
364.68022129794423
 30
0.0
 11
442.62199118122504
 21
373.41518355776549
 31
0.0
  0
LINE
  5
7D
100
AcDbEntity
  8
0
  6
Continuous
 62
               7
100
AcDbLine
 10
464.01501778966423
 20
366.39412333302226
 30
0.0
 11
449.47759932153753
 21
375.12908559284352
 31
0.0
  0
LINE
  5
7E
100
AcDbEntity
  8
0
  6
Continuous
 62
               7
100
AcDbLine
 10
466.14229604924213
 20
370.94909258720514
 30
0.0
 11
456.33320746185001
 21
376.84298762792179
 31
0.0
  0
LINE
  5
7F
100
AcDbEntity
  8
0
  6
Continuous
 62
               7
100
AcDbLine
 10
464.42622432275476
 20
377.81337949315463
 30
0.0
 11
463.18881560216249
 21
378.55688966299982
 31
0.0
  0
LINE
  5
80
100
AcDbEntity
  8
0
  6
Continuous
 62
               7
100
AcDbLine
 10
467.46125246296089
 20
367.0695155226386
 30
0.0
 11
467.18188505640052
 21
367.53446096541467
 31
0.0
  0
LINE
  5
81
100
AcDbEntity
  8
0
  6
Continuous
 62
               7
100
AcDbLine
 10
474.32553936891048
 20
365.35344379615123
 30
0.0
 11
468.89578709147867
 21
374.39006910572704
 31
0.0
  0
LINE
  5
82
100
AcDbEntity
  8
0
  6
Continuous
 62
               7
100
AcDbLine
 10
481.18982627486008
 20
363.63737206966385
 30
0.0
 11
472.4438061061341
 21
378.19319398869817
 31
0.0
  0
LINE
  5
83
100
AcDbEntity
  8
0
  6
Continuous
 62
               7
100
AcDbLine
 10
488.05411318080968
 20
361.92130034317648
 30
0.0
 11
479.3080930120837
 21
376.4771222622108
 31
0.0
  0
LINE
  5
84
100
AcDbEntity
  8
0
  6
Continuous
 62
               7
100
AcDbLine
 10
494.91840008675916
 20
360.20522861668888
 30
0.0
 11
486.17237991803319
 21
374.76105053572343
 31
0.0
  0
LINE
  5
85
100
AcDbEntity
  8
0
  6
Continuous
 62
               7
100
AcDbLine
 10
501.78268699270876
 20
358.48915689020174
 30
0.0
 11
493.03666682398278
 21
373.04497880923628
 31
0.0
  0
LINE
  5
86
100
AcDbEntity
  8
0
  6
Continuous
 62
               7
100
AcDbLine
 10
508.64697389865836
 20
356.77308516371414
 30
0.0
 11
499.90095372993238
 21
371.32890708274869
 31
0.0
  0
LINE
  5
87
100
AcDbEntity
  8
0
  6
Continuous
 62
               7
100
AcDbLine
 10
515.5112608046079
 20
355.05701343722677
 30
0.0
 11
506.76524063588187
 21
369.61283535626131
 31
0.0
  0
LINE
  5
88
100
AcDbEntity
  8
0
  6
Continuous
 62
               7
100
AcDbLine
 10
522.37554771055738
 20
353.3409417107394
 30
0.0
 11
513.62952754183152
 21
367.89676362977394
 31
0.0
  0
LINE
  5
89
100
AcDbEntity
  8
0
  6
Continuous
 62
               7
100
AcDbLine
 10
529.2398346165071
 20
351.62486998425203
 30
0.0
 11
520.49381444778101
 21
366.18069190328657
 31
0.0
  0
LINE
  5
8A
100
AcDbEntity
  8
0
  6
Continuous
 62
               7
100
AcDbLine
 10
536.10412152245658
 20
349.90879825776466
 30
0.0
 11
527.35810135373072
 21
364.46462017679897
 31
0.0
  0
LINE
  5
8B
100
AcDbEntity
  8
0
  6
Continuous
 62
               7
100
AcDbLine
 10
542.96840842840606
 20
348.19272653127729
 30
0.0
 11
534.2223882596802
 21
362.74854845031183
 31
0.0
  0
LINE
  5
8C
100
AcDbEntity
  8
0
  6
Continuous
 62
               7
100
AcDbLine
 10
549.83269533435555
 20
346.47665480478992
 30
0.0
 11
541.08667516562969
 21
361.03247672382446
 31
0.0
  0
LINE
  5
8D
100
AcDbEntity
  8
0
  6
Continuous
 62
               7
100
AcDbLine
 10
556.69698224030526
 20
344.76058307830255
 30
0.0
 11
547.95096207157917
 21
359.31640499733709
 31
0.0
  0
LINE
  5
8E
100
AcDbEntity
  8
0
  6
Continuous
 62
               7
100
AcDbLine
 10
563.56126914625497
 20
343.04451135181517
 30
0.0
 11
554.81524897752888
 21
357.60033327084949
 31
0.0
  0
LINE
  5
8F
100
AcDbEntity
  8
0
  6
Continuous
 62
               7
100
AcDbLine
 10
570.42555605220446
 20
341.32843962532758
 30
0.0
 11
561.67953588347837
 21
355.88426154436212
 31
0.0
  0
LINE
  5
90
100
AcDbEntity
  8
0
  6
Continuous
 62
               7
100
AcDbLine
 10
577.28984295815394
 20
339.61236789884043
 30
0.0
 11
568.54382278942808
 21
354.16818981787475
 31
0.0
  0
LINE
  5
91
100
AcDbEntity
  8
0
  6
Continuous
 62
               7
100
AcDbLine
 10
584.15412986410342
 20
337.89629617235283
 30
0.0
 11
575.40810969537756
 21
352.45211809138738
 31
0.0
  0
LINE
  5
92
100
AcDbEntity
  8
0
  6
Continuous
 62
               7
100
AcDbLine
 10
591.01841677005291
 20
336.18022444586569
 30
0.0
 11
582.27239660132705
 21
350.73604636490001
 31
0.0
  0
LINE
  5
93
100
AcDbEntity
  8
0
  6
Continuous
 62
               7
100
AcDbLine
 10
597.88270367600262
 20
334.46415271937809
 30
0.0
 11
589.13668350727653
 21
349.01997463841263
 31
0.0
  0
LINE
  5
94
100
AcDbEntity
  8
0
  6
Continuous
 62
               7
100
AcDbLine
 10
604.74699058195233
 20
332.74808099289072
 30
0.0
 11
596.00097041322624
 21
347.30390291192526
 31
0.0
  0
LINE
  5
95
100
AcDbEntity
  8
0
  6
Continuous
 62
               7
100
AcDbLine
 10
611.61127748790182
 20
331.03200926640335
 30
0.0
 11
602.86525731917595
 21
345.58783118543789
 31
0.0
  0
LINE
  5
96
100
AcDbEntity
  8
0
  6
Continuous
 62
               7
100
AcDbLine
 10
618.4755643938513
 20
329.31593753991598
 30
0.0
 11
609.72954422512544
 21
343.87175945895052
 31
0.0
  0
LINE
  5
97
100
AcDbEntity
  8
0
  6
Continuous
 62
               7
100
AcDbLine
 10
625.33985129980078
 20
327.59986581342861
 30
0.0
 11
616.59383113107492
 21
342.15568773246315
 31
0.0
  0
LINE
  5
98
100
AcDbEntity
  8
0
  6
Continuous
 62
               7
100
AcDbLine
 10
632.2041382057505
 20
325.88379408694124
 30
0.0
 11
623.45811803702441
 21
340.43961600597578
 31
0.0
  0
LINE
  5
99
100
AcDbEntity
  8
0
  6
Continuous
 62
               7
100
AcDbLine
 10
639.06842511170021
 20
324.16772236045387
 30
0.0
 11
630.32240494297412
 21
338.72354427948818
 31
0.0
  0
LINE
  5
9A
100
AcDbEntity
  8
0
  6
Continuous
 62
               7
100
AcDbLine
 10
645.93271201764969
 20
322.45165063396649
 30
0.0
 11
637.18669184892383
 21
337.00747255300081
 31
0.0
  0
LINE
  5
9B
100
AcDbEntity
  8
0
  6
Continuous
 62
               7
100
AcDbLine
 10
652.7969989235994
 20
320.73557890747912
 30
0.0
 11
644.05097875487331
 21
335.29140082651344
 31
0.0
  0
LINE
  5
9C
100
AcDbEntity
  8
0
  6
Continuous
 62
               7
100
AcDbLine
 10
659.66128582954912
 20
319.01950718099175
 30
0.0
 11
650.91526566082302
 21
333.57532910002607
 31
0.0
  0
LINE
  5
9D
100
AcDbEntity
  8
0
  6
Continuous
 62
               6
100
AcDbLine
 10
389.08946249386037
 20
347.14734630586923
 30
0.0
 11
467.08891950554499
 21
366.64721055879028
 31
0.0
  0
LINE
  5
9E
100
AcDbEntity
  8
0
  6
Continuous
 62
               6
100
AcDbLine
 10
545.08837651722956
 20
347.14734630586923
 30
0.0
 11
467.08891950554499
 21
366.64721055879028
 31
0.0
  0
LINE
  5
9F
100
AcDbEntity
  8
0
  6
Continuous
 62
               6
100
AcDbLine
 10
544.70031951717169
 20
345.59511830563662
 30
0.0
 11
545.08837651722956
 21
347.14734630586923
 31
0.0
  0
LINE
  5
A0
100
AcDbEntity
  8
0
  6
Continuous
 62
               6
100
AcDbLine
 10
389.47751949391846
 20
345.59511830563662
 30
0.0
 11
389.08946249386037
 21
347.14734630586923
 31
0.0
  0
LINE
  5
A1
100
AcDbEntity
  8
0
  6
Continuous
 62
               7
100
AcDbLine
 10
666.52557273549883
 20
317.30343545450415
 30
0.0
 11
657.77955256677274
 21
331.8592573735387
 31
0.0
  0
LINE
  5
A2
100
AcDbEntity
  8
0
  6
Continuous
 62
               7
100
AcDbLine
 10
673.38985964144854
 20
315.58736372801678
 30
0.0
 11
664.64383947272245
 21
330.14318564705133
 31
0.0
  0
LINE
  5
A3
100
AcDbEntity
  8
0
  6
Continuous
 62
               7
100
AcDbLine
 10
680.25414654739802
 20
313.87129200152941
 30
0.0
 11
671.50812637867216
 21
328.42711392056395
 31
0.0
  0
LINE
  5
A4
100
AcDbEntity
  8
0
  6
Continuous
 62
               7
100
AcDbLine
 10
687.11843345334842
 20
312.15522027504204
 30
0.0
 11
678.37241328462187
 21
326.71104219407658
 31
0.0
  0
LINE
  5
A5
100
AcDbEntity
  8
0
  6
Continuous
 62
               7
100
AcDbLine
 10
688.44459414548555
 20
319.65613837687016
 30
0.0
 11
685.23670019057204
 21
324.99497046758898
 31
0.0
  0
LINE
  5
A6
100
AcDbEntity
  8
0
  6
Continuous
 62
               4
100
AcDbLine
 10
520.09671617309255
 20
289.88546442862236
 30
0.0
 11
617.00589146785819
 21
289.88546442862236
 31
0.0
  0
LINE
  5
A7
100
AcDbEntity
  8
0
  6
Continuous
 62
               7
100
AcDbLine
 10
302.48548502620071
 20
371.36588112666897
 30
0.0
 11
293.73946485747473
 21
356.81005920763465
 31
0.0
  0
LINE
  5
A8
100
AcDbEntity
  8
0
  6
Continuous
 62
               7
100
AcDbLine
 10
295.62119812025111
 20
369.6498094001816
 30
0.0
 11
286.87516394650635
 21
355.09396417288195
 31
0.0
  0
LINE
  5
A9
100
AcDbEntity
  8
0
  6
Continuous
 62
               7
100
AcDbLine
 10
288.75691121430162
 20
367.93373767369422
 30
0.0
 11
280.0108764383877
 21
353.37789144421646
 31
0.0
  0
LINE
  5
AA
100
AcDbEntity
  8
0
  6
Continuous
 62
               7
100
AcDbLine
 10
233.92079853794991
 20
354.22464681276125
 30
0.0
 11
226.3303948626986
 21
341.59209371328262
 31
0.0
  0
LINE
  5
AB
100
AcDbEntity
  8
0
  6
Continuous
 62
               7
100
AcDbLine
 10
227.05651163200042
 20
352.50857508627388
 30
0.0
 11
226.3303948626986
 21
351.30011384533447
 31
0.0
  0
LINE
  5
AC
100
AcDbEntity
  8
0
  6
Continuous
 62
               3
100
AcDbLine
 10
226.3303948626986
 20
352.32712948307523
 30
0.0
 11
464.17849200510892
 21
411.78915376867786
 31
0.0
  0
LINE
  5
AD
100
AcDbEntity
  8
0
  6
Continuous
 62
               3
100
AcDbLine
 10
467.08891950554499
 20
400.1474437669338
 30
0.0
 11
464.17849200510892
 21
411.78915376867786
 31
0.0
  0
LINE
  5
AE
100
AcDbEntity
  8
0
  6
DASHED
 62
               6
100
AcDbLine
 10
226.3303948626986
 20
354.38868229588417
 30
0.0
 11
463.69342075503624
 21
413.72943876896835
 31
0.0
  0
LINE
  5
AF
100
AcDbEntity
  8
0
  6
Continuous
 62
               2
100
AcDbLine
 10
226.3303948626986
 20
357.48101151509746
 30
0.0
 11
462.96581387992723
 21
416.63986626940442
 31
0.0
  0
LINE
  5
B0
100
AcDbEntity
  8
0
  6
Continuous
 62
               4
100
AcDbLine
 10
389.96259074399114
 20
400.45061329822926
 30
0.0
 11
462.48074262985466
 21
418.58015126969514
 31
0.0
  0
LINE
  5
B1
100
AcDbEntity
  8
0
  6
Continuous
 62
               2
100
AcDbLine
 10
371.08658366391302
 20
397.79314259510414
 30
0.0
 11
467.08891950554499
 21
421.79374830142666
 31
0.0
  0
LINE
  5
B2
100
AcDbEntity
  8
0
  6
Continuous
 62
               4
100
AcDbLine
 10
389.96259074399114
 20
400.45061329822926
 30
0.0
 11
371.44154498504889
 21
397.20067386918464
 31
0.0
  0
LINE
  5
B3
100
AcDbEntity
  8
0
  6
Continuous
 62
               2
100
AcDbLine
 10
371.50168734845278
 20
395.75086560535584
 30
0.0
 11
387.27629183180233
 21
398.23287396057555
 31
0.0
  0
LINE
  5
B4
100
AcDbEntity
  8
0
  6
Continuous
 62
               6
100
AcDbLine
 10
390.93322562176519
 20
400.69327201767265
 30
0.0
 11
391.41829687183787
 21
398.75298701738217
 31
0.0
  0
LINE
  5
B5
100
AcDbEntity
  8
0
  6
Continuous
 62
               6
100
AcDbLine
 10
462.08756465518644
 20
418.48185677602811
 30
0.0
 11
460.63235090496852
 21
416.05650052566472
 31
0.0
  0
LINE
  5
B6
100
AcDbEntity
  8
0
  6
Continuous
 62
               6
100
AcDbLine
 10
459.34358729290631
 20
417.7958624354581
 30
0.0
 11
457.88837354268838
 21
415.37050618509471
 31
0.0
  0
LINE
  5
B7
100
AcDbEntity
  8
0
  6
Continuous
 62
               6
100
AcDbLine
 10
456.59960993062617
 20
417.1098680948881
 30
0.0
 11
455.14439618040814
 21
414.68451184452471
 31
0.0
  0
LINE
  5
B8
100
AcDbEntity
  8
0
  6
Continuous
 62
               6
100
AcDbLine
 10
453.85563256834604
 20
416.42387375431809
 30
0.0
 11
452.400418818128
 21
413.9985175039547
 31
0.0
  0
LINE
  5
B9
100
AcDbEntity
  8
0
  6
Continuous
 62
               6
100
AcDbLine
 10
451.1116552060659
 20
415.73787941374786
 30
0.0
 11
449.65644145584787
 21
413.3125231633847
 31
0.0
  0
LINE
  5
BA
100
AcDbEntity
  8
0
  6
Continuous
 62
               6
100
AcDbLine
 10
448.36767784378566
 20
415.05188507317786
 30
0.0
 11
446.91246409356773
 21
412.62652882281469
 31
0.0
  0
LINE
  5
BB
100
AcDbEntity
  8
0
  6
Continuous
 62
               6
100
AcDbLine
 10
445.62370048150552
 20
414.36589073260785
 30
0.0
 11
444.1684867312876
 21
411.94053448224446
 31
0.0
  0
LINE
  5
BC
100
AcDbEntity
  8
0
  6
Continuous
 62
               6
100
AcDbLine
 10
442.87972311922539
 20
413.67989639203785
 30
0.0
 11
441.42450936900747
 21
411.25454014167445
 31
0.0
  0
LINE
  5
BD
100
AcDbEntity
  8
0
  6
Continuous
 62
               6
100
AcDbLine
 10
440.13574575694525
 20
412.99390205146784
 30
0.0
 11
438.68053200672733
 21
410.56854580110445
 31
0.0
  0
LINE
  5
BE
100
AcDbEntity
  8
0
  6
Continuous
 62
               6
100
AcDbLine
 10
437.39176839466512
 20
412.30790771089784
 30
0.0
 11
435.9365546444472
 21
409.88255146053444
 31
0.0
  0
LINE
  5
BF
100
AcDbEntity
  8
0
  6
Continuous
 62
               6
100
AcDbLine
 10
434.64779103238499
 20
411.62191337032783
 30
0.0
 11
433.19257728216695
 21
409.19655711996444
 31
0.0
  0
LINE
  5
C0
100
AcDbEntity
  8
0
  6
Continuous
 62
               6
100
AcDbLine
 10
431.90381367010485
 20
410.9359190297576
 30
0.0
 11
430.44859991988693
 21
408.51056277939443
 31
0.0
  0
LINE
  5
C1
100
AcDbEntity
  8
0
  6
Continuous
 62
               6
100
AcDbLine
 10
429.15983630782472
 20
410.24992468918759
 30
0.0
 11
427.70462255760668
 21
407.82456843882443
 31
0.0
  0
LINE
  5
C2
100
AcDbEntity
  8
0
  6
Continuous
 62
               6
100
AcDbLine
 10
426.41585894554458
 20
409.56393034861759
 30
0.0
 11
424.96064519532655
 21
407.1385740982542
 31
0.0
  0
LINE
  5
C3
100
AcDbEntity
  8
0
  6
Continuous
 62
               6
100
AcDbLine
 10
423.67188158326445
 20
408.87793600804758
 30
0.0
 11
422.21666783304642
 21
406.45257975768419
 31
0.0
  0
LINE
  5
C4
100
AcDbEntity
  8
0
  6
Continuous
 62
               6
100
AcDbLine
 10
420.92790422098432
 20
408.19194166747758
 30
0.0
 11
419.47269047076628
 21
405.76658541711419
 31
0.0
  0
LINE
  5
C5
100
AcDbEntity
  8
0
  6
Continuous
 62
               6
100
AcDbLine
 10
418.18392685870418
 20
407.50594732690735
 30
0.0
 11
416.72871310848615
 21
405.08059107654418
 31
0.0
  0
LINE
  5
C6
100
AcDbEntity
  8
0
  6
Continuous
 62
               6
100
AcDbLine
 10
415.43994949642394
 20
406.81995298633734
 30
0.0
 11
413.98473574620601
 21
404.39459673597418
 31
0.0
  0
LINE
  5
C7
100
AcDbEntity
  8
0
  6
Continuous
 62
               6
100
AcDbLine
 10
412.6959721341438
 20
406.13395864576756
 30
0.0
 11
411.24075838392588
 21
403.70860239540417
 31
0.0
  0
LINE
  5
C8
100
AcDbEntity
  8
0
  6
Continuous
 62
               6
100
AcDbLine
 10
409.95199477186367
 20
405.44796430519733
 30
0.0
 11
408.49678102164575
 21
403.02260805483417
 31
0.0
  0
LINE
  5
C9
100
AcDbEntity
  8
0
  6
Continuous
 62
               6
100
AcDbLine
 10
407.20801740958353
 20
404.76196996462733
 30
0.0
 11
405.75280365936561
 21
402.33661371426416
 31
0.0
  0
LINE
  5
CA
100
AcDbEntity
  8
0
  6
Continuous
 62
               6
100
AcDbLine
 10
404.4640400473034
 20
404.07597562405732
 30
0.0
 11
403.00882629708536
 21
401.65061937369416
 31
0.0
  0
LINE
  5
CB
100
AcDbEntity
  8
0
  6
Continuous
 62
               6
100
AcDbLine
 10
401.72006268502327
 20
403.38998128348732
 30
0.0
 11
400.26484893480534
 21
400.96462503312392
 31
0.0
  0
LINE
  5
CC
100
AcDbEntity
  8
0
  6
Continuous
 62
               6
100
AcDbLine
 10
398.97608532274313
 20
402.70398694291731
 30
0.0
 11
397.52087157252521
 21
400.27863069255392
 31
0.0
  0
LINE
  5
CD
100
AcDbEntity
  8
0
  6
Continuous
 62
               6
100
AcDbLine
 10
396.232107960463
 20
402.01799260234731
 30
0.0
 11
394.77689421024496
 21
399.59263635198391
 31
0.0
  0
LINE
  5
CE
100
AcDbEntity
  8
0
  6
Continuous
 62
               6
100
AcDbLine
 10
393.48813059818286
 20
401.3319982617773
 30
0.0
 11
392.03291684796483
 21
398.90664201141391
 31
0.0
  0
LINE
  5
CF
100
AcDbEntity
  8
0
  6
Continuous
 62
               3
100
AcDbLine
 10
688.44459414548555
 20
357.17784198380178
 30
0.0
 11
469.99934700598106
 21
411.78915376867786
 31
0.0
  0
LINE
  5
D0
100
AcDbEntity
  8
0
  6
Continuous
 62
               3
100
AcDbLine
 10
467.08891950554499
 20
400.1474437669338
 30
0.0
 11
469.99934700598106
 21
411.78915376867786
 31
0.0
  0
LINE
  5
D1
100
AcDbEntity
  8
0
  6
DASHED
 62
               6
100
AcDbLine
 10
688.44459414548555
 20
359.23939479661072
 30
0.0
 11
470.48441825605374
 21
413.72943876896835
 31
0.0
  0
LINE
  5
D2
100
AcDbEntity
  8
0
  6
Continuous
 62
               2
100
AcDbLine
 10
688.44459414548555
 20
362.33172401582402
 30
0.0
 11
471.21202513116276
 21
416.63986626940442
 31
0.0
  0
LINE
  5
D3
100
AcDbEntity
  8
0
  6
Continuous
 62
               4
100
AcDbLine
 10
544.21524826709879
 20
400.45061329822926
 30
0.0
 11
471.69709638123544
 21
418.58015126969514
 31
0.0
  0
LINE
  5
D4
100
AcDbEntity
  8
0
  6
Continuous
 62
               2
100
AcDbLine
 10
563.09125328144933
 20
397.79316485745045
 30
0.0
 11
467.08891950554499
 21
421.79374830142666
 31
0.0
  0
LINE
  5
D5
100
AcDbEntity
  8
0
  6
Continuous
 62
               4
100
AcDbLine
 10
544.21524826709879
 20
400.45061329822926
 30
0.0
 11
562.73629402604115
 21
397.20067386918464
 31
0.0
  0
LINE
  5
D6
100
AcDbEntity
  8
0
  6
Continuous
 62
               2
100
AcDbLine
 10
562.67615166263727
 20
395.75086560535584
 30
0.0
 11
546.90154717928772
 21
398.23287396057555
 31
0.0
  0
LINE
  5
D7
100
AcDbEntity
  8
0
  6
Continuous
 62
               6
100
AcDbLine
 10
543.24461338932474
 20
400.69327201767265
 30
0.0
 11
542.75954213925229
 21
398.75298701738217
 31
0.0
  0
LINE
  5
D8
100
AcDbEntity
  8
0
  6
Continuous
 62
               6
100
AcDbLine
 10
472.09027435590355
 20
418.48185677602811
 30
0.0
 11
473.54548810612158
 21
416.05650052566472
 31
0.0
  0
LINE
  5
D9
100
AcDbEntity
  8
0
  6
Continuous
 62
               6
100
AcDbLine
 10
474.83425171818368
 20
417.7958624354581
 30
0.0
 11
476.28946546840172
 21
415.37050618509471
 31
0.0
  0
LINE
  5
DA
100
AcDbEntity
  8
0
  6
Continuous
 62
               6
100
AcDbLine
 10
477.57822908046393
 20
417.1098680948881
 30
0.0
 11
479.03344283068185
 21
414.68451184452471
 31
0.0
  0
LINE
  5
DB
100
AcDbEntity
  8
0
  6
Continuous
 62
               6
100
AcDbLine
 10
480.32220644274406
 20
416.42387375431809
 30
0.0
 11
481.77742019296198
 21
413.9985175039547
 31
0.0
  0
LINE
  5
DC
100
AcDbEntity
  8
0
  6
Continuous
 62
               6
100
AcDbLine
 10
483.0661838050242
 20
415.73787941374786
 30
0.0
 11
484.52139755524212
 21
413.3125231633847
 31
0.0
  0
LINE
  5
DD
100
AcDbEntity
  8
0
  6
Continuous
 62
               6
100
AcDbLine
 10
485.81016116730433
 20
415.05188507317786
 30
0.0
 11
487.26537491752225
 21
412.62652882281469
 31
0.0
  0
LINE
  5
DE
100
AcDbEntity
  8
0
  6
Continuous
 62
               6
100
AcDbLine
 10
488.55413852958446
 20
414.36589073260785
 30
0.0
 11
490.0093522798025
 21
411.94053448224446
 31
0.0
  0
LINE
  5
DF
100
AcDbEntity
  8
0
  6
Continuous
 62
               6
100
AcDbLine
 10
491.2981158918646
 20
413.67989639203785
 30
0.0
 11
492.75332964208263
 21
411.25454014167445
 31
0.0
  0
LINE
  5
E0
100
AcDbEntity
  8
0
  6
Continuous
 62
               6
100
AcDbLine
 10
494.04209325414473
 20
412.99390205146784
 30
0.0
 11
495.49730700436277
 21
410.56854580110445
 31
0.0
  0
LINE
  5
E1
100
AcDbEntity
  8
0
  6
Continuous
 62
               6
100
AcDbLine
 10
496.78607061642487
 20
412.30790771089784
 30
0.0
 11
498.2412843666429
 21
409.88255146053444
 31
0.0
  0
LINE
  5
E2
100
AcDbEntity
  8
0
  6
Continuous
 62
               6
100
AcDbLine
 10
499.530047978705
 20
411.62191337032783
 30
0.0
 11
500.98526172892304
 21
409.19655711996444
 31
0.0
  0
LINE
  5
E3
100
AcDbEntity
  8
0
  6
Continuous
 62
               6
100
AcDbLine
 10
502.27402534098513
 20
410.9359190297576
 30
0.0
 11
503.72923909120317
 21
408.51056277939443
 31
0.0
  0
LINE
  5
E4
100
AcDbEntity
  8
0
  6
Continuous
 62
               6
100
AcDbLine
 10
505.01800270326527
 20
410.24992468918759
 30
0.0
 11
506.4732164534833
 21
407.82456843882443
 31
0.0
  0
LINE
  5
E5
100
AcDbEntity
  8
0
  6
Continuous
 62
               6
100
AcDbLine
 10
507.76198006554552
 20
409.56393034861759
 30
0.0
 11
509.21719381576344
 21
407.1385740982542
 31
0.0
  0
LINE
  5
E6
100
AcDbEntity
  8
0
  6
Continuous
 62
               6
100
AcDbLine
 10
510.50595742782554
 20
408.87793600804758
 30
0.0
 11
511.96117117804357
 21
406.45257975768419
 31
0.0
  0
LINE
  5
E7
100
AcDbEntity
  8
0
  6
Continuous
 62
               6
100
AcDbLine
 10
513.24993479010573
 20
408.19194166747758
 30
0.0
 11
514.70514854032376
 21
405.76658541711419
 31
0.0
  0
LINE
  5
E8
100
AcDbEntity
  8
0
  6
Continuous
 62
               6
100
AcDbLine
 10
515.99391215238597
 20
407.50594732690735
 30
0.0
 11
517.44912590260378
 21
405.08059107654418
 31
0.0
  0
LINE
  5
E9
100
AcDbEntity
  8
0
  6
Continuous
 62
               6
100
AcDbLine
 10
518.73788951466599
 20
406.81995298633734
 30
0.0
 11
520.19310326488403
 21
404.39459673597418
 31
0.0
  0
LINE
  5
EA
100
AcDbEntity
  8
0
  6
Continuous
 62
               6
100
AcDbLine
 10
521.48186687694624
 20
406.13395864576756
 30
0.0
 11
522.93708062716428
 21
403.70860239540394
 31
0.0
  0
LINE
  5
EB
100
AcDbEntity
  8
0
  6
Continuous
 62
               6
100
AcDbLine
 10
524.22584423922626
 20
405.44796430519733
 30
0.0
 11
525.6810579894443
 21
403.02260805483417
 31
0.0
  0
LINE
  5
EC
100
AcDbEntity
  8
0
  6
Continuous
 62
               6
100
AcDbLine
 10
526.96982160150651
 20
404.76196996462733
 30
0.0
 11
528.42503535172432
 21
402.33661371426416
 31
0.0
  0
LINE
  5
ED
100
AcDbEntity
  8
0
  6
Continuous
 62
               6
100
AcDbLine
 10
529.71379896378653
 20
404.07597562405732
 30
0.0
 11
531.16901271400457
 21
401.65061937369416
 31
0.0
  0
LINE
  5
EE
100
AcDbEntity
  8
0
  6
Continuous
 62
               6
100
AcDbLine
 10
532.45777632606678
 20
403.38998128348732
 30
0.0
 11
533.91299007628481
 21
400.96462503312392
 31
0.0
  0
LINE
  5
EF
100
AcDbEntity
  8
0
  6
Continuous
 62
               6
100
AcDbLine
 10
535.2017536883468
 20
402.70398694291731
 30
0.0
 11
536.65696743856483
 21
400.27863069255392
 31
0.0
  0
LINE
  5
F0
100
AcDbEntity
  8
0
  6
Continuous
 62
               6
100
AcDbLine
 10
537.94573105062705
 20
402.01799260234731
 30
0.0
 11
539.40094480084508
 21
399.59263635198391
 31
0.0
  0
LINE
  5
F1
100
AcDbEntity
  8
0
  6
Continuous
 62
               6
100
AcDbLine
 10
540.68970841290707
 20
401.3319982617773
 30
0.0
 11
542.1449221631251
 21
398.90664201141391
 31
0.0
  0
LINE
  5
F2
100
AcDbEntity
  8
0
  6
Continuous
 62
               7
100
AcDbLine
 10
466.64739273636309
 20
401.91355084366165
 30
0.0
 11
465.32057664913208
 21
399.70535805283049
 31
0.0
  0
LINE
  5
F3
100
AcDbEntity
  8
0
  6
Continuous
 62
               7
100
AcDbLine
 10
464.93349070128494
 20
408.76915898397425
 30
0.0
 11
458.45628974318248
 21
397.98928632634335
 31
0.0
  0
LINE
  5
F4
100
AcDbEntity
  8
0
  6
Continuous
 62
               7
100
AcDbLine
 10
460.33802300595897
 20
410.82903651889029
 30
0.0
 11
451.592002837233
 21
396.27321459985575
 31
0.0
  0
LINE
  5
F5
100
AcDbEntity
  8
0
  6
Continuous
 62
               7
100
AcDbLine
 10
453.47373610000938
 20
409.11296479240292
 30
0.0
 11
444.7277159312834
 21
394.55714287336849
 31
0.0
  0
LINE
  5
F6
100
AcDbEntity
  8
0
  6
Continuous
 62
               7
100
AcDbLine
 10
446.60944919405989
 20
407.39689306591555
 30
0.0
 11
437.8634290253338
 21
392.84107114688112
 31
0.0
  0
LINE
  5
F7
100
AcDbEntity
  8
0
  6
Continuous
 62
               7
100
AcDbLine
 10
439.74516228811029
 20
405.68082133942795
 30
0.0
 11
430.99914211938432
 21
391.12499942039364
 31
0.0
  0
LINE
  5
F8
100
AcDbEntity
  8
0
  6
Continuous
 62
               7
100
AcDbLine
 10
432.8808753821607
 20
403.96474961294081
 30
0.0
 11
424.13485521343472
 21
389.40892769390626
 31
0.0
  0
LINE
  5
F9
100
AcDbEntity
  8
0
  6
Continuous
 62
               7
100
AcDbLine
 10
426.01658847621155
 20
402.24867788645344
 30
0.0
 11
417.27056830748558
 21
387.69285596741889
 31
0.0
  0
LINE
  5
FA
100
AcDbEntity
  8
0
  6
Continuous
 62
               7
100
AcDbLine
 10
419.15230157026195
 20
400.53260615996606
 30
0.0
 11
410.40628140153598
 21
385.97678424093152
 31
0.0
  0
LINE
  5
FB
100
AcDbEntity
  8
0
  6
Continuous
 62
               7
100
AcDbLine
 10
412.28801466431247
 20
398.81653443347858
 30
0.0
 11
403.54199449558638
 21
384.26071251444415
 31
0.0
  0
LINE
  5
FC
100
AcDbEntity
  8
0
  6
Continuous
 62
               7
100
AcDbLine
 10
405.42372775836287
 20
397.1004627069911
 30
0.0
 11
396.67770758963678
 21
382.54464078795655
 31
0.0
  0
LINE
  5
FD
100
AcDbEntity
  8
0
  6
Continuous
 62
               7
100
AcDbLine
 10
398.55944085241327
 20
395.38439098050372
 30
0.0
 11
389.8134206836873
 21
380.82856906146941
 31
0.0
  0
LINE
  5
FE
100
AcDbEntity
  8
0
  6
Continuous
 62
               7
100
AcDbLine
 10
391.69515394646368
 20
393.66831925401635
 30
0.0
 11
382.9491337777377
 21
379.11249733498181
 31
0.0
  0
LINE
  5
FF
100
AcDbEntity
  8
0
  6
Continuous
 62
               7
100
AcDbLine
 10
384.83086846464272
 20
391.95224025416661
 30
0.0
 11
376.0848468717881
 21
377.39642560849444
 31
0.0
  0
LINE
  5
100
100
AcDbEntity
  8
0
  6
Continuous
 62
               7
100
AcDbLine
 10
377.96658013456459
 20
390.23617580104161
 30
0.0
 11
369.22055996583862
 21
375.68035388200707
 31
0.0
  0
LINE
  5
101
100
AcDbEntity
  8
0
  6
Continuous
 62
               7
100
AcDbLine
 10
371.102293228615
 20
388.52010407455424
 30
0.0
 11
362.35627305988902
 21
373.9642821555197
 31
0.0
  0
LINE
  5
102
100
AcDbEntity
  8
0
  6
Continuous
 62
               7
100
AcDbLine
 10
364.2380063226654
 20
386.80403234806687
 30
0.0
 11
355.49198615393942
 21
372.24821042903233
 31
0.0
  0
LINE
  5
103
100
AcDbEntity
  8
0
  6
Continuous
 62
               7
100
AcDbLine
 10
357.3737194167158
 20
385.0879606215795
 30
0.0
 11
348.62769924798982
 21
370.53213870254496
 31
0.0
  0
LINE
  5
104
100
AcDbEntity
  8
0
  6
Continuous
 62
               7
100
AcDbLine
 10
350.50943251076632
 20
383.37188889509213
 30
0.0
 11
341.76341234204034
 21
368.81606697605758
 31
0.0
  0
LINE
  5
105
100
AcDbEntity
  8
0
  6
Continuous
 62
               7
100
AcDbLine
 10
343.64514560481672
 20
381.65581716860476
 30
0.0
 11
334.89912543609063
 21
367.09999524957021
 31
0.0
  0
LINE
  5
106
100
AcDbEntity
  8
0
  6
Continuous
 62
               7
100
AcDbLine
 10
336.78085869886712
 20
379.93974544211716
 30
0.0
 11
328.03483853014092
 21
365.38392352308284
 31
0.0
  0
LINE
  5
107
100
AcDbEntity
  8
0
  6
Continuous
 62
               7
100
AcDbLine
 10
329.91657179291741
 20
378.22367371562979
 30
0.0
 11
321.17055162419132
 21
363.66785179659524
 31
0.0
  0
LINE
  5
108
100
AcDbEntity
  8
0
  6
Continuous
 62
               7
100
AcDbLine
 10
323.05228488696781
 20
376.50760198914242
 30
0.0
 11
314.30626471824183
 21
361.9517800701081
 31
0.0
  0
LINE
  5
109
100
AcDbEntity
  8
0
  6
Continuous
 62
               7
100
AcDbLine
 10
316.18799798101821
 20
374.79153026265504
 30
0.0
 11
307.44196380727345
 21
360.23568503535517
 31
0.0
  0
LINE
  5
10A
100
AcDbEntity
  8
0
  6
Continuous
 62
               7
100
AcDbLine
 10
309.32371107506862
 20
373.07545853616767
 30
0.0
 11
300.5776762991548
 21
358.51961230669014
 31
0.0
  0
LINE
  5
10B
100
AcDbEntity
  8
0
  6
Continuous
 62
               7
100
AcDbLine
 10
664.60062066533283
 20
363.13883535383985
 30
0.0
 11
650.06320219720601
 21
354.40387309401859
 31
0.0
  0
LINE
  5
10C
100
AcDbEntity
  8
0
  6
Continuous
 62
               7
100
AcDbLine
 10
657.74501252502046
 20
364.85273738891811
 30
0.0
 11
643.20759405689364
 21
356.11777512909686
 31
0.0
  0
LINE
  5
10D
100
AcDbEntity
  8
0
  6
Continuous
 62
               7
100
AcDbLine
 10
650.88940438470786
 20
366.56663942399615
 30
0.0
 11
636.35198591658104
 21
357.83167716417489
 31
0.0
  0
LINE
  5
10E
100
AcDbEntity
  8
0
  6
Continuous
 62
               7
100
AcDbLine
 10
644.03379624439526
 20
368.28054145907419
 30
0.0
 11
629.49637777626845
 21
359.54557919925293
 31
0.0
  0
LINE
  5
10F
100
AcDbEntity
  8
0
  6
Continuous
 62
               7
100
AcDbLine
 10
637.17818810408266
 20
369.99444349415245
 30
0.0
 11
622.64076963595585
 21
361.25948123433119
 31
0.0
  0
LINE
  5
110
100
AcDbEntity
  8
0
  6
Continuous
 62
               7
100
AcDbLine
 10
630.32257996377007
 20
371.70834552923048
 30
0.0
 11
615.78516149564325
 21
362.97338326940923
 31
0.0
  0
LINE
  5
111
100
AcDbEntity
  8
0
  6
Continuous
 62
               7
100
AcDbLine
 10
623.4669718234577
 20
373.42224756430875
 30
0.0
 11
608.92955335533088
 21
364.68728530448726
 31
0.0
  0
LINE
  5
112
100
AcDbEntity
  8
0
  6
Continuous
 62
               7
100
AcDbLine
 10
616.61136368314533
 20
375.13614959938678
 30
0.0
 11
602.07394521501851
 21
366.40118733956552
 31
0.0
  0
LINE
  5
113
100
AcDbEntity
  8
0
  6
Continuous
 62
               7
100
AcDbLine
 10
609.75575554283273
 20
376.85005163446482
 30
0.0
 11
595.21833707470591
 21
368.11508937464356
 31
0.0
  0
LINE
  5
114
100
AcDbEntity
  8
0
  6
Continuous
 62
               7
100
AcDbLine
 10
602.90014740252013
 20
378.56395366954285
 30
0.0
 11
588.36272893439354
 21
369.8289914097216
 31
0.0
  0
LINE
  5
115
100
AcDbEntity
  8
0
  6
Continuous
 62
               7
100
AcDbLine
 10
596.04453926220776
 20
380.27785570462112
 30
0.0
 11
581.50712079408117
 21
371.54289344479986
 31
0.0
  0
LINE
  5
116
100
AcDbEntity
  8
0
  6
Continuous
 62
               7
100
AcDbLine
 10
589.18893112189539
 20
381.99175773969915
 30
0.0
 11
574.65151265376858
 21
373.25679547987789
 31
0.0
  0
LINE
  5
117
100
AcDbEntity
  8
0
  6
Continuous
 62
               7
100
AcDbLine
 10
582.3333229815828
 20
383.70565977477742
 30
0.0
 11
567.79590451345598
 21
374.97069751495616
 31
0.0
  0
LINE
  5
118
100
AcDbEntity
  8
0
  6
Continuous
 62
               7
100
AcDbLine
 10
575.4777148412702
 20
385.41956180985545
 30
0.0
 11
560.94029637314361
 21
376.68459955003419
 31
0.0
  0
LINE
  5
119
100
AcDbEntity
  8
0
  6
Continuous
 62
               7
100
AcDbLine
 10
568.62210670095783
 20
387.13346384493349
 30
0.0
 11
554.08468823283124
 21
378.39850158511223
 31
0.0
  0
LINE
  5
11A
100
AcDbEntity
  8
0
  6
Continuous
 62
               7
100
AcDbLine
 10
561.76649856064546
 20
388.84736588001186
 30
0.0
 11
547.22908009251864
 21
380.11240362019049
 31
0.0
  0
LINE
  5
11B
100
AcDbEntity
  8
0
  6
Continuous
 62
               7
100
AcDbLine
 10
554.91089042033286
 20
390.56126791508979
 30
0.0
 11
540.37347195220605
 21
381.82630565526853
 31
0.0
  0
LINE
  5
11C
100
AcDbEntity
  8
0
  6
Continuous
 62
               7
100
AcDbLine
 10
548.05528228002026
 20
392.27516995016805
 30
0.0
 11
533.51786381189368
 21
383.54020769034656
 31
0.0
  0
LINE
  5
11D
100
AcDbEntity
  8
0
  6
Continuous
 62
               7
100
AcDbLine
 10
541.19967413970789
 20
393.98907198524608
 30
0.0
 11
526.66225567158131
 21
385.25410972542483
 31
0.0
  0
LINE
  5
11E
100
AcDbEntity
  8
0
  6
Continuous
 62
               7
100
AcDbLine
 10
534.34406599939553
 20
395.70297402032435
 30
0.0
 11
519.80664753126871
 21
386.96801176050286
 31
0.0
  0
LINE
  5
11F
100
AcDbEntity
  8
0
  6
Continuous
 62
               7
100
AcDbLine
 10
527.48845785908293
 20
397.41687605540216
 30
0.0
 11
512.95103939095634
 21
388.68191379558112
 31
0.0
  0
LINE
  5
120
100
AcDbEntity
  8
0
  6
Continuous
 62
               7
100
AcDbLine
 10
520.63284971877056
 20
399.13077809048042
 30
0.0
 11
506.0954312506438
 21
390.39581583065905
 31
0.0
  0
LINE
  5
121
100
AcDbEntity
  8
0
  6
Continuous
 62
               7
100
AcDbLine
 10
513.77724157845796
 20
400.84468012555845
 30
0.0
 11
499.23982311033132
 21
392.10971786573731
 31
0.0
  0
LINE
  5
122
100
AcDbEntity
  8
0
  6
Continuous
 62
               7
100
AcDbLine
 10
506.92163343814553
 20
402.55858216063672
 30
0.0
 11
492.38421497001883
 21
393.82361990081546
 31
0.0
  0
LINE
  5
123
100
AcDbEntity
  8
0
  6
Continuous
 62
               7
100
AcDbLine
 10
500.06602529783305
 20
404.27248419571475
 30
0.0
 11
485.52860682970646
 21
395.53752193589349
 31
0.0
  0
LINE
  5
124
100
AcDbEntity
  8
0
  6
Continuous
 62
               7
100
AcDbLine
 10
493.21041715752057
 20
405.98638623079279
 30
0.0
 11
478.67299868939398
 21
397.25142397097176
 31
0.0
  0
LINE
  5
125
100
AcDbEntity
  8
0
  6
Continuous
 62
               7
100
AcDbLine
 10
486.35480901720808
 20
407.70028826587105
 30
0.0
 11
471.81739054908149
 21
398.96532600604979
 31
0.0
  0
LINE
  5
126
100
AcDbEntity
  8
0
  6
Continuous
 62
               7
100
AcDbLine
 10
479.4992008768956
 20
409.41419030094909
 30
0.0
 11
467.62137698494433
 21
402.27727368453094
 31
0.0
  0
LINE
  5
127
100
AcDbEntity
  8
0
  6
Continuous
 62
               7
100
AcDbLine
 10
472.64359273658312
 20
411.12809233602735
 30
0.0
 11
469.3374487114317
 21
409.14156059048042
 31
0.0
  0
LINE
  5
128
100
AcDbEntity
  8
0
  6
Continuous
 62
               4
100
AcDbLine
 10
461.26805488016208
 20
445.07718570682056
 30
0.0
 11
465.63370451437873
 21
427.61460299206152
 31
0.0
  0
LINE
  5
129
100
AcDbEntity
  8
0
  6
Continuous
 62
               4
100
AcDbLine
 10
364.25380982052064
 20
420.82360246678383
 30
0.0
 11
368.87243361343536
 21
402.34912403406867
 31
0.0
  0
LINE
  5
12A
100
AcDbEntity
  8
0
  6
Continuous
 62
               4
100
AcDbLine
 10
461.9956623757451
 20
442.16675836150335
 30
0.0
 11
364.98141731610377
 21
417.9131751214664
 31
0.0
  0
LINE
  5
12B
100
AcDbEntity
  8
0
  6
Continuous
 62
               4
100
AcDbLine
 10
468.54414322431086
 20
427.61456645456775
 30
0.0
 11
472.90978431605953
 21
445.0772075434848
 31
0.0
  0
LINE
  5
12C
100
AcDbEntity
  8
0
  6
Continuous
 62
               4
100
AcDbLine
 10
565.30540421063893
 20
402.3491245600365
 30
0.0
 11
569.92403433059258
 21
420.82364503985133
 31
0.0
  0
LINE
  5
12D
100
AcDbEntity
  8
0
  6
Continuous
 62
               4
100
AcDbLine
 10
472.18217744095051
 20
442.16678004304873
 30
0.0
 11
569.19642745548367
 21
417.91321753941526
 31
0.0
  0
LINE
  5
12E
100
AcDbEntity
  8
0
  6
Continuous
 62
               4
100
AcDbLine
 10
531.11127518753301
 20
405.78815938092959
 30
0.0
 11
561.86188095814282
 21
459.04977093914664
 31
0.0
  0
LINE
  5
12F
100
AcDbEntity
  8
0
  6
Continuous
 62
               4
100
AcDbLine
 10
540.1617228948719
 20
401.46399464128586
 30
0.0
 11
561.86188095814282
 21
439.04977093914664
 31
0.0
  0
LINE
  5
130
100
AcDbEntity
  8
0
  6
Continuous
 62
               4
100
AcDbLine
 10
561.86188095814282
 20
439.04977093914664
 30
0.0
 11
690.16600562296389
 21
439.04977093914664
 31
0.0
  0
LINE
  5
131
100
AcDbEntity
  8
0
  6
Continuous
 62
               4
100
AcDbLine
 10
561.86188095814282
 20
459.04977093914664
 30
0.0
 11
630.91074047658799
 21
459.04977093914664
 31
0.0
  0
LINE
  5
132
100
AcDbEntity
  8
0
  6
Continuous
 62
               4
100
AcDbLine
 10
531.11127518753301
 20
405.78815938092959
 30
0.0
 11
534.18945647746409
 21
414.24539296800282
 31
0.0
  0
LINE
  5
133
100
AcDbEntity
  8
0
  6
Continuous
 62
               4
100
AcDbLine
 10
531.11127518753301
 20
405.78815938092959
 30
0.0
 11
536.89636367471189
 21
412.68255936900033
 31
0.0
  0
LINE
  5
134
100
AcDbEntity
  8
0
  6
Continuous
 62
               4
100
AcDbLine
 10
540.1617228948719
 20
401.46399464128586
 30
0.0
 11
543.23990418480321
 21
409.9212282283591
 31
0.0
  0
LINE
  5
135
100
AcDbEntity
  8
0
  6
Continuous
 62
               4
100
AcDbLine
 10
540.1617228948719
 20
401.46399464128586
 30
0.0
 11
545.94681138205101
 21
408.35839462935684
 31
0.0
  0
LINE
  5
136
100
AcDbEntity
  8
0
  6
Continuous
 62
               7
100
AcDbLine
 10
685.19348138318242
 20
357.99062017437774
 30
0.0
 11
670.65606291505514
 21
349.25565791455625
 31
0.0
  0
LINE
  5
137
100
AcDbEntity
  8
0
  6
Continuous
 62
               7
100
AcDbLine
 10
678.33787324286936
 20
359.70452220945577
 30
0.0
 11
663.80045477474255
 21
350.96955994963452
 31
0.0
  0
LINE
  5
138
100
AcDbEntity
  8
0
  6
Continuous
 62
               7
100
AcDbLine
 10
671.48226510255677
 20
361.41842424453404
 30
0.0
 11
656.94484663442995
 21
352.68346198471255
 31
0.0
  0
LINE
  5
139
100
AcDbEntity
  8
0
  6
Continuous
 62
               7
100
AcDbLine
 10
688.44459414548555
 20
348.25559856940305
 30
0.0
 11
684.91989734656022
 21
346.13774706891633
 31
0.0
  0
LINE
  5
13A
100
AcDbEntity
  8
0
  6
Continuous
 62
               7
100
AcDbLine
 10
688.44459414548555
 20
354.0887655554796
 30
0.0
 11
677.53770735227909
 21
347.53524680525044
 31
0.0
  0
LINE
  5
13B
100
AcDbEntity
  8
0
  6
Continuous
 62
               7
100
AcDbLine
 10
405.60380081419061
 20
402.44097621525071
 30
0.0
 11
416.27539628715505
 21
359.75471320171715
 31
0.0
  0
LINE
  5
13C
100
AcDbEntity
  8
0
  6
Continuous
 62
               7
100
AcDbLine
 10
402.57210550123654
 20
404.25999340302343
 30
0.0
 11
402.69337331375465
 21
403.77492215295052
 31
0.0
  0
LINE
  5
13D
100
AcDbEntity
  8
0
  6
Continuous
 62
               7
100
AcDbLine
 10
410.45451331491728
 20
403.6536543404323
 30
0.0
 11
421.12608081651553
 21
360.96738433403772
 31
0.0
  0
LINE
  5
13E
100
AcDbEntity
  8
0
  6
Continuous
 62
               7
100
AcDbLine
 10
412.27353050268988
 20
406.68534965338637
 30
0.0
 11
412.39479831520799
 21
406.20027840331369
 31
0.0
  0
LINE
  5
13F
100
AcDbEntity
  8
0
  6
Continuous
 62
               7
100
AcDbLine
 10
402.57210550123654
 20
404.25999340302343
 30
0.0
 11
412.27353050268988
 21
406.68534965338637
 31
0.0
  0
LINE
  5
140
100
AcDbEntity
  8
0
  6
Continuous
 62
               7
100
AcDbLine
 10
405.60380081419061
 20
402.44097621525071
 30
0.0
 11
410.45451331491728
 21
403.6536543404323
 31
0.0
  0
LINE
  5
141
100
AcDbEntity
  8
0
  6
Continuous
 62
               7
100
AcDbLine
 10
402.69337331375465
 20
403.77492215295052
 30
0.0
 11
405.60380081419061
 21
402.44097621525071
 31
0.0
  0
LINE
  5
142
100
AcDbEntity
  8
0
  6
Continuous
 62
               7
100
AcDbLine
 10
410.45451331491728
 20
403.6536543404323
 30
0.0
 11
412.39479831520799
 21
406.20027840331392
 31
0.0
  0
LINE
  5
143
100
AcDbEntity
  8
0
  6
Continuous
 62
               7
100
AcDbLine
 10
402.69337331375465
 20
403.77492215295052
 30
0.0
 11
412.39479831520799
 21
406.20027840331369
 31
0.0
  0
LINE
  5
144
100
AcDbEntity
  8
0
  6
Continuous
 62
               7
100
AcDbLine
 10
416.27536831578874
 20
359.75470620885613
 30
0.0
 11
419.06452800370647
 21
358.905831521229
 31
0.0
  0
LINE
  5
145
100
AcDbEntity
  8
0
  6
Continuous
 62
               7
100
AcDbLine
 10
421.12608081651541
 20
360.96738433403772
 30
0.0
 11
419.06452800370647
 21
358.905831521229
 31
0.0
  0
LINE
  5
146
100
AcDbEntity
  8
0
  6
Continuous
 62
               7
100
AcDbLine
 10
407.30155018944487
 20
395.64997871423344
 30
0.0
 11
411.66719144009886
 21
398.80294183970574
 31
0.0
  0
LINE
  5
147
100
AcDbEntity
  8
0
  6
Continuous
 62
               7
100
AcDbLine
 10
407.78662143951755
 20
393.70969371394261
 30
0.0
 11
412.15226269017154
 21
396.86265683941502
 31
0.0
  0
LINE
  5
148
100
AcDbEntity
  8
0
  6
Continuous
 62
               7
100
AcDbLine
 10
408.27169268959022
 20
391.76940871365213
 30
0.0
 11
412.63733394024422
 21
394.92237183912431
 31
0.0
  0
LINE
  5
149
100
AcDbEntity
  8
0
  6
Continuous
 62
               7
100
AcDbLine
 10
408.75676393966279
 20
389.8291237133613
 30
0.0
 11
413.12240519031678
 21
392.98208683883382
 31
0.0
  0
LINE
  5
14A
100
AcDbEntity
  8
0
  6
Continuous
 62
               7
100
AcDbLine
 10
409.24183518973547
 20
387.8888387130707
 30
0.0
 11
413.60747644038946
 21
391.04180183854311
 31
0.0
  0
LINE
  5
14B
100
AcDbEntity
  8
0
  6
Continuous
 62
               7
100
AcDbLine
 10
409.72690643980803
 20
385.9485537127801
 30
0.0
 11
414.09254769046203
 21
389.10151683825228
 31
0.0
  0
LINE
  5
14C
100
AcDbEntity
  8
0
  6
Continuous
 62
               7
100
AcDbLine
 10
410.21197768988071
 20
384.00826871248938
 30
0.0
 11
414.57761894053471
 21
387.16123183796168
 31
0.0
  0
LINE
  5
14D
100
AcDbEntity
  8
0
  6
Continuous
 62
               7
100
AcDbLine
 10
410.69704893995328
 20
382.06798371219867
 30
0.0
 11
415.06269019060738
 21
385.22094683767097
 31
0.0
  0
LINE
  5
14E
100
AcDbEntity
  8
0
  6
Continuous
 62
               7
100
AcDbLine
 10
411.18212019002596
 20
380.12769871190795
 30
0.0
 11
415.54776144067995
 21
383.28066183738025
 31
0.0
  0
LINE
  5
14F
100
AcDbEntity
  8
0
  6
Continuous
 62
               7
100
AcDbLine
 10
411.66719144009863
 20
378.18741371161747
 30
0.0
 11
416.03283269075263
 21
381.34037683708976
 31
0.0
  0
LINE
  5
150
100
AcDbEntity
  8
0
  6
Continuous
 62
               7
100
AcDbLine
 10
412.15226269017131
 20
376.24712871132675
 30
0.0
 11
416.51790394082519
 21
379.40009183679905
 31
0.0
  0
LINE
  5
151
100
AcDbEntity
  8
0
  6
Continuous
 62
               7
100
AcDbLine
 10
414.57761894053436
 20
366.54570370987341
 30
0.0
 11
417.19700369092681
 21
368.43748158515706
 31
0.0
  0
LINE
  5
152
100
AcDbEntity
  8
0
  6
Continuous
 62
               7
100
AcDbLine
 10
420.51974175392462
 20
361.33118777159217
 30
0.0
 11
418.50669606612308
 21
369.38337052279854
 31
0.0
  0
LINE
  5
153
100
AcDbEntity
  8
0
  6
Continuous
 62
               7
100
AcDbLine
 10
417.19700369092681
 20
368.43748158515706
 30
0.0
 11
417.96099090979141
 21
369.71079361659764
 31
0.0
  0
LINE
  5
154
100
AcDbEntity
  8
0
  6
Continuous
 62
               7
100
AcDbLine
 10
418.50669606612308
 20
369.38337052279854
 30
0.0
 11
417.96099090979141
 21
369.71079361659764
 31
0.0
  0
LINE
  5
155
100
AcDbEntity
  8
0
  6
Continuous
 62
               7
100
AcDbLine
 10
418.50669606612308
 20
369.38337052279854
 30
0.0
 11
418.94326019118836
 21
369.6986668353457
 31
0.0
  0
LINE
  5
156
100
AcDbEntity
  8
0
  6
Continuous
 62
               7
100
AcDbLine
 10
421.12608081651541
 20
360.96738433403772
 30
0.0
 11
420.51974175392462
 21
361.33118777159217
 31
0.0
  0
LINE
  5
157
100
AcDbEntity
  8
0
  6
Continuous
 62
               7
100
AcDbLine
 10
519.69111170671295
 20
404.7666314124852
 30
0.0
 11
509.01958972907261
 21
362.08035002515254
 31
0.0
  0
LINE
  5
158
100
AcDbEntity
  8
0
  6
Continuous
 62
               7
100
AcDbLine
 10
517.87209451894068
 20
407.79832672543949
 30
0.0
 11
517.75082670642246
 21
407.31325547536682
 31
0.0
  0
LINE
  5
159
100
AcDbEntity
  8
0
  6
Continuous
 62
               7
100
AcDbLine
 10
524.54182420743973
 20
403.55395328730339
 30
0.0
 11
513.87025670584035
 21
360.86768328090903
 31
0.0
  0
LINE
  5
15A
100
AcDbEntity
  8
0
  6
Continuous
 62
               7
100
AcDbLine
 10
527.5735195203938
 20
405.37297047507587
 30
0.0
 11
527.45225170787558
 21
404.8878992250032
 31
0.0
  0
LINE
  5
15B
100
AcDbEntity
  8
0
  6
Continuous
 62
               7
100
AcDbLine
 10
517.87209451894068
 20
407.79832672543949
 30
0.0
 11
527.5735195203938
 21
405.37297047507587
 31
0.0
  0
LINE
  5
15C
100
AcDbEntity
  8
0
  6
Continuous
 62
               7
100
AcDbLine
 10
519.69111170671295
 20
404.7666314124852
 30
0.0
 11
524.54182420743973
 21
403.55395328730339
 31
0.0
  0
LINE
  5
15D
100
AcDbEntity
  8
0
  6
Continuous
 62
               7
100
AcDbLine
 10
517.75082670642246
 20
407.31325547536682
 30
0.0
 11
519.69111170671295
 21
404.7666314124852
 31
0.0
  0
LINE
  5
15E
100
AcDbEntity
  8
0
  6
Continuous
 62
               7
100
AcDbLine
 10
524.54182420743973
 20
403.55395328730339
 30
0.0
 11
527.45225170787558
 21
404.8878992250032
 31
0.0
  0
LINE
  5
15F
100
AcDbEntity
  8
0
  6
Continuous
 62
               7
100
AcDbLine
 10
517.75082670642246
 20
407.31325547536682
 30
0.0
 11
527.45225170787558
 21
404.8878992250032
 31
0.0
  0
LINE
  5
160
100
AcDbEntity
  8
0
  6
Continuous
 62
               7
100
AcDbLine
 10
509.0195442051135
 20
362.08036140609084
 30
0.0
 11
511.08109701792233
 21
360.0188085932819
 31
0.0
  0
LINE
  5
161
100
AcDbEntity
  8
0
  6
Continuous
 62
               7
100
AcDbLine
 10
513.87025670584012
 20
360.86768328090903
 30
0.0
 11
511.08109701792233
 21
360.0188085932819
 31
0.0
  0
LINE
  5
162
100
AcDbEntity
  8
0
  6
Continuous
 62
               7
100
AcDbLine
 10
517.99336233145846
 20
397.97563391146792
 30
0.0
 11
523.32914608225792
 21
398.70324078657683
 31
0.0
  0
LINE
  5
163
100
AcDbEntity
  8
0
  6
Continuous
 62
               7
100
AcDbLine
 10
517.50829108138578
 20
396.03534891117721
 30
0.0
 11
522.84407483218524
 21
396.76295578628623
 31
0.0
  0
LINE
  5
164
100
AcDbEntity
  8
0
  6
Continuous
 62
               7
100
AcDbLine
 10
517.0232198313131
 20
394.09506391088649
 30
0.0
 11
522.35900358211256
 21
394.82267078599563
 31
0.0
  0
LINE
  5
165
100
AcDbEntity
  8
0
  6
Continuous
 62
               7
100
AcDbLine
 10
516.53814858124042
 20
392.15477891059589
 30
0.0
 11
521.87393233203989
 21
392.88238578570491
 31
0.0
  0
LINE
  5
166
100
AcDbEntity
  8
0
  6
Continuous
 62
               7
100
AcDbLine
 10
516.05307733116774
 20
390.21449391030529
 30
0.0
 11
521.38886108196721
 21
390.94210078541431
 31
0.0
  0
LINE
  5
167
100
AcDbEntity
  8
0
  6
Continuous
 62
               7
100
AcDbLine
 10
515.56800608109506
 20
388.27420891001481
 30
0.0
 11
520.9037898318943
 21
389.00181578512371
 31
0.0
  0
LINE
  5
168
100
AcDbEntity
  8
0
  6
Continuous
 62
               7
100
AcDbLine
 10
515.08293483102238
 20
386.33392390972398
 30
0.0
 11
520.41871858182162
 21
387.061530784833
 31
0.0
  0
LINE
  5
169
100
AcDbEntity
  8
0
  6
Continuous
 62
               7
100
AcDbLine
 10
514.59786358094971
 20
384.39363890943338
 30
0.0
 11
519.93364733174894
 21
385.12124578454228
 31
0.0
  0
LINE
  5
16A
100
AcDbEntity
  8
0
  6
Continuous
 62
               7
100
AcDbLine
 10
514.11279233087703
 20
382.45335390914266
 30
0.0
 11
519.44857608167626
 21
383.18096078425179
 31
0.0
  0
LINE
  5
16B
100
AcDbEntity
  8
0
  6
Continuous
 62
               7
100
AcDbLine
 10
513.62772108080412
 20
380.51306890885195
 30
0.0
 11
518.96350483160359
 21
381.24067578396085
 31
0.0
  0
LINE
  5
16C
100
AcDbEntity
  8
0
  6
Continuous
 62
               7
100
AcDbLine
 10
513.14264983073144
 20
378.57278390856146
 30
0.0
 11
518.47843358153091
 21
379.30039078367037
 31
0.0
  0
LINE
  5
16D
100
AcDbEntity
  8
0
  6
Continuous
 62
               7
100
AcDbLine
 10
510.71729358036788
 20
368.87135890710812
 30
0.0
 11
513.91876383084764
 21
369.30792303217373
 31
0.0
  0
LINE
  5
16E
100
AcDbEntity
  8
0
  6
Continuous
 62
               7
100
AcDbLine
 10
513.50645326828567
 20
361.47402234349994
 30
0.0
 11
515.51949895608732
 21
369.52620509470631
 31
0.0
  0
LINE
  5
16F
100
AcDbEntity
  8
0
  6
Continuous
 62
               7
100
AcDbLine
 10
513.91876383084764
 20
369.30792303217373
 30
0.0
 11
515.19207586228845
 21
370.07191025103799
 31
0.0
  0
LINE
  5
170
100
AcDbEntity
  8
0
  6
Continuous
 62
               7
100
AcDbLine
 10
515.51949895608732
 20
369.52620509470609
 30
0.0
 11
515.19207586228845
 21
370.07191025103799
 31
0.0
  0
LINE
  5
171
100
AcDbEntity
  8
0
  6
Continuous
 62
               7
100
AcDbLine
 10
515.51949895608732
 20
369.52620509470631
 30
0.0
 11
516.05307733116729
 21
369.59896578221725
 31
0.0
  0
LINE
  5
172
100
AcDbEntity
  8
0
  6
Continuous
 62
               7
100
AcDbLine
 10
513.87025670584012
 20
360.86768328090926
 30
0.0
 11
513.50645326828567
 21
361.47402234349994
 31
0.0
  0
LINE
  5
173
100
AcDbEntity
  8
0
  6
Continuous
 62
               7
100
AcDbLine
 10
412.63733394024388
 20
374.30684371103604
 30
0.0
 11
417.00297519089787
 21
377.45980683650856
 31
0.0
  0
LINE
  5
174
100
AcDbEntity
  8
0
  6
Continuous
 62
               7
100
AcDbLine
 10
413.12240519031656
 20
372.36655871074555
 30
0.0
 11
417.48804644097044
 21
375.51952183621785
 31
0.0
  0
LINE
  5
175
100
AcDbEntity
  8
0
  6
Continuous
 62
               7
100
AcDbLine
 10
413.60747644038912
 20
370.42627371045484
 30
0.0
 11
417.97311769104311
 21
373.57923683592713
 31
0.0
  0
LINE
  5
176
100
AcDbEntity
  8
0
  6
Continuous
 62
               7
100
AcDbLine
 10
414.0925476904618
 20
368.48598871016412
 30
0.0
 11
418.45818894111568
 21
371.63895183563642
 31
0.0
  0
LINE
  5
177
100
AcDbEntity
  8
0
  6
Continuous
 62
               7
100
AcDbLine
 10
512.65757858065876
 20
376.63249890827075
 30
0.0
 11
517.99336233145823
 21
377.36010578337965
 31
0.0
  0
LINE
  5
178
100
AcDbEntity
  8
0
  6
Continuous
 62
               7
100
AcDbLine
 10
512.17250733058609
 20
374.69221390798026
 30
0.0
 11
517.50829108138555
 21
375.41982078308916
 31
0.0
  0
LINE
  5
179
100
AcDbEntity
  8
0
  6
Continuous
 62
               7
100
AcDbLine
 10
511.68743608051346
 20
372.75192890768955
 30
0.0
 11
517.02321983131287
 21
373.47953578279845
 31
0.0
  0
LINE
  5
17A
100
AcDbEntity
  8
0
  6
Continuous
 62
               7
100
AcDbLine
 10
511.20236483044079
 20
370.81164390739883
 30
0.0
 11
516.53814858124019
 21
371.53925078250774
 31
0.0
  0
LINE
  5
17B
100
AcDbEntity
  8
0
  6
Continuous
 62
               3
100
AcDbLine
 10
226.33039486269848
 20
339.95778273589559
 30
0.0
 11
467.08891950554477
 21
400.14744376693358
 31
0.0
  0
LINE
  5
17C
100
AcDbEntity
  8
0
  6
Continuous
 62
               3
100
AcDbLine
 10
688.44459414548533
 20
344.80852510694859
 30
0.0
 11
467.08891950554477
 21
400.14744376693358
 31
0.0
  0
LINE
  5
17D
100
AcDbEntity
  8
0
  6
Continuous
 62
               3
100
AcDbLine
 10
464.17849209007244
 20
378.80430842388779
 30
0.0
 11
226.3303948626986
 21
319.34225460780755
 31
0.0
  0
LINE
  5
17E
100
AcDbEntity
  8
0
  6
Continuous
 62
               3
100
AcDbLine
 10
469.99934700598095
 20
378.80430876373663
 30
0.0
 11
688.44459414548555
 21
324.19299697886055
 31
0.0
  0
LINE
  5
17F
100
AcDbEntity
  8
0
  6
Continuous
 62
               4
100
AcDbLine
 10
464.17849209007244
 20
378.80430842388802
 30
0.0
 11
467.08891950554499
 21
379.53191563884553
 31
0.0
  0
LINE
  5
180
100
AcDbEntity
  8
0
  6
Continuous
 62
               4
100
AcDbLine
 10
469.99934700598106
 20
378.80430876373686
 30
0.0
 11
467.08891950554499
 21
379.53191563884553
 31
0.0
  0
LINE
  5
181
100
AcDbEntity
  8
0
  6
Continuous
 62
               7
100
AcDbLine
 10
274.51080471485324
 20
353.89537682258884
 30
0.0
 11
281.9186851654336
 21
366.22416026419552
 31
0.0
  0
LINE
  5
182
100
AcDbEntity
  8
0
  6
Continuous
 62
               7
100
AcDbLine
 10
241.80554552452162
 20
347.96790741467868
 30
0.0
 11
238.87727671685349
 21
343.09444971926956
 31
0.0
  0
LINE
  5
183
100
AcDbEntity
  8
0
  6
Continuous
 62
               7
100
AcDbLine
 10
240.09815306314664
 20
354.79747107219958
 30
0.0
 11
232.03906527517353
 21
341.38489662021431
 31
0.0
  0
LINE
  5
184
100
AcDbEntity
  8
0
  6
Continuous
 62
               4
100
AcDbLine
 10
243.52281348346111
 20
356.6252285455343
 30
0.0
 11
246.43324859132343
 21
344.98349866216421
 31
0.0
  0
LINE
  5
185
100
AcDbEntity
  8
0
  6
Continuous
 62
               4
100
AcDbLine
 10
243.52281616505758
 20
356.6252292159341
 30
0.0
 11
242.31013473612649
 21
361.47595053662491
 31
0.0
  0
LINE
  5
186
100
AcDbEntity
  8
0
  6
Continuous
 62
               4
100
AcDbLine
 10
242.31013473612649
 20
361.47595053662491
 30
0.0
 11
240.87917052833978
 21
367.19980218163181
 31
0.0
  0
LINE
  5
187
100
AcDbEntity
  8
0
  6
Continuous
 62
               4
100
AcDbLine
 10
257.83241032894688
 20
365.35651538165945
 30
0.0
 11
269.7166637777562
 21
317.81954465766131
 31
0.0
  0
LINE
  5
188
100
AcDbEntity
  8
0
  6
Continuous
 62
               4
100
AcDbLine
 10
251.28396374614198
 20
325.58064992459714
 30
0.0
 11
246.43324725052508
 21
344.98349832696437
 31
0.0
  0
LINE
  5
189
100
AcDbEntity
  8
0
  6
Continuous
 62
               4
100
AcDbLine
 10
428.73167765915622
 20
390.55812914826282
 30
0.0
 11
452.98575373944146
 21
376.00612244757605
 31
0.0
  0
LINE
  5
18A
100
AcDbEntity
  8
0
  6
Continuous
 62
               4
100
AcDbLine
 10
433.58239242554561
 20
371.15527971177227
 30
0.0
 11
448.13503897305196
 21
395.40897188406717
 31
0.0
  0
LINE
  5
18B
100
AcDbEntity
  8
0
  6
Continuous
 62
               4
100
AcDbLine
 10
466.70582112751634
 20
379.43614099680832
 30
0.0
 11
442.45174504722621
 21
393.9881476974976
 31
0.0
  0
LINE
  5
18C
100
AcDbEntity
  8
0
  6
Continuous
 62
               4
100
AcDbLine
 10
461.85510636111923
 20
398.83899043329717
 30
0.0
 11
447.3024598136156
 21
374.58529826100681
 31
0.0
  0
LINE
  5
18D
100
AcDbEntity
  8
0
  6
Continuous
 62
               4
100
AcDbLine
 10
462.23820488076291
 20
398.93476450892177
 30
0.0
 11
467.08891950554477
 21
379.53191563884553
 31
0.0
  0
LINE
  5
18E
100
AcDbEntity
  8
0
  6
Continuous
 62
               4
100
AcDbLine
 10
463.75476355858024
 20
392.86853280814097
 30
0.0
 11
456.17181243529609
 21
397.41816624673248
 31
0.0
  0
LINE
  5
18F
100
AcDbEntity
  8
0
  6
Continuous
 62
               4
100
AcDbLine
 10
465.57236068612184
 20
385.59814790604861
 30
0.0
 11
461.02252720168582
 21
378.01531681024181
 31
0.0
  0
LINE
  5
190
100
AcDbEntity
  8
0
  6
Continuous
 62
               4
100
AcDbLine
 10
419.86232503747652
 20
367.72526116253931
 30
0.0
 11
434.41497158498197
 21
391.97895333483274
 31
0.0
  0
LINE
  5
191
100
AcDbEntity
  8
0
  6
Continuous
 62
               4
100
AcDbLine
 10
415.0116109791191
 20
387.12811017422183
 30
0.0
 11
439.26568635137147
 21
372.57610389834161
 31
0.0
  0
LINE
  5
192
100
AcDbEntity
  8
0
  6
Continuous
 62
               4
100
AcDbLine
 10
401.29154288301623
 20
383.69809204979362
 30
0.0
 11
425.54561896330148
 21
369.14608534910695
 31
0.0
  0
LINE
  5
193
100
AcDbEntity
  8
0
  6
Continuous
 62
               4
100
AcDbLine
 10
406.14225764940562
 20
364.29524261330295
 30
0.0
 11
420.69490419691198
 21
388.54893478559808
 31
0.0
  0
LINE
  5
194
100
AcDbEntity
  8
0
  6
Continuous
 62
               4
100
AcDbLine
 10
392.42219026133654
 20
360.86522406407022
 30
0.0
 11
406.97483680884199
 21
385.11891623636353
 31
0.0
  0
LINE
  5
195
100
AcDbEntity
  8
0
  6
Continuous
 62
               4
100
AcDbLine
 10
387.57147620297911
 20
380.26807307575251
 30
0.0
 11
411.82555157523149
 21
365.71606679987241
 31
0.0
  0
LINE
  5
196
100
AcDbEntity
  8
0
  6
Continuous
 62
               4
100
AcDbLine
 10
373.85140810687614
 20
376.83805495132452
 30
0.0
 11
398.10548418716149
 21
362.28604825063775
 31
0.0
  0
LINE
  5
197
100
AcDbEntity
  8
0
  6
Continuous
 62
               4
100
AcDbLine
 10
378.70212287326552
 20
357.43520551483385
 30
0.0
 11
393.25476942077188
 21
381.68889768712887
 31
0.0
  0
LINE
  5
198
100
AcDbEntity
  8
0
  6
Continuous
 62
               4
100
AcDbLine
 10
364.98205548519655
 20
354.00518696560101
 30
0.0
 11
379.534702032702
 21
378.25887913789433
 31
0.0
  0
LINE
  5
199
100
AcDbEntity
  8
0
  6
Continuous
 62
               4
100
AcDbLine
 10
360.13134142683913
 20
373.40803597728342
 30
0.0
 11
384.3854167990915
 21
358.85602970140332
 31
0.0
  0
LINE
  5
19A
100
AcDbEntity
  8
0
  6
Continuous
 62
               4
100
AcDbLine
 10
346.41127333073615
 20
369.9780178528552
 30
0.0
 11
370.66534941102151
 21
355.42601115216854
 31
0.0
  0
LINE
  5
19B
100
AcDbEntity
  8
0
  6
Continuous
 62
               4
100
AcDbLine
 10
351.26198809712554
 20
350.57516841636465
 30
0.0
 11
365.81463464463189
 21
374.82886058865967
 31
0.0
  0
LINE
  5
19C
100
AcDbEntity
  8
0
  6
Continuous
 62
               4
100
AcDbLine
 10
337.54192070905657
 20
347.14514986713181
 30
0.0
 11
352.09456725656202
 21
371.39884203942512
 31
0.0
  0
LINE
  5
19D
100
AcDbEntity
  8
0
  6
Continuous
 62
               4
100
AcDbLine
 10
332.69120665069914
 20
366.54799887881421
 30
0.0
 11
356.94528202295152
 21
351.995992602934
 31
0.0
  0
LINE
  5
19E
100
AcDbEntity
  8
0
  6
Continuous
 62
               4
100
AcDbLine
 10
318.97113855459617
 20
363.11798075438611
 30
0.0
 11
343.22521463488152
 21
348.56597405369934
 31
0.0
  0
LINE
  5
19F
100
AcDbEntity
  8
0
  6
Continuous
 62
               4
100
AcDbLine
 10
323.82185332098555
 20
343.71513131789544
 30
0.0
 11
338.37449986849191
 21
367.96882349019046
 31
0.0
  0
LINE
  5
1A0
100
AcDbEntity
  8
0
  6
Continuous
 62
               4
100
AcDbLine
 10
310.10178593291658
 20
340.2851127686626
 30
0.0
 11
324.65443248042203
 21
364.53880494095591
 31
0.0
  0
LINE
  5
1A1
100
AcDbEntity
  8
0
  6
Continuous
 62
               4
100
AcDbLine
 10
305.25107187455916
 20
359.68796178034501
 30
0.0
 11
329.50514724681153
 21
345.1359555044649
 31
0.0
  0
LINE
  5
1A2
100
AcDbEntity
  8
0
  6
Continuous
 62
               4
100
AcDbLine
 10
291.53100377845618
 20
356.2579436559169
 30
0.0
 11
315.78507985874154
 21
341.70593695523013
 31
0.0
  0
LINE
  5
1A3
100
AcDbEntity
  8
0
  6
Continuous
 62
               4
100
AcDbLine
 10
296.38171854484557
 20
336.85509421942635
 30
0.0
 11
310.93436509235192
 21
361.10878639172125
 31
0.0
  0
LINE
  5
1A4
100
AcDbEntity
  8
0
  6
Continuous
 62
               4
100
AcDbLine
 10
282.6616511567766
 20
333.42507567019339
 30
0.0
 11
297.21429770428205
 21
357.67876784248671
 31
0.0
  0
LINE
  5
1A5
100
AcDbEntity
  8
0
  6
Continuous
 62
               4
100
AcDbLine
 10
277.81093709841917
 20
352.82792468187591
 30
0.0
 11
302.06501247067155
 21
338.2759184059957
 31
0.0
  0
LINE
  5
1A6
100
AcDbEntity
  8
0
  6
Continuous
 62
               4
100
AcDbLine
 10
227.78138160449663
 20
319.70500147325509
 30
0.0
 11
242.33402815200196
 21
343.95869364554841
 31
0.0
  0
LINE
  5
1A7
100
AcDbEntity
  8
0
  6
Continuous
 62
               7
100
AcDbLine
 10
272.80341225347826
 20
360.72494048010986
 30
0.0
 11
275.08045911656558
 21
364.51458285469681
 31
0.0
  0
LINE
  5
1A8
100
AcDbEntity
  8
0
  6
Continuous
 62
               4
100
AcDbLine
 10
246.0984224251817
 20
330.79641537040123
 30
0.0
 11
241.5014489925656
 21
323.13502002248794
 31
0.0
  0
LINE
  5
1A9
100
AcDbEntity
  8
0
  6
Continuous
 62
               4
100
AcDbLine
 10
244.31224998403405
 20
337.94109866149648
 30
0.0
 11
236.65073422617621
 21
342.53786945897861
 31
0.0
  0
LINE
  5
1AA
100
AcDbEntity
  8
0
  6
Continuous
 62
               4
100
AcDbLine
 10
277.09057470508679
 20
343.57630621132824
 30
0.0
 11
283.49423031621183
 21
354.24874929325216
 31
0.0
  0
LINE
  5
1AB
100
AcDbEntity
  8
0
  6
Continuous
 62
               4
100
AcDbLine
 10
277.67233334867097
 20
341.24927374541738
 30
0.0
 11
288.34494508260155
 21
334.84589985676104
 31
0.0
  0
LINE
  5
1AC
100
AcDbEntity
  8
0
  6
Continuous
 62
               4
100
AcDbLine
 10
226.3303948626986
 20
337.06807562287628
 30
0.0
 11
247.18474291839158
 21
324.5558442090574
 31
0.0
  0
LINE
  5
1AD
100
AcDbEntity
  8
0
  6
Continuous
 62
               4
100
AcDbLine
 10
226.3303948626986
 20
336.72284471055815
 30
0.0
 11
228.61396076393197
 21
340.52867509631375
 31
0.0
  0
LINE
  5
1AE
100
AcDbEntity
  8
0
  6
Continuous
 62
               4
100
AcDbLine
 10
226.3303948626986
 20
325.4062649450039
 30
0.0
 11
233.46467553032159
 21
321.12582565982262
 31
0.0
  0
LINE
  5
1AF
100
AcDbEntity
  8
0
  6
Continuous
 62
               4
100
AcDbLine
 10
505.44616135193388
 20
390.55812914826282
 30
0.0
 11
481.19208527164852
 21
376.00612244757605
 31
0.0
  0
LINE
  5
1B0
100
AcDbEntity
  8
0
  6
Continuous
 62
               4
100
AcDbLine
 10
500.59544658554461
 20
371.15527971177227
 30
0.0
 11
486.04280003803825
 21
395.40897188406717
 31
0.0
  0
LINE
  5
1B1
100
AcDbEntity
  8
0
  6
Continuous
 62
               4
100
AcDbLine
 10
467.47201788357376
 20
379.43614099680832
 30
0.0
 11
491.72609396386389
 21
393.9881476974976
 31
0.0
  0
LINE
  5
1B2
100
AcDbEntity
  8
0
  6
Continuous
 62
               4
100
AcDbLine
 10
472.32273264997099
 20
398.83899043329717
 30
0.0
 11
486.87537919747462
 21
374.58529826100681
 31
0.0
  0
LINE
  5
1B3
100
AcDbEntity
  8
0
  6
Continuous
 62
               4
100
AcDbLine
 10
471.93963413032731
 20
398.93476450892177
 30
0.0
 11
467.08891950554533
 21
379.53191563884553
 31
0.0
  0
LINE
  5
1B4
100
AcDbEntity
  8
0
  6
Continuous
 62
               4
100
AcDbLine
 10
470.42307545250998
 20
392.86853280814097
 30
0.0
 11
478.0060265757939
 21
397.41816624673248
 31
0.0
  0
LINE
  5
1B5
100
AcDbEntity
  8
0
  6
Continuous
 62
               4
100
AcDbLine
 10
468.60547832496826
 20
385.59814790604861
 30
0.0
 11
473.1553118094044
 21
378.01531681024181
 31
0.0
  0
LINE
  5
1B6
100
AcDbEntity
  8
0
  6
Continuous
 62
               4
100
AcDbLine
 10
514.31551397361341
 20
367.72526116253931
 30
0.0
 11
499.76286742610813
 21
391.97895333483274
 31
0.0
  0
LINE
  5
1B7
100
AcDbEntity
  8
0
  6
Continuous
 62
               4
100
AcDbLine
 10
519.16622803197106
 20
387.12811017422183
 30
0.0
 11
494.91215265971852
 21
372.57610389834161
 31
0.0
  0
LINE
  5
1B8
100
AcDbEntity
  8
0
  6
Continuous
 62
               4
100
AcDbLine
 10
532.88629612807381
 20
383.69809204979362
 30
0.0
 11
508.63222004778851
 21
369.14608534910695
 31
0.0
  0
LINE
  5
1B9
100
AcDbEntity
  8
0
  6
Continuous
 62
               4
100
AcDbLine
 10
528.03558136168454
 20
364.29524261330295
 30
0.0
 11
513.48293481417818
 21
388.54893478559808
 31
0.0
  0
LINE
  5
1BA
100
AcDbEntity
  8
0
  6
Continuous
 62
               4
100
AcDbLine
 10
541.75564874975339
 20
360.86522406407022
 30
0.0
 11
527.20300220224794
 21
385.11891623636353
 31
0.0
  0
LINE
  5
1BB
100
AcDbEntity
  8
0
  6
Continuous
 62
               4
100
AcDbLine
 10
546.60636280811082
 20
380.26807307575251
 30
0.0
 11
522.35228743585844
 21
365.71606679987241
 31
0.0
  0
LINE
  5
1BC
100
AcDbEntity
  8
0
  6
Continuous
 62
               4
100
AcDbLine
 10
560.32643090421379
 20
376.83805495132441
 30
0.0
 11
536.07235482392844
 21
362.28604825063763
 31
0.0
  0
LINE
  5
1BD
100
AcDbEntity
  8
0
  6
Continuous
 62
               4
100
AcDbLine
 10
555.47571613782452
 20
357.43520551483385
 30
0.0
 11
540.92306959031816
 21
381.68889768712876
 31
0.0
  0
LINE
  5
1BE
100
AcDbEntity
  8
0
  6
Continuous
 62
               4
100
AcDbLine
 10
569.19578352589338
 20
354.0051869656009
 30
0.0
 11
554.64313697838793
 21
378.25887913789421
 31
0.0
  0
LINE
  5
1BF
100
AcDbEntity
  8
0
  6
Continuous
 62
               4
100
AcDbLine
 10
574.0464975842508
 20
373.40803597728342
 30
0.0
 11
549.79242221199843
 21
358.8560297014032
 31
0.0
  0
LINE
  5
1C0
100
AcDbEntity
  8
0
  6
Continuous
 62
               4
100
AcDbLine
 10
587.76656568035378
 20
369.9780178528552
 30
0.0
 11
563.51248960006842
 21
355.42601115216854
 31
0.0
  0
LINE
  5
1C1
100
AcDbEntity
  8
0
  6
Continuous
 62
               4
100
AcDbLine
 10
582.9158509139645
 20
350.57516841636453
 30
0.0
 11
568.36320436645815
 21
374.82886058865967
 31
0.0
  0
LINE
  5
1C2
100
AcDbEntity
  8
0
  6
Continuous
 62
               4
100
AcDbLine
 10
596.63591830203336
 20
347.14514986713181
 30
0.0
 11
582.08327175452791
 21
371.39884203942512
 31
0.0
  0
LINE
  5
1C3
100
AcDbEntity
  8
0
  6
Continuous
 62
               4
100
AcDbLine
 10
601.48663236039079
 20
366.5479988788141
 30
0.0
 11
577.23255698813841
 21
351.995992602934
 31
0.0
  0
LINE
  5
1C4
100
AcDbEntity
  8
0
  6
Continuous
 62
               4
100
AcDbLine
 10
615.20670045649354
 20
363.11798075438611
 30
0.0
 11
590.95262437620818
 21
348.56597405369934
 31
0.0
  0
LINE
  5
1C5
100
AcDbEntity
  8
0
  6
Continuous
 62
               4
100
AcDbLine
 10
610.35598569010449
 20
343.71513131789544
 30
0.0
 11
595.80333914259813
 21
367.96882349019046
 31
0.0
  0
LINE
  5
1C6
100
AcDbEntity
  8
0
  6
Continuous
 62
               4
100
AcDbLine
 10
624.07605307817335
 20
340.2851127686626
 30
0.0
 11
609.5234065306679
 21
364.53880494095591
 31
0.0
  0
LINE
  5
1C7
100
AcDbEntity
  8
0
  6
Continuous
 62
               4
100
AcDbLine
 10
628.92676713653077
 20
359.68796178034501
 30
0.0
 11
604.6726917642784
 21
345.1359555044649
 31
0.0
  0
LINE
  5
1C8
100
AcDbEntity
  8
0
  6
Continuous
 62
               4
100
AcDbLine
 10
642.64683523263352
 20
356.25794365591679
 30
0.0
 11
618.39275915234816
 21
341.70593695523013
 31
0.0
  0
LINE
  5
1C9
100
AcDbEntity
  8
0
  6
Continuous
 62
               4
100
AcDbLine
 10
637.79612046624447
 20
336.85509421942623
 30
0.0
 11
623.24347391873812
 21
361.10878639172125
 31
0.0
  0
LINE
  5
1CA
100
AcDbEntity
  8
0
  6
Continuous
 62
               4
100
AcDbLine
 10
651.51618785431333
 20
333.42507567019339
 30
0.0
 11
636.96354130680788
 21
357.67876784248671
 31
0.0
  0
LINE
  5
1CB
100
AcDbEntity
  8
0
  6
Continuous
 62
               4
100
AcDbLine
 10
656.36690191267076
 20
352.8279246818758
 30
0.0
 11
632.11282654041838
 21
338.27591840599558
 31
0.0
  0
LINE
  5
1CC
100
AcDbEntity
  8
0
  6
Continuous
 62
               4
100
AcDbLine
 10
670.08697000877351
 20
349.3979065574477
 30
0.0
 11
645.83289392848815
 21
334.84589985676092
 31
0.0
  0
LINE
  5
1CD
100
AcDbEntity
  8
0
  6
Continuous
 62
               4
100
AcDbLine
 10
665.23625524238446
 20
329.99505712095703
 30
0.0
 11
650.6836086948781
 21
354.24874929325205
 31
0.0
  0
LINE
  5
1CE
100
AcDbEntity
  8
0
  6
Continuous
 62
               4
100
AcDbLine
 10
678.95632263045331
 20
326.56503857172419
 30
0.0
 11
664.40367608294787
 21
350.8187307440175
 31
0.0
  0
LINE
  5
1CF
100
AcDbEntity
  8
0
  6
Continuous
 62
               4
100
AcDbLine
 10
683.80703668881074
 20
345.96788758340659
 30
0.0
 11
659.55296131655837
 21
331.41588130752649
 31
0.0
  0
LINE
  5
1D0
100
AcDbEntity
  8
0
  6
Continuous
 62
               4
100
AcDbLine
 10
688.44459414548533
 20
337.08852744955658
 30
0.0
 11
673.27302870462813
 21
327.98586275829172
 31
0.0
  0
LINE
  5
1D1
100
AcDbEntity
  8
0
  6
Continuous
 62
               4
100
AcDbLine
 10
688.44459414548555
 20
330.18780414018221
 30
0.0
 11
678.12374347101809
 21
347.38871219478284
 31
0.0
  0
LINE
  5
1D2
100
AcDbEntity
  8
0
  6
Continuous
 62
               4
100
AcDbLine
 10
688.44459414548555
 20
325.42671677168454
 30
0.0
 11
686.99309609269835
 21
324.55584420905728
 31
0.0
  0
LINE
  5
1D3
100
AcDbEntity
  8
0
  6
DASHDOT
 62
               4
100
AcDbLine
 10
467.08891950554499
 20
464.81018858433612
 30
0.0
 11
467.08891950554499
 21
240.7894113368115
 31
0.0
  0
LINE
  5
1D4
100
AcDbEntity
  8
0
  6
Continuous
 62
               4
100
AcDbLine
 10
306.99487479593478
 20
487.42000395670954
 30
0.0
 11
148.02609268742987
 21
487.42000395670954
 31
0.0
  0
LINE
  5
1D5
100
AcDbEntity
  8
0
  6
Continuous
 62
               4
100
AcDbLine
 10
298.33462075809013
 20
502.42000395670976
 30
0.0
 11
148.02609268742987
 21
502.42000395670976
 31
0.0
  0
LINE
  5
1D6
100
AcDbEntity
  8
0
  6
Continuous
 62
               4
100
AcDbLine
 10
315.6551288337792
 20
472.42000395670954
 30
0.0
 11
148.02609268742987
 21
472.42000395670954
 31
0.0
  0
LINE
  5
1D7
100
AcDbEntity
  8
0
  6
Continuous
 62
               4
100
AcDbLine
 10
324.31538287162363
 20
457.42000395670976
 30
0.0
 11
148.02609268742987
 21
457.42000395670976
 31
0.0
  0
LINE
  5
1D8
100
AcDbEntity
  8
0
  6
Continuous
 62
               4
100
AcDbLine
 10
332.97563690946782
 20
442.42000395670976
 30
0.0
 11
148.02609268742987
 21
442.42000395670976
 31
0.0
  0
LINE
  5
1D9
100
AcDbEntity
  8
0
  6
Continuous
 62
               4
100
AcDbLine
 10
298.33462075809058
 20
502.42000395670976
 30
0.0
 11
384.7407415240952
 21
352.76021270505663
 31
0.0
  0
LINE
  5
1DA
100
AcDbEntity
  8
0
  6
Continuous
 62
               4
100
AcDbLine
 10
478.40141281949377
 20
362.10384827405176
 30
0.0
 11
520.0967161730922
 21
289.8854644286223
 31
0.0
  0
LINE
  5
1DB
100
AcDbEntity
  8
0
  6
Continuous
 62
               4
100
AcDbLine
 10
478.40141281949377
 20
362.10384827405176
 30
0.0
 11
484.18650130667265
 21
355.20944828598101
 31
0.0
  0
LINE
  5
1DC
100
AcDbEntity
  8
0
  6
Continuous
 62
               4
100
AcDbLine
 10
478.40141281949406
 20
362.10384827405193
 30
0.0
 11
481.47959410942502
 21
353.64661468697869
 31
0.0
  0
CIRCLE
  5
1DD
100
AcDbEntity
  8
0
  6
Continuous
 62
               4
100
AcDbCircle
 10
251.28396239042337
 20
325.58064964907868
 30
0.0
 40
1.5
  0
CIRCLE
  5
1DE
100
AcDbEntity
  8
0
  6
Continuous
 62
               4
100
AcDbCircle
 10
254.19438460273005
 20
313.93897134788455
 30
0.0
 40
1.5
  0
CIRCLE
  5
1DF
100
AcDbEntity
  8
0
  6
Continuous
 62
               4
100
AcDbCircle
 10
269.7166637777562
 20
317.81954465766131
 30
0.0
 40
1.5
  0
CIRCLE
  5
1E0
100
AcDbEntity
  8
0
  6
Continuous
 62
               4
100
AcDbCircle
 10
461.9956623757451
 20
442.16675836150335
 30
0.0
 40
1.5
  0
CIRCLE
  5
1E1
100
AcDbEntity
  8
0
  6
Continuous
 62
               4
100
AcDbCircle
 10
364.98141066676072
 20
417.91315728728438
 30
0.0
 40
1.5
  0
CIRCLE
  5
1E2
100
AcDbEntity
  8
0
  6
Continuous
 62
               4
100
AcDbCircle
 10
472.18217574649935
 20
442.16675757847798
 30
0.0
 40
1.5
  0
CIRCLE
  5
1E3
100
AcDbEntity
  8
0
  6
Continuous
 62
               4
100
AcDbCircle
 10
569.19642745548367
 20
417.91321753941526
 30
0.0
 40
1.5
  0
CIRCLE
  5
1E4
100
AcDbEntity
  8
0
  6
Continuous
 62
               4
100
AcDbCircle
 10
368.09897190946998
 20
381.58460320544356
 30
0.0
 40
1.5
  0
CIRCLE
  5
1E5
100
AcDbEntity
  8
0
  6
Continuous
 62
               4
100
AcDbCircle
 10
363.93852187426234
 20
388.79071404877487
 30
0.0
 40
1.5
  0
CIRCLE
  5
1E6
100
AcDbEntity
  8
0
  6
Continuous
 62
               4
100
AcDbCircle
 10
362.37835540052487
 20
391.49300164955395
 30
0.0
 40
1.5
  0
CIRCLE
  5
1E7
100
AcDbEntity
  8
0
  6
Continuous
 62
               4
100
AcDbCircle
 10
384.7407415240952
 20
352.76021270505663
 30
0.0
 40
1.5
  0
CIRCLE
  5
1E8
100
AcDbEntity
  8
0
  6
Continuous
 62
               4
100
AcDbCircle
 10
243.52281348346111
 20
356.6252285455343
 30
0.0
 40
1.5
  0
CIRCLE
  5
1E9
100
AcDbEntity
  8
0
  6
Continuous
 62
               4
100
AcDbCircle
 10
246.43324859132343
 20
344.98349866216421
 30
0.0
 40
1.5
  0
CIRCLE
  5
1EA
100
AcDbEntity
  8
0
  6
Continuous
 62
               4
100
AcDbCircle
 10
257.83241449071505
 20
365.356510131378
 30
0.0
 40
1.5
  0
CIRCLE
  5
1EB
100
AcDbEntity
  8
0
  6
Continuous
 62
               4
100
AcDbCircle
 10
243.52281616505758
 20
356.6252292159341
 30
0.0
 40
1.5
  0
CIRCLE
  5
1EC
100
AcDbEntity
  8
0
  6
Continuous
 62
               4
100
AcDbCircle
 10
242.31013473612649
 20
361.47595053662491
 30
0.0
 40
1.5
  0
ARC
  5
1ED
100
AcDbEntity
  8
0
  6
Continuous
 62
               2
100
AcDbCircle
 10
371.33956478929787
 20
396.78124861882162
 30
0.0
 40
1.0430593840360769
100
AcDbArc
 50
104.0362434679265
 51
278.94172673916279
  0
ARC
  5
1EE
100
AcDbEntity
  8
0
  6
Continuous
 62
               2
100
AcDbCircle
 10
562.83827422179206
 20
396.78124861882162
 30
0.0
 40
1.0430593840360769
100
AcDbArc
 50
261.05827326083704
 51
75.963756532073518
  0
ARC
  5
1EF
100
AcDbEntity
  8
0
  6
Continuous
 62
               7
100
AcDbCircle
 10
388.5122344706528
 20
359.65203823950839
 30
0.0
 40
30.0
100
AcDbArc
 50
358.89902864063322
 51
17.028545480801075
  0
ARC
  5
1F0
100
AcDbEntity
  8
0
  6
Continuous
 62
               7
100
AcDbCircle
 10
484.47434706206542
 20
375.05477618378933
 30
0.0
 40
30.0
100
AcDbArc
 50
330.82654170478088
 51
348.9560585449488
  0
TEXT
  5
1F1
100
AcDbEntity
  8
0
 62
               7
100
AcDbText
 10
740.2867978757057
 20
26.713203554805766
 30
0.0
 40
8.9999997615814422
  1
下り棟詳細図 【S=1/3】
 41
0.7695
  7
FontTableH_0
 72
               5
 11
839.28679525310156
 21
26.713203554805766
 31
0.0
100
AcDbText
  0
TEXT
  5
1F2
100
AcDbEntity
  8
0
 62
               7
100
AcDbText
 10
253.0304118272316
 20
324.78078547207548
 30
0.0
 40
9.6000000000001062
  1
12
 50
284.03625799367518
 41
0.7695
  7
FontTableH_0
 72
               5
 11
255.35875618872532
 21
315.46741806096685
 31
0.0
100
AcDbText
  0
TEXT
  5
1F3
100
AcDbEntity
  8
0
 62
               7
100
AcDbText
 10
406.13993941512223
 20
429.74958508453875
 30
0.0
 40
9.6000000000000352
  1
100
 50
14.036262433071506
 41
0.7695
  7
FontTableH_0
 72
               5
 11
420.1099902611777
 21
433.24210270920798
 31
0.0
100
AcDbText
  0
TEXT
  5
1F4
100
AcDbEntity
  8
0
 62
               7
100
AcDbText
 10
514.06840621199717
 20
433.24207776032
 30
0.0
 40
9.5999999999999446
  1
100
 50
345.96378002823985
 41
0.7695
  7
FontTableH_0
 72
               5
 11
528.03845964631773
 21
429.74957048871232
 31
0.0
100
AcDbText
  0
TEXT
  5
1F5
100
AcDbEntity
  8
0
 62
               7
100
AcDbText
 10
561.86188095814282
 20
440.55158703766375
 30
0.0
 40
9.599999999999806
  1
力板（ブチルテープをはさむ）
 41
0.7695
  7
FontTableH_0
 72
               5
 11
696.2618809581428
 21
440.55158703766375
 31
0.0
100
AcDbText
  0
TEXT
  5
1F6
100
AcDbEntity
  8
0
 62
               7
100
AcDbText
 10
561.86188095814282
 20
460.55106823883563
 30
0.0
 40
9.5999999999999766
  1
棟板：屋根同材
 41
0.7695
  7
FontTableH_0
 72
               5
 11
629.06188095814286
 21
460.55106823883563
 31
0.0
100
AcDbText
  0
TEXT
  5
1F7
100
AcDbEntity
  8
0
 62
               7
100
AcDbText
 10
245.26929763750655
 20
355.82523604766101
 30
0.0
 40
9.5999999999999801
  1
12
 50
284.03625799367518
 41
0.7695
  7
FontTableH_0
 72
               5
 11
247.59764199900027
 21
346.51186863655238
 31
0.0
100
AcDbText
  0
TEXT
  5
1F8
100
AcDbEntity
  8
0
 62
               7
100
AcDbText
 10
242.33448318438167
 20
367.56424971953601
 30
0.0
 40
9.5999999999999801
  1
5
 50
284.03625799367472
 41
0.7695
  7
FontTableH_0
 72
               5
 11
243.49865536512849
 21
362.90756601398169
 31
0.0
100
AcDbText
  0
TEXT
  5
1F9
100
AcDbEntity
  8
0
 62
               7
100
AcDbText
 10
264.13959461897599
 20
346.31303831180236
 30
0.0
 40
9.5999999999999801
  1
49
 50
284.03625799367472
 41
0.7695
  7
FontTableH_0
 72
               5
 11
266.46793898046963
 21
336.99967090069373
 31
0.0
100
AcDbText
  0
TEXT
  5
1FA
100
AcDbEntity
  8
0
 62
               7
100
AcDbText
 10
249.2236630639581
 20
340.00708241792285
 30
0.0
 40
9.6000000000001062
  1
20
 50
284.03625799367518
 41
0.7695
  7
FontTableH_0
 72
               5
 11
251.55200742545182
 21
330.69371500681422
 31
0.0
100
AcDbText
  0
TEXT
  5
1FB
100
AcDbEntity
  8
0
 62
               7
100
AcDbText
 10
151.0257444437496
 20
488.91952070194844
 30
0.0
 40
9.6000000000001471
  1
アスファルトルーフィング 22Kg
 41
0.7695
  7
FontTableH_0
 72
               5
 11
290.22574444374965
 21
488.91952070194844
 31
0.0
100
AcDbText
  0
TEXT
  5
1FC
100
AcDbEntity
  8
0
 62
               7
100
AcDbText
 10
151.0257444437496
 20
503.91952070194867
 30
0.0
 40
9.6000000000001471
  1
プロムナ－ル－フV：各種金属板
 41
0.7695
  7
FontTableH_0
 72
               5
 11
290.22574444374965
 21
503.91952070194867
 31
0.0
100
AcDbText
  0
TEXT
  5
1FD
100
AcDbEntity
  8
0
 62
               7
100
AcDbText
 10
151.0257444437496
 20
473.91952070194867
 30
0.0
 40
9.6000000000003158
  1
硬質木片セメント板 12mm
 41
0.7695
  7
FontTableH_0
 72
               5
 11
261.42574444374958
 21
473.91952070194867
 31
0.0
100
AcDbText
  0
TEXT
  5
1FE
100
AcDbEntity
  8
0
 62
               7
100
AcDbText
 10
151.0257444437496
 20
443.91952070194867
 30
0.0
 40
9.599999999999806
  1
硬質木片セメント板 12mm
 41
0.7695
  7
FontTableH_0
 72
               5
 11
261.42574444374958
 21
443.91952070194867
 31
0.0
100
AcDbText
  0
TEXT
  5
1FF
100
AcDbEntity
  8
0
 62
               7
100
AcDbText
 10
151.0257444437496
 20
458.91952070194867
 30
0.0
 40
9.6000000000003158
  1
断熱材 20mm
 41
0.7695
  7
FontTableH_0
 72
               5
 11
203.82574444374956
 21
458.91952070194867
 31
0.0
100
AcDbText
  0
TEXT
  5
200
100
AcDbEntity
  8
0
 62
               7
100
AcDbText
 10
50.89213663700982
 20
601.35786449547834
 30
0.0
 40
8.9999997615814422
  1
プロムナールーフV
 41
0.7695
  7
FontTableH_0
 72
               5
 11
127.39213461045208
 21
601.35786449547834
 31
0.0
100
AcDbText
  0
TEXT
  5
201
100
AcDbEntity
  8
0
 62
               7
100
AcDbText
 10
520.09671617309255
 20
291.38662043301298
 30
0.0
 40
9.5999999999999766
  1
補強プレート（別途）
 41
0.7695
  7
FontTableH_0
 72
               5
 11
616.09671617309266
 21
291.38662043301298
 31
0.0
100
AcDbText
  0
ENDSEC
  0
SECTION
  2
OBJECTS
  0
DICTIONARY
  5
19
100
AcDbDictionary
  3
ACAD_GROUP
350
1A
  3
ACAD_MLINESTYLE
350
1B
  3
DWGPROPS
350
202
  0
DICTIONARY
  5
1A
102
{ACAD_REACTORS
330
19
102
}
100
AcDbDictionary
  0
DICTIONARY
  5
1B
102
{ACAD_REACTORS
330
19
102
}
100
AcDbDictionary
  3
STANDARD
350
1C
  0
MLINESTYLE
  5
1C
102
{ACAD_REACTORS
330
1B
102
}
100
AcDbMlineStyle
  2
Standard
 70
               0
  3

 62
               0
 51
90.0
 52
90.0
 71
               2
 49
0.5
 62
             256
  6
ByLayer
 49
-0.5
 62
             256
  6
ByLayer
  0
XRECORD
  5
202
100
AcDbXrecord
  1
DWGPROPS COOKIE
  2

  3

  4

  6

  7

  0
ENDSEC
  0
EOF
