  0
SECTION
  2
HEADER
  9
$ACADVER
  1
AC1014
  9
$ACADMAINTVER
 70
               0
  9
$DWGCODEPAGE
  3
ANSI_932
  9
$INSBASE
 10
0.0
 20
0.0
 30
0.0
  9
$EXTMIN
 10
0.0
 20
0.0
 30
0.0
  9
$EXTMAX
 10
891.00000000000091
 20
630.00000000000068
 30
0.0
  9
$LIMMIN
 10
0.0
 20
0.0
  9
$LIMMAX
 10
891.00000000000091
 20
630.00000000000068
  9
$ORTHOMODE
 70
               0
  9
$REGENMODE
 70
               1
  9
$FILLMODE
 70
               1
  9
$QTEXTMODE
 70
               0
  9
$MIRRTEXT
 70
               1
  9
$DRAGMODE
 70
               2
  9
$LTSCALE
 40
3.0000000000000031
  9
$OSMODE
 70
               0
  9
$ATTMODE
 70
               1
  9
$TEXTSIZE
 40
0.2
  9
$TRACEWID
 40
0.05
  9
$TEXTSTYLE
  7
Standard
  9
$CLAYER
  8
0
  9
$CELTYPE
  6
Continuous
  9
$CECOLOR
 62
             256
  9
$CELTSCALE
 40
1.0
  9
$DELOBJ
 70
               1
  9
$DISPSILH
 70
               0
  9
$DIMSCALE
 40
1.0
  9
$DIMASZ
 40
0.18
  9
$DIMEXO
 40
0.0625
  9
$DIMDLI
 40
0.38
  9
$DIMRND
 40
0.0
  9
$DIMDLE
 40
0.0
  9
$DIMEXE
 40
0.18
  9
$DIMTP
 40
0.0
  9
$DIMTM
 40
0.0
  9
$DIMTXT
 40
0.18
  9
$DIMCEN
 40
0.09
  9
$DIMTSZ
 40
0.0
  9
$DIMTOL
 70
               0
  9
$DIMLIM
 70
               0
  9
$DIMTIH
 70
               1
  9
$DIMTOH
 70
               1
  9
$DIMSE1
 70
               0
  9
$DIMSE2
 70
               0
  9
$DIMTAD
 70
               0
  9
$DIMZIN
 70
               0
  9
$DIMBLK
  1

  9
$DIMASO
 70
               1
  9
$DIMSHO
 70
               1
  9
$DIMPOST
  1

  9
$DIMAPOST
  1

  9
$DIMALT
 70
               0
  9
$DIMALTD
 70
               2
  9
$DIMALTF
 40
25.399999999999999
  9
$DIMLFAC
 40
1.0
  9
$DIMTOFL
 70
               0
  9
$DIMTVP
 40
0.0
  9
$DIMTIX
 70
               0
  9
$DIMSOXD
 70
               0
  9
$DIMSAH
 70
               0
  9
$DIMBLK1
  1

  9
$DIMBLK2
  1

  9
$DIMSTYLE
  2
Standard
  9
$DIMCLRD
 70
               0
  9
$DIMCLRE
 70
               0
  9
$DIMCLRT
 70
               0
  9
$DIMTFAC
 40
1.0
  9
$DIMGAP
 40
0.09
  9
$DIMJUST
 70
               0
  9
$DIMSD1
 70
               0
  9
$DIMSD2
 70
               0
  9
$DIMTOLJ
 70
               1
  9
$DIMTZIN
 70
               0
  9
$DIMALTZ
 70
               0
  9
$DIMALTTZ
 70
               0
  9
$DIMFIT
 70
               3
  9
$DIMUPT
 70
               0
  9
$DIMUNIT
 70
               2
  9
$DIMDEC
 70
               4
  9
$DIMTDEC
 70
               4
  9
$DIMALTU
 70
               2
  9
$DIMALTTD
 70
               2
  9
$DIMTXSTY
  7
Standard
  9
$DIMAUNIT
 70
               0
  9
$LUNITS
 70
               2
  9
$LUPREC
 70
               4
  9
$SKETCHINC
 40
0.1
  9
$FILLETRAD
 40
0.0
  9
$AUNITS
 70
               0
  9
$AUPREC
 70
               0
  9
$MENU
  1
acad
  9
$ELEVATION
 40
0.0
  9
$PELEVATION
 40
0.0
  9
$THICKNESS
 40
0.0
  9
$LIMCHECK
 70
               0
  9
$BLIPMODE
 70
               1
  9
$CHAMFERA
 40
0.0
  9
$CHAMFERB
 40
0.0
  9
$CHAMFERC
 40
0.0
  9
$CHAMFERD
 40
0.0
  9
$SKPOLY
 70
               0
  9
$TDCREATE
 40
0.000000000
  9
$TDUPDATE
 40
0.000000000
  9
$TDINDWG
 40
0.0000000000
  9
$TDUSRTIMER
 40
0.0000000000
  9
$USRTIMER
 70
               1
  9
$ANGBASE
 50
0.0
  9
$ANGDIR
 70
               0
  9
$PDMODE
 70
               0
  9
$PDSIZE
 40
0.0
  9
$PLINEWID
 40
0.0
  9
$COORDS
 70
               0
  9
$SPLFRAME
 70
               0
  9
$SPLINETYPE
 70
               6
  9
$SPLINESEGS
 70
               8
  9
$ATTDIA
 70
               0
  9
$ATTREQ
 70
               1
  9
$HANDLING
 70
               1
  9
$HANDSEED
  5
1C2
  9
$SURFTAB1
 70
               6
  9
$SURFTAB2
 70
               6
  9
$SURFTYPE
 70
               6
  9
$SURFU
 70
               6
  9
$SURFV
 70
               6
  9
$UCSNAME
  2

  9
$UCSORG
 10
0.0
 20
0.0
 30
0.0
  9
$UCSXDIR
 10
1.0
 20
0.0
 30
0.0
  9
$UCSYDIR
 10
0.0
 20
1.0
 30
0.0
  9
$PUCSNAME
  2

  9
$PUCSORG
 10
0.0
 20
0.0
 30
0.0
  9
$PUCSXDIR
 10
1.0
 20
0.0
 30
0.0
  9
$PUCSYDIR
 10
0.0
 20
1.0
 30
0.0
  9
$USERI1
 70
               0
  9
$USERI2
 70
               0
  9
$USERI3
 70
               0
  9
$USERI4
 70
               0
  9
$USERI5
 70
               0
  9
$USERR1
 40
0.0
  9
$USERR2
 40
0.0
  9
$USERR3
 40
0.0
  9
$USERR4
 40
0.0
  9
$USERR5
 40
0.0
  9
$WORLDVIEW
 70
               1
  9
$SHADEDGE
 70
               3
  9
$SHADEDIF
 70
              70
  9
$TILEMODE
 70
               1
  9
$MAXACTVP
 70
              16
  9
$PINSBASE
 10
0.0
 20
0.0
 30
0.0
  9
$PLIMCHECK
 70
               0
  9
$PEXTMIN
 10
1.0000000000000000E+20
 20
1.0000000000000000E+20
 30
1.0000000000000000E+20
  9
$PEXTMAX
 10
-1.0000000000000000E+20
 20
-1.0000000000000000E+20
 30
-1.0000000000000000E+20
  9
$PLIMMIN
 10
0.0
 20
0.0
  9
$PLIMMAX
 10
12.0
 20
9.0
  9
$UNITMODE
 70
               0
  9
$VISRETAIN
 70
               0
  9
$PLINEGEN
 70
               1
  9
$PSLTSCALE
 70
               0
  9
$TREEDEPTH
 70
            3020
  9
$PICKSTYLE
 70
               1
  9
$CMLSTYLE
  2
Standard
  9
$CMLJUST
 70
               0
  9
$CMLSCALE
 40
1.0
  9
$PROXYGRAPHICS
 70
               0
  9
$MEASUREMENT
 70
               0
  0
ENDSEC
  0
SECTION
  2
CLASSES
  0
CLASS
  1
LWPOLYLINE
  2
AcDbPolyline
  3
"AutoCAD"
 90
        0
280
               0
281
               1
  0
CLASS
  1
IMAGE
  2
AcDbRasterImage
  3
ISM
 90
      127
280
               0
281
               1
  0
CLASS
  1
OLE2FRAME
  2
AcDbOle2Frame
  3
""
 90
        0
280
               0
281
               1
  0
CLASS
  1
HATCH
  2
AcDbHatch
  3
"ACAD_SEDONA"
 90
        0
280
               0
281
               1
  0
CLASS
  1
DICTIONARYVAR
  2
AcDbDictionaryVar
  3
"AutoCAD"
 90
        0
280
               0
281
               0
  0
CLASS
  1
RASTERVARIABLES
  2
AcDbRasterVariables
  3
ISM
 90
        0
280
               0
281
               0
  0
CLASS
  1
IMAGEDEF
  2
AcDbRasterImageDef
  3
ISM
 90
        0
280
               0
281
               0
  0
CLASS
  1
IMAGEDEF_REACTOR
  2
AcDbRasterImageDefReactor
  3
ISM
 90
        1
280
               0
281
               0
  0
CLASS
  1
IDBUFFER
  2
AcDbIdBuffer
  3
"Acad"
 90
        0
280
               0
281
               0
  0
CLASS
  1
SPATIAL_FILTER
  2
AcDbSpatialFilter
  3
"Acad"
 90
        0
280
               0
281
               0
  0
CLASS
  1
XRECORD
  2
AcDbXrecord
  3
"<Built In>"
 90
        0
280
               0
281
               0
  0
CLASS
  1
SORTENTSTABLE
  2
AcDbSortentsTable
  3
"AutoCAD"
 90
        0
280
               0
281
               0
  0
CLASS
  1
LAYER_INDEX
  2
AcDbLayerIndex
  3
"Acad"
 90
        0
280
               0
281
               0
  0
CLASS
  1
SPATIAL_INDEX
  2
AcDbSpatialIndex
  3
"Acad"
 90
        0
280
               0
281
               0
  0
CLASS
  1
OBJECT_PTR
  2
CAseDLPNTableRecord
  3
"ASE-LPNTableRecord"
 90
        1
280
               0
281
               0
  0
CLASS
  1
LAYOUT
  2
AcDbLayout
  3
"AutoCAD 2000"
 90
        0
280
               0
281
               0
  0
CLASS
  1
PLOTSETTINGS
  2
AcDbPlotSettings
  3
"AutoCAD 2000"
 90
        0
280
               0
281
               0
  0
CLASS
  1
ACDBDICTIONARYWDFLT
  2
AcDbDictionaryWithDefault
  3
"AutoCAD 2000"
 90
        0
280
               0
281
               0
  0
CLASS
  1
ACDBPLACEHOLDER
  2
AcDbPlaceHolder
  3
"AutoCAD 2000"
 90
        0
280
               0
281
               0
  0
CLASS
  1
VBA_PROJECT
  2
AcDbVbaProject
  3
"acadvba"
 90
        0
280
               0
281
               0
  0
CLASS
  1
WIPEOUT
  2
AcDbWipeout
  3
WipeOut|AutoCAD Express Tool|expresstools@autodesk.com
 90
      127
280
               0
281
               1
  0
CLASS
  1
WIPEOUTVARIABLES
  2
AcDbWipeoutVariables
  3
WipeOut|AutoCAD Express Tool|expresstools@autodesk.com
 90
        0
280
               0
281
               0
  0
CLASS
  1
RTEXT
  2
RText
  3
RText|AutoCAD Express Tool|expresstools@autodesk.com
 90
        0
280
               0
281
               1
  0
CLASS
  1
ARCALIGNEDTEXT
  2
AcDbArcAlignedText
  3
ATEXT|AutoCAD Express Tool|expresstools@autodesk.com
 90
        0
280
               0
281
               1
  0
ENDSEC
  0
SECTION
  2
TABLES
  0
TABLE
  2
VPORT
  5
7
100
AcDbSymbolTable
 70
               1
  0
VPORT
  5
15
100
AcDbSymbolTableRecord
100
AcDbViewportTableRecord
  2
*ACTIVE
 70
               0
 10
0.0
 20
0.0
 11
1.0
 21
1.0
 12
445.50000000000045
 22
315.00000000000034
 13
0.0
 23
0.0
 14
10.0
 24
10.0
 15
10.0
 25
10.0
 16
0.0
 26
0.0
 36
1.0
 17
0.0
 27
0.0
 37
0.0
 40
630.00000000000068
 41
1.4142857142857141
 42
50.0
 43
0.0
 44
0.0
 50
0.0
 51
0.0
 71
               0
 72
             100
 73
               1
 74
               1
 75
               0
 76
               0
 77
               0
 78
               0
  0
ENDTAB
  0
TABLE
  2
LTYPE
  5
4
100
AcDbSymbolTable
 70
              24
  0
LTYPE
  5
11
100
AcDbSymbolTableRecord
100
AcDbLinetypeTableRecord
  2
ByBlock
 70
              64
  3

 72
              65
 73
               0
 40
0.0
  0
LTYPE
  5
12
100
AcDbSymbolTableRecord
100
AcDbLinetypeTableRecord
  2
ByLayer
 70
              64
  3

 72
              65
 73
               0
 40
0.0
  0
LTYPE
  5
13
100
AcDbSymbolTableRecord
100
AcDbLinetypeTableRecord
  2
Continuous
 70
              64
  3
Solid line
 72
              65
 73
               0
 40
0.0
  0
LTYPE
  5
1D
100
AcDbSymbolTableRecord
100
AcDbLinetypeTableRecord
  2
DOT
 70
              64
  3
Dot . . . . . . . . . . . . . . . . . . . . . .
 72
              65
 73
               2
 40
6.3499999999999996
 49
0.35
 74
               0
 49
-6.0
 74
               0
  0
LTYPE
  5
1E
100
AcDbSymbolTableRecord
100
AcDbLinetypeTableRecord
  2
DASHED
 70
              64
  3
Dashed __ __ __ __ __ __ __ __ __ __ __ __ __ _
 72
              65
 73
               2
 40
12.699999999999999
 49
6.3499999999999996
 74
               0
 49
-6.3499999999999996
 74
               0
  0
LTYPE
  5
1F
100
AcDbSymbolTableRecord
100
AcDbLinetypeTableRecord
  2
DASHDOT
 70
              64
  3
Dash dot __ . __ . __ . __ . __ . __ . __ . __
 72
              65
 73
               4
 40
25.399999999999999
 49
12.699999999999999
 74
               0
 49
-6.0
 74
               0
 49
0.7
 74
               0
 49
-6.0
 74
               0
  0
LTYPE
  5
20
100
AcDbSymbolTableRecord
100
AcDbLinetypeTableRecord
  2
DIVIDE
 70
              64
  3
Divide ____ . . ____ . . ____ . . ____ . . ____
 72
              65
 73
               6
 40
31.75
 49
12.699999999999999
 74
               0
 49
-6.0
 74
               0
 49
0.875
 74
               0
 49
-6.0
 74
               0
 49
0.875
 74
               0
 49
-6.0
 74
               0
  0
LTYPE
  5
21
100
AcDbSymbolTableRecord
100
AcDbLinetypeTableRecord
  2
HIDDEN
 70
              64
  3
Hidden __ __ __ __ __ __ __ __ __ __ __ __ __ _
 72
              65
 73
               2
 40
9.5250000000000004
 49
6.3499999999999996
 74
               0
 49
-3.1749999999999998
 74
               0
  0
LTYPE
  5
22
100
AcDbSymbolTableRecord
100
AcDbLinetypeTableRecord
  2
CENTER
 70
              64
  3
Center ____ _ ____ _ ____ _ ____ _ ____ _ ____
 72
              65
 73
               4
 40
50.799999999999997
 49
31.75
 74
               0
 49
-6.3499999999999996
 74
               0
 49
6.3499999999999996
 74
               0
 49
-6.3499999999999996
 74
               0
  0
LTYPE
  5
23
100
AcDbSymbolTableRecord
100
AcDbLinetypeTableRecord
  2
PHANTOM
 70
              64
  3
Phantom ______  __  __  ______  __  __  ______
 72
              65
 73
               6
 40
63.5
 49
31.75
 74
               0
 49
-6.3499999999999996
 74
               0
 49
6.3499999999999996
 74
               0
 49
-6.3499999999999996
 74
               0
 49
6.3499999999999996
 74
               0
 49
-6.3499999999999996
 74
               0
  0
LTYPE
  5
24
100
AcDbSymbolTableRecord
100
AcDbLinetypeTableRecord
  2
ACAD_ISO02W100
 70
              64
  3
ISO dash __ __ __ __ __ __ __ __ __ __ __ __ __
 72
              65
 73
               2
 40
15.0
 49
12.0
 74
               0
 49
-3.0
 74
               0
  0
LTYPE
  5
25
100
AcDbSymbolTableRecord
100
AcDbLinetypeTableRecord
  2
ACAD_ISO03W100
 70
              64
  3
ISO dash space __ __ __ __ __ __ __ __ __ __ __ __ __ __
 72
              65
 73
               2
 40
30.0
 49
12.0
 74
               0
 49
-18.0
 74
               0
  0
LTYPE
  5
26
100
AcDbSymbolTableRecord
100
AcDbLinetypeTableRecord
  2
ACAD_ISO04W100
 70
              64
  3
ISO long-dash dot ____ . ____ . ____ . ____ . _
 72
              65
 73
               4
 40
30.0
 49
24.0
 74
               0
 49
-3.0
 74
               0
 49
0.0
 74
               0
 49
-3.0
 74
               0
  0
LTYPE
  5
27
100
AcDbSymbolTableRecord
100
AcDbLinetypeTableRecord
  2
ACAD_ISO05W100
 70
              64
  3
ISO long-dash double-dot ____ .. ____ .. ____ .
 72
              65
 73
               6
 40
33.0
 49
24.0
 74
               0
 49
-3.0
 74
               0
 49
0.0
 74
               0
 49
-3.0
 74
               0
 49
0.0
 74
               0
 49
-3.0
 74
               0
  0
LTYPE
  5
28
100
AcDbSymbolTableRecord
100
AcDbLinetypeTableRecord
  2
ACAD_ISO06W100
 70
              64
  3
ISO long-dash triple-dot ____ ... ____ ... ____
 72
              65
 73
               8
 40
36.0
 49
24.0
 74
               0
 49
-3.0
 74
               0
 49
0.0
 74
               0
 49
-3.0
 74
               0
 49
0.0
 74
               0
 49
-3.0
 74
               0
 49
0.0
 74
               0
 49
-3.0
 74
               0
  0
LTYPE
  5
29
100
AcDbSymbolTableRecord
100
AcDbLinetypeTableRecord
  2
ACAD_ISO07W100
 70
              64
  3
ISO dot . . . . . . . . . . . . . . . . . . . .
 72
              65
 73
               2
 40
3.0
 49
0.0
 74
               0
 49
-3.0
 74
               0
  0
LTYPE
  5
2A
100
AcDbSymbolTableRecord
100
AcDbLinetypeTableRecord
  2
ACAD_ISO08W100
 70
              64
  3
ISO long-dash short-dash ____ __ ____ __ ____ _
 72
              65
 73
               4
 40
36.0
 49
24.0
 74
               0
 49
-3.0
 74
               0
 49
6.0
 74
               0
 49
-3.0
 74
               0
  0
LTYPE
  5
2B
100
AcDbSymbolTableRecord
100
AcDbLinetypeTableRecord
  2
ACAD_ISO09W100
 70
              64
  3
ISO long-dash double-short-dash ____ __ __ ____
 72
              65
 73
               6
 40
45.0
 49
24.0
 74
               0
 49
-3.0
 74
               0
 49
6.0
 74
               0
 49
-3.0
 74
               0
 49
6.0
 74
               0
 49
-3.0
 74
               0
  0
LTYPE
  5
2C
100
AcDbSymbolTableRecord
100
AcDbLinetypeTableRecord
  2
ACAD_ISO10W100
 70
              64
  3
ISO dash dot __ . __ . __ . __ . __ . __ . __ .
 72
              65
 73
               4
 40
18.0
 49
12.0
 74
               0
 49
-3.0
 74
               0
 49
0.0
 74
               0
 49
-3.0
 74
               0
  0
LTYPE
  5
2D
100
AcDbSymbolTableRecord
100
AcDbLinetypeTableRecord
  2
ACAD_ISO11W100
 70
              64
  3
ISO double-dash dot __ __ . __ __ . __ __ . __ 
 72
              65
 73
               6
 40
33.0
 49
12.0
 74
               0
 49
-3.0
 74
               0
 49
12.0
 74
               0
 49
-3.0
 74
               0
 49
0.0
 74
               0
 49
-3.0
 74
               0
  0
LTYPE
  5
2E
100
AcDbSymbolTableRecord
100
AcDbLinetypeTableRecord
  2
ACAD_ISO12W100
 70
              64
  3
ISO dash double-dot __ . . __ . . __ . . __ . .
 72
              65
 73
               6
 40
21.0
 49
12.0
 74
               0
 49
-3.0
 74
               0
 49
0.0
 74
               0
 49
-3.0
 74
               0
 49
0.0
 74
               0
 49
-3.0
 74
               0
  0
LTYPE
  5
2F
100
AcDbSymbolTableRecord
100
AcDbLinetypeTableRecord
  2
ACAD_ISO13W100
 70
              64
  3
ISO double-dash double-dot __ __ . . __ __ . . 
 72
              65
 73
               8
 40
36.0
 49
12.0
 74
               0
 49
-3.0
 74
               0
 49
12.0
 74
               0
 49
-3.0
 74
               0
 49
0.0
 74
               0
 49
-3.0
 74
               0
 49
0.0
 74
               0
 49
-3.0
 74
               0
  0
LTYPE
  5
30
100
AcDbSymbolTableRecord
100
AcDbLinetypeTableRecord
  2
ACAD_ISO14W100
 70
              64
  3
ISO dash triple-dot __ . . . __ . . . __ . . . 
 72
              65
 73
               8
 40
24.0
 49
12.0
 74
               0
 49
-3.0
 74
               0
 49
0.0
 74
               0
 49
-3.0
 74
               0
 49
0.0
 74
               0
 49
-3.0
 74
               0
 49
0.0
 74
               0
 49
-3.0
 74
               0
  0
LTYPE
  5
31
100
AcDbSymbolTableRecord
100
AcDbLinetypeTableRecord
  2
ACAD_ISO15W100
 70
              64
  3
ISO double-dash double-dot __ __ . . __ __ . . 
 72
              65
 73
              10
 40
39.0
 49
12.0
 74
               0
 49
-3.0
 74
               0
 49
12.0
 74
               0
 49
-3.0
 74
               0
 49
0.0
 74
               0
 49
-3.0
 74
               0
 49
0.0
 74
               0
 49
-3.0
 74
               0
 49
0.0
 74
               0
 49
-3.0
 74
               0
  0
ENDTAB
  0
TABLE
  2
LAYER
  5
2
100
AcDbSymbolTable
 70
              16
  0
LAYER
  5
14
100
AcDbSymbolTableRecord
100
AcDbLayerTableRecord
  2
0
 70
               0
 62
               7
  6
Continuous
  0
LAYER
  5
35
100
AcDbSymbolTableRecord
100
AcDbLayerTableRecord
  2
Layer00001
 70
               0
 62
               7
  6
Continuous
  0
LAYER
  5
36
100
AcDbSymbolTableRecord
100
AcDbLayerTableRecord
  2
Layer00002
 70
               0
 62
               7
  6
Continuous
  0
LAYER
  5
37
100
AcDbSymbolTableRecord
100
AcDbLayerTableRecord
  2
Layer00003
 70
               0
 62
               7
  6
Continuous
  0
LAYER
  5
38
100
AcDbSymbolTableRecord
100
AcDbLayerTableRecord
  2
Layer00004
 70
               0
 62
               7
  6
Continuous
  0
LAYER
  5
39
100
AcDbSymbolTableRecord
100
AcDbLayerTableRecord
  2
Layer00005
 70
               0
 62
               7
  6
Continuous
  0
LAYER
  5
3A
100
AcDbSymbolTableRecord
100
AcDbLayerTableRecord
  2
Layer00006
 70
               0
 62
               7
  6
Continuous
  0
LAYER
  5
3B
100
AcDbSymbolTableRecord
100
AcDbLayerTableRecord
  2
Layer00007
 70
               0
 62
               7
  6
Continuous
  0
LAYER
  5
3C
100
AcDbSymbolTableRecord
100
AcDbLayerTableRecord
  2
Layer00008
 70
               0
 62
               7
  6
Continuous
  0
LAYER
  5
3D
100
AcDbSymbolTableRecord
100
AcDbLayerTableRecord
  2
Layer00009
 70
               0
 62
               7
  6
Continuous
  0
LAYER
  5
3E
100
AcDbSymbolTableRecord
100
AcDbLayerTableRecord
  2
Layer00010
 70
               0
 62
               7
  6
Continuous
  0
LAYER
  5
3F
100
AcDbSymbolTableRecord
100
AcDbLayerTableRecord
  2
Layer00011
 70
               0
 62
               7
  6
Continuous
  0
LAYER
  5
40
100
AcDbSymbolTableRecord
100
AcDbLayerTableRecord
  2
Layer00012
 70
               0
 62
               7
  6
Continuous
  0
LAYER
  5
41
100
AcDbSymbolTableRecord
100
AcDbLayerTableRecord
  2
Layer00013
 70
               0
 62
               7
  6
Continuous
  0
LAYER
  5
42
100
AcDbSymbolTableRecord
100
AcDbLayerTableRecord
  2
Layer00014
 70
               0
 62
               7
  6
Continuous
  0
LAYER
  5
43
100
AcDbSymbolTableRecord
100
AcDbLayerTableRecord
  2
Layer00015
 70
               0
 62
               7
  6
Continuous
  0
ENDTAB
  0
TABLE
  2
STYLE
  5
3
100
AcDbSymbolTable
 70
               4
  0
STYLE
  5
17
100
AcDbSymbolTableRecord
100
AcDbTextStyleTableRecord
  2
Standard
 70
               0
 40
0.0
 41
1.0
 50
0.0
 71
               0
 42
0.0
  3
txt.shx
  4
bigfont.shx
  0
STYLE
  5
32
100
AcDbSymbolTableRecord
100
AcDbTextStyleTableRecord
  2
STANDARD_T
 70
               4
 40
0.0
 41
1.0
 50
0.0
 71
               0
 42
0.0
  3
txt.shx
  4
bigfont.shx
  0
STYLE
  5
33
100
AcDbSymbolTableRecord
100
AcDbTextStyleTableRecord
  2
FontTableH_0
 70
               0
 40
0.0
 41
1.0
 50
0.0
 71
               0
 42
0.0
  3
MS Gothic.ttf
  4

1001
ACAD
1000
MS Gothic
1071
    32817
  0
STYLE
  5
34
100
AcDbSymbolTableRecord
100
AcDbTextStyleTableRecord
  2
FontTableV_0
 70
               0
 40
0.0
 41
1.0
 50
0.0
 71
               0
 42
0.0
  3
@MS Gothic.ttf
  4

1001
ACAD
1000
@MS Gothic
1071
    32817
  0
ENDTAB
  0
TABLE
  2
VIEW
  5
5
100
AcDbSymbolTable
 70
               0
  0
ENDTAB
  0
TABLE
  2
UCS
  5
6
100
AcDbSymbolTable
 70
               0
  0
ENDTAB
  0
TABLE
  2
APPID
  5
8
100
AcDbSymbolTable
 70
               1
  0
APPID
  5
16
100
AcDbSymbolTableRecord
100
AcDbRegAppTableRecord
  2
ACAD
 70
               0
  0
ENDTAB
  0
TABLE
  2
DIMSTYLE
  5
9
100
AcDbSymbolTable
 70
               1
  0
DIMSTYLE
105
18
100
AcDbSymbolTableRecord
100
AcDbDimStyleTableRecord
  2
Standard
 70
               0
  3

  4

  5

  6

  7

 40
1.0
 41
0.18
 42
0.0625
 43
0.38
 44
0.18
 45
0.0
 46
0.0
 47
0.0
 48
0.0
 71
               0
 72
               0
 73
               1
 74
               1
 75
               0
 76
               0
 77
               0
 78
               0
140
0.18
141
0.09
142
0.0
143
25.399999999999999
144
1.0
145
0.0
146
1.0
147
0.09
170
               0
171
               2
172
               0
173
               0
174
               0
175
               0
176
               0
177
               0
178
               0
270
               2
271
               4
272
               4
273
               2
274
               2
275
               0
280
               0
281
               0
282
               0
283
               1
284
               0
285
               0
286
               0
287
               0
288
               0
340
17
  0
ENDTAB
  0
TABLE
  2
BLOCK_RECORD
  5
1
100
AcDbSymbolTable
 70
               0
  0
BLOCK_RECORD
  5
A
100
AcDbSymbolTableRecord
100
AcDbBlockTableRecord
  2
*MODEL_SPACE
  0
BLOCK_RECORD
  5
B
100
AcDbSymbolTableRecord
100
AcDbBlockTableRecord
  2
*PAPER_SPACE
  0
ENDTAB
  0
ENDSEC
  0
SECTION
  2
BLOCKS
  0
BLOCK
  5
D
100
AcDbEntity
  8
0
100
AcDbBlockBegin
  2
*MODEL_SPACE
 70
               0
 10
0.0
 20
0.0
 30
0.0
  3
*MODEL_SPACE
  1

  0
ENDBLK
  5
E
100
AcDbEntity
  8
0
100
AcDbBlockEnd
  0
BLOCK
  5
F
100
AcDbEntity
 67
               1
  8
0
100
AcDbBlockBegin
  2
*PAPER_SPACE
 70
               0
 10
0.0
 20
0.0
 30
0.0
  3
*PAPER_SPACE
  1

  0
ENDBLK
  5
10
100
AcDbEntity
 67
               1
  8
0
100
AcDbBlockEnd
  0
ENDSEC
  0
SECTION
  2
ENTITIES
  0
LINE
  5
44
100
AcDbEntity
  8
0
  6
Continuous
 62
               3
100
AcDbLine
 10
252.42051406914936
 20
208.00995405627268
 30
0.0
 11
577.82474069169803
 21
305.63122204303716
 31
0.0
  0
LINE
  5
45
100
AcDbEntity
  8
0
  6
Continuous
 62
               3
100
AcDbLine
 10
252.42051406914936
 20
220.53832186696528
 30
0.0
 11
574.37656606490191
 21
317.12513746569095
 31
0.0
  0
LINE
  5
46
100
AcDbEntity
  8
0
  6
Continuous
 62
               3
100
AcDbLine
 10
252.42051406914936
 20
233.06668967765793
 30
0.0
 11
570.92839143810579
 21
328.61905288834487
 31
0.0
  0
LINE
  5
47
100
AcDbEntity
  8
0
  6
Continuous
 62
               6
100
AcDbLine
 10
568.65983883009085
 20
198.47868639544916
 30
0.0
 11
529.580526210377
 21
186.75489260953495
 31
0.0
  0
LINE
  5
48
100
AcDbEntity
  8
0
  6
Continuous
 62
               6
100
AcDbLine
 10
523.85272514350345
 20
189.83909318400535
 30
0.0
 11
519.42756767837818
 21
204.58961806775667
 31
0.0
  0
LINE
  5
49
100
AcDbEntity
  8
0
  6
Continuous
 62
               6
100
AcDbLine
 10
519.42756767837818
 20
204.58961806775667
 30
0.0
 11
521.63056808871397
 21
205.25051819085738
 31
0.0
  0
LINE
  5
4A
100
AcDbEntity
  8
0
  6
Continuous
 62
               6
100
AcDbLine
 10
521.63056808871397
 20
205.25051819085738
 30
0.0
 11
526.05572555383947
 21
190.49999330710617
 31
0.0
  0
LINE
  5
4B
100
AcDbEntity
  8
0
  6
Continuous
 62
               6
100
AcDbLine
 10
528.91962608727613
 20
188.95789301987097
 30
0.0
 11
567.9989387069902
 21
200.68168680578518
 31
0.0
  0
LINE
  5
4C
100
AcDbEntity
  8
0
  6
Continuous
 62
               6
100
AcDbLine
 10
569.54103899422535
 20
203.54558733922178
 30
0.0
 11
543.449850929994
 21
290.51621421999346
 31
0.0
  0
LINE
  5
4D
100
AcDbEntity
  8
0
  6
Continuous
 62
               6
100
AcDbLine
 10
540.58595039655711
 20
292.0583145072286
 30
0.0
 11
501.50663777684332
 21
280.33452072131456
 31
0.0
  0
LINE
  5
4E
100
AcDbEntity
  8
0
  6
Continuous
 62
               6
100
AcDbLine
 10
499.96453748960818
 20
277.4706201878779
 30
0.0
 11
504.38969495473356
 21
262.72009530412674
 31
0.0
  0
LINE
  5
4F
100
AcDbEntity
  8
0
  6
Continuous
 62
               6
100
AcDbLine
 10
504.38969495473356
 20
262.72009530412674
 30
0.0
 11
502.18669454439754
 21
262.05919518102587
 31
0.0
  0
LINE
  5
50
100
AcDbEntity
  8
0
  6
Continuous
 62
               6
100
AcDbLine
 10
502.18669454439754
 20
262.05919518102587
 30
0.0
 11
497.76153707927227
 21
276.80972006477703
 31
0.0
  0
LINE
  5
51
100
AcDbEntity
  8
0
  6
Continuous
 62
               6
100
AcDbLine
 10
500.84573765374256
 20
282.53752113165046
 30
0.0
 11
539.92505027345646
 21
294.2613149175645
 31
0.0
  0
LINE
  5
52
100
AcDbEntity
  8
0
  6
Continuous
 62
               6
100
AcDbLine
 10
545.65285134032979
 20
291.17711434309422
 30
0.0
 11
571.74403940456114
 21
204.20648746232254
 31
0.0
  0
LINE
  5
53
100
AcDbEntity
  8
0
  6
Continuous
 62
               7
100
AcDbLine
 10
336.81648563836444
 20
233.32874552703706
 30
0.0
 11
327.26677263480309
 21
238.47073619463148
 31
0.0
  0
LINE
  5
54
100
AcDbEntity
  8
0
  6
Continuous
 62
               7
100
AcDbLine
 10
343.58942959296922
 20
235.36062871341844
 30
0.0
 11
328.64703631611877
 21
243.40627854105608
 31
0.0
  0
LINE
  5
55
100
AcDbEntity
  8
0
  6
Continuous
 62
               7
100
AcDbLine
 10
350.36237354757412
 20
237.39251189979998
 30
0.0
 11
335.41998027072356
 21
245.43816172743746
 31
0.0
  0
LINE
  5
56
100
AcDbEntity
  8
0
  6
Continuous
 62
               7
100
AcDbLine
 10
357.13531750217891
 20
239.42439508618148
 30
0.0
 11
342.19292422532834
 21
247.47004491381895
 31
0.0
  0
LINE
  5
57
100
AcDbEntity
  8
0
  6
Continuous
 62
               7
100
AcDbLine
 10
363.90826145678369
 20
241.45627827256286
 30
0.0
 11
348.96586817993324
 21
249.50192810020033
 31
0.0
  0
LINE
  5
58
100
AcDbEntity
  8
0
  6
Continuous
 62
               7
100
AcDbLine
 10
370.68120541138859
 20
243.48816145894423
 30
0.0
 11
355.73881213453802
 21
251.53381128658188
 31
0.0
  0
LINE
  5
59
100
AcDbEntity
  8
0
  6
Continuous
 62
               7
100
AcDbLine
 10
377.45414936599337
 20
245.52004464532578
 30
0.0
 11
362.51175608914281
 21
253.56569447296326
 31
0.0
  0
LINE
  5
5A
100
AcDbEntity
  8
0
  6
Continuous
 62
               7
100
AcDbLine
 10
384.22709332059816
 20
247.55192783170727
 30
0.0
 11
369.2847000437477
 21
255.59757765934475
 31
0.0
  0
LINE
  5
5B
100
AcDbEntity
  8
0
  6
Continuous
 62
               7
100
AcDbLine
 10
391.00003727520306
 20
249.58381101808865
 30
0.0
 11
376.05764399835249
 21
257.62946084572616
 31
0.0
  0
LINE
  5
5C
100
AcDbEntity
  8
0
  6
Continuous
 62
               7
100
AcDbLine
 10
397.77298122980784
 20
251.61569420447003
 30
0.0
 11
382.83058795295727
 21
259.66134403210765
 31
0.0
  0
LINE
  5
5D
100
AcDbEntity
  8
0
  6
Continuous
 62
               7
100
AcDbLine
 10
404.54592518441262
 20
253.64757739085158
 30
0.0
 11
389.60353190756217
 21
261.69322721848914
 31
0.0
  0
LINE
  5
5E
100
AcDbEntity
  8
0
  6
Continuous
 62
               7
100
AcDbLine
 10
411.31886913901752
 20
255.67946057723307
 30
0.0
 11
396.37647586216696
 21
263.72511040487052
 31
0.0
  0
LINE
  5
5F
100
AcDbEntity
  8
0
  6
Continuous
 62
               7
100
AcDbLine
 10
418.09181309362231
 20
257.71134376361442
 30
0.0
 11
403.14941981677174
 21
265.75699359125201
 31
0.0
  0
LINE
  5
60
100
AcDbEntity
  8
0
  6
Continuous
 62
               7
100
AcDbLine
 10
424.86475704822709
 20
259.7432269499958
 30
0.0
 11
409.92236377137664
 21
267.7888767776335
 31
0.0
  0
LINE
  5
61
100
AcDbEntity
  8
0
  6
Continuous
 62
               7
100
AcDbLine
 10
431.63770100283199
 20
261.77511013637741
 30
0.0
 11
416.69530772598142
 21
269.820759964015
 31
0.0
  0
LINE
  5
62
100
AcDbEntity
  8
0
  6
Continuous
 62
               7
100
AcDbLine
 10
438.41064495743677
 20
263.8069933227589
 30
0.0
 11
423.46825168058632
 21
271.85264315039637
 31
0.0
  0
LINE
  5
63
100
AcDbEntity
  8
0
  6
Continuous
 62
               7
100
AcDbLine
 10
445.18358891204167
 20
265.83887650914028
 30
0.0
 11
430.2411956351911
 21
273.88452633677775
 31
0.0
  0
LINE
  5
64
100
AcDbEntity
  8
0
  6
Continuous
 62
               7
100
AcDbLine
 10
451.95653286664646
 20
267.87075969552177
 30
0.0
 11
437.01413958979589
 21
275.91640952315925
 31
0.0
  0
LINE
  5
65
100
AcDbEntity
  8
0
  6
Continuous
 62
               7
100
AcDbLine
 10
458.72947682125124
 20
269.90264288190315
 30
0.0
 11
443.78708354440079
 21
277.94829270954074
 31
0.0
  0
LINE
  5
66
100
AcDbEntity
  8
0
  6
Continuous
 62
               7
100
AcDbLine
 10
465.50242077585614
 20
271.93452606828464
 30
0.0
 11
450.56002749900557
 21
279.98017589592212
 31
0.0
  0
LINE
  5
67
100
AcDbEntity
  8
0
  6
Continuous
 62
               7
100
AcDbLine
 10
472.27536473046092
 20
273.96640925466602
 30
0.0
 11
457.33297145361047
 21
282.01205908230361
 31
0.0
  0
LINE
  5
68
100
AcDbEntity
  8
0
  6
Continuous
 62
               7
100
AcDbLine
 10
479.04830868506582
 20
275.99829244104751
 30
0.0
 11
464.10591540821525
 21
284.0439422686851
 31
0.0
  0
LINE
  5
69
100
AcDbEntity
  8
0
  6
Continuous
 62
               7
100
AcDbLine
 10
485.8212526396706
 20
278.030175627429
 30
0.0
 11
470.87885936282004
 21
286.07582545506648
 31
0.0
  0
LINE
  5
6A
100
AcDbEntity
  8
0
  6
Continuous
 62
               7
100
AcDbLine
 10
492.59419659427539
 20
280.06205881381049
 30
0.0
 11
477.65180331742494
 21
288.10770864144797
 31
0.0
  0
LINE
  5
6B
100
AcDbEntity
  8
0
  6
Continuous
 62
               7
100
AcDbLine
 10
499.36714054888029
 20
282.09394200019187
 30
0.0
 11
484.42474727202972
 21
290.13959182782935
 31
0.0
  0
LINE
  5
6C
100
AcDbEntity
  8
0
  6
Continuous
 62
               7
100
AcDbLine
 10
506.14008450348507
 20
284.12582518657337
 30
0.0
 11
491.19769122663462
 21
292.17147501421084
 31
0.0
  0
LINE
  5
6D
100
AcDbEntity
  8
0
  6
Continuous
 62
               7
100
AcDbLine
 10
512.91302845808991
 20
286.15770837295474
 30
0.0
 11
497.9706351812394
 21
294.20335820059222
 31
0.0
  0
LINE
  5
6E
100
AcDbEntity
  8
0
  6
Continuous
 62
               7
100
AcDbLine
 10
519.68597241269481
 20
288.18959155933624
 30
0.0
 11
504.7435791358443
 21
296.23524138697371
 31
0.0
  0
LINE
  5
6F
100
AcDbEntity
  8
0
  6
Continuous
 62
               7
100
AcDbLine
 10
526.45891636729971
 20
290.22147474571761
 30
0.0
 11
511.51652309044908
 21
298.2671245733552
 31
0.0
  0
LINE
  5
70
100
AcDbEntity
  8
0
  6
Continuous
 62
               7
100
AcDbLine
 10
533.23186032190438
 20
292.25335793209911
 30
0.0
 11
518.28946704505393
 21
300.2990077597367
 31
0.0
  0
LINE
  5
71
100
AcDbEntity
  8
0
  6
Continuous
 62
               7
100
AcDbLine
 10
540.00480427650928
 20
294.2852411184806
 30
0.0
 11
525.06241099965882
 21
302.33089094611807
 31
0.0
  0
LINE
  5
72
100
AcDbEntity
  8
0
  6
Continuous
 62
               7
100
AcDbLine
 10
546.77774823111417
 20
296.31712430486198
 30
0.0
 11
531.83535495426372
 21
304.36277413249957
 31
0.0
  0
LINE
  5
73
100
AcDbEntity
  8
0
  6
Continuous
 62
               7
100
AcDbLine
 10
553.55069218571907
 20
298.34900749124347
 30
0.0
 11
538.60829890886839
 21
306.39465731888095
 31
0.0
  0
LINE
  5
74
100
AcDbEntity
  8
0
  6
Continuous
 62
               7
100
AcDbLine
 10
560.32363614032374
 20
300.38089067762496
 30
0.0
 11
545.38124286347329
 21
308.42654050526244
 31
0.0
  0
LINE
  5
75
100
AcDbEntity
  8
0
  6
Continuous
 62
               7
100
AcDbLine
 10
567.09658009492887
 20
302.41277386400634
 30
0.0
 11
552.15418681807819
 21
310.45842369164382
 31
0.0
  0
LINE
  5
76
100
AcDbEntity
  8
0
  6
Continuous
 62
               7
100
AcDbLine
 10
573.86952404953354
 20
304.44465705038772
 30
0.0
 11
558.92713077268286
 21
312.49030687802531
 31
0.0
  0
LINE
  5
77
100
AcDbEntity
  8
0
  6
Continuous
 62
               7
100
AcDbLine
 10
576.97944479818898
 20
308.44887502140102
 30
0.0
 11
565.70007472728798
 21
314.5221900644068
 31
0.0
  0
LINE
  5
78
100
AcDbEntity
  8
0
  6
Continuous
 62
               7
100
AcDbLine
 10
572.35079237137529
 20
323.87771644411271
 30
0.0
 11
567.62416522533704
 21
315.09941721382143
 31
0.0
  0
LINE
  5
79
100
AcDbEntity
  8
0
  6
Continuous
 62
               7
100
AcDbLine
 10
568.8968375232912
 20
328.00958671390049
 30
0.0
 11
560.85139994683436
 21
313.06758763027074
 31
0.0
  0
LINE
  5
7A
100
AcDbEntity
  8
0
  6
Continuous
 62
               7
100
AcDbLine
 10
562.12407224478852
 20
325.97775713034969
 30
0.0
 11
554.07863466833214
 21
311.03575804672005
 31
0.0
  0
LINE
  5
7B
100
AcDbEntity
  8
0
  6
Continuous
 62
               7
100
AcDbLine
 10
555.3513069662863
 20
323.945927546799
 30
0.0
 11
547.3058693898297
 21
309.00392846316936
 31
0.0
  0
LINE
  5
7C
100
AcDbEntity
  8
0
  6
Continuous
 62
               7
100
AcDbLine
 10
548.57854168778385
 20
321.91409796324831
 30
0.0
 11
540.53310411132725
 21
306.97209887961867
 31
0.0
  0
LINE
  5
7D
100
AcDbEntity
  8
0
  6
Continuous
 62
               7
100
AcDbLine
 10
541.80577640928141
 20
319.88226837969751
 30
0.0
 11
533.76033883282503
 21
304.94026929606798
 31
0.0
  0
LINE
  5
7E
100
AcDbEntity
  8
0
  6
Continuous
 62
               7
100
AcDbLine
 10
535.03301113077919
 20
317.85043879614682
 30
0.0
 11
526.98757355432258
 21
302.90843971251729
 31
0.0
  0
LINE
  5
7F
100
AcDbEntity
  8
0
  6
Continuous
 62
               7
100
AcDbLine
 10
528.26024585227674
 20
315.81860921259602
 30
0.0
 11
520.21480827582013
 21
300.8766101289666
 31
0.0
  0
LINE
  5
80
100
AcDbEntity
  8
0
  6
Continuous
 62
               7
100
AcDbLine
 10
521.48748057377429
 20
313.78677962904544
 30
0.0
 11
513.44204299731791
 21
298.8447805454158
 31
0.0
  0
LINE
  5
81
100
AcDbEntity
  8
0
  6
Continuous
 62
               7
100
AcDbLine
 10
514.71471529527207
 20
311.75495004549475
 30
0.0
 11
506.66927771881541
 21
296.81295096186511
 31
0.0
  0
LINE
  5
82
100
AcDbEntity
  8
0
  6
Continuous
 62
               7
100
AcDbLine
 10
507.94195001676957
 20
309.72312046194395
 30
0.0
 11
499.89651244031307
 21
294.78112137831431
 31
0.0
  0
LINE
  5
83
100
AcDbEntity
  8
0
  6
Continuous
 62
               7
100
AcDbLine
 10
501.16918473826723
 20
307.69129087839326
 30
0.0
 11
493.12374716181074
 21
292.74929179476362
 31
0.0
  0
LINE
  5
84
100
AcDbEntity
  8
0
  6
Continuous
 62
               7
100
AcDbLine
 10
494.3964194597649
 20
305.65946129484257
 30
0.0
 11
486.35098188330829
 21
290.71746221121293
 31
0.0
  0
LINE
  5
85
100
AcDbEntity
  8
0
  6
Continuous
 62
               7
100
AcDbLine
 10
487.62365418126245
 20
303.62763171129188
 30
0.0
 11
479.57821660480596
 21
288.68563262766224
 31
0.0
  0
LINE
  5
86
100
AcDbEntity
  8
0
  6
Continuous
 62
               7
100
AcDbLine
 10
480.85088890276012
 20
301.59580212774119
 30
0.0
 11
472.80545132630363
 21
286.65380304411156
 31
0.0
  0
LINE
  5
87
100
AcDbEntity
  8
0
  6
Continuous
 62
               7
100
AcDbLine
 10
474.07812362425778
 20
299.56397254419051
 30
0.0
 11
466.03268604780118
 21
284.62197346056087
 31
0.0
  0
LINE
  5
88
100
AcDbEntity
  8
0
  6
Continuous
 62
               7
100
AcDbLine
 10
467.30535834575534
 20
297.5321429606397
 30
0.0
 11
459.25992076929884
 21
282.59014387701006
 31
0.0
  0
LINE
  5
89
100
AcDbEntity
  8
0
  6
Continuous
 62
               7
100
AcDbLine
 10
460.532593067253
 20
295.50031337708901
 30
0.0
 11
452.48715549079651
 21
280.55831429345938
 31
0.0
  0
LINE
  5
8A
100
AcDbEntity
  8
0
  6
Continuous
 62
               7
100
AcDbLine
 10
453.75982778875067
 20
293.46848379353821
 30
0.0
 11
445.71439021229418
 21
278.5264847099088
 31
0.0
  0
LINE
  5
8B
100
AcDbEntity
  8
0
  6
Continuous
 62
               7
100
AcDbLine
 10
446.98706251024834
 20
291.43665420998764
 30
0.0
 11
438.94162493379173
 21
276.494655126358
 31
0.0
  0
LINE
  5
8C
100
AcDbEntity
  8
0
  6
Continuous
 62
               7
100
AcDbLine
 10
440.214297231746
 20
289.40482462643695
 30
0.0
 11
432.1688596552894
 21
274.46282554280731
 31
0.0
  0
LINE
  5
8D
100
AcDbEntity
  8
0
  6
Continuous
 62
               7
100
AcDbLine
 10
433.44153195324355
 20
287.37299504288615
 30
0.0
 11
425.39609437678706
 21
272.43099595925651
 31
0.0
  0
LINE
  5
8E
100
AcDbEntity
  8
0
  6
Continuous
 62
               7
100
AcDbLine
 10
426.66876667474122
 20
285.34116545933546
 30
0.0
 11
418.62332909828473
 21
270.39916637570582
 31
0.0
  0
LINE
  5
8F
100
AcDbEntity
  8
0
  6
Continuous
 62
               7
100
AcDbLine
 10
419.89600139623889
 20
283.30933587578477
 30
0.0
 11
411.85056381978228
 21
268.36733679215513
 31
0.0
  0
LINE
  5
90
100
AcDbEntity
  8
0
  6
Continuous
 62
               7
100
AcDbLine
 10
413.12323611773644
 20
281.27750629223408
 30
0.0
 11
405.07779854127995
 21
266.33550720860444
 31
0.0
  0
LINE
  5
91
100
AcDbEntity
  8
0
  6
Continuous
 62
               7
100
AcDbLine
 10
406.35047083923411
 20
279.24567670868339
 30
0.0
 11
398.30503326277761
 21
264.30367762505375
 31
0.0
  0
LINE
  5
92
100
AcDbEntity
  8
0
  6
Continuous
 62
               7
100
AcDbLine
 10
399.57770556073177
 20
277.2138471251327
 30
0.0
 11
391.53226798427517
 21
262.27184804150306
 31
0.0
  0
LINE
  5
93
100
AcDbEntity
  8
0
  6
Continuous
 62
               7
100
AcDbLine
 10
392.80494028222944
 20
275.18201754158201
 30
0.0
 11
384.75950270577283
 21
260.24001845795226
 31
0.0
  0
LINE
  5
94
100
AcDbEntity
  8
0
  6
Continuous
 62
               7
100
AcDbLine
 10
386.03217500372699
 20
273.15018795803121
 30
0.0
 11
377.9867374272705
 21
258.20818887440157
 31
0.0
  0
LINE
  5
95
100
AcDbEntity
  8
0
  6
Continuous
 62
               7
100
AcDbLine
 10
379.25940972522466
 20
271.11835837448052
 30
0.0
 11
371.21397214876816
 21
256.17635929085088
 31
0.0
  0
LINE
  5
96
100
AcDbEntity
  8
0
  6
Continuous
 62
               7
100
AcDbLine
 10
372.48664444672232
 20
269.08652879092972
 30
0.0
 11
364.44120687026583
 21
254.14452970730017
 31
0.0
  0
LINE
  5
97
100
AcDbEntity
  8
0
  6
Continuous
 62
               7
100
AcDbLine
 10
365.71387916821999
 20
267.05469920737914
 30
0.0
 11
357.66844159176338
 21
252.11270012374948
 31
0.0
  0
LINE
  5
98
100
AcDbEntity
  8
0
  6
Continuous
 62
               7
100
AcDbLine
 10
358.94111388971766
 20
265.02286962382834
 30
0.0
 11
350.89567631326105
 21
250.08087054019873
 31
0.0
  0
LINE
  5
99
100
AcDbEntity
  8
0
  6
Continuous
 62
               7
100
AcDbLine
 10
352.16834861121521
 20
262.99104004027765
 30
0.0
 11
344.12291103475872
 21
248.04904095664804
 31
0.0
  0
LINE
  5
9A
100
AcDbEntity
  8
0
  6
Continuous
 62
               7
100
AcDbLine
 10
345.39558333271287
 20
260.95921045672696
 30
0.0
 11
337.35014575625627
 21
246.01721137309724
 31
0.0
  0
LINE
  5
9B
100
AcDbEntity
  8
0
  6
Continuous
 62
               7
100
AcDbLine
 10
338.62281805421054
 20
258.92738087317628
 30
0.0
 11
330.57738047775393
 21
243.98538178954666
 31
0.0
  0
LINE
  5
9C
100
AcDbEntity
  8
0
  6
Continuous
 62
               7
100
AcDbLine
 10
331.85005277570821
 20
256.89555128962559
 30
0.0
 11
325.35700025499222
 21
244.83664412733455
 31
0.0
  0
LINE
  5
9D
100
AcDbEntity
  8
0
  6
Continuous
 62
               2
100
AcDbLine
 10
574.82474069169803
 20
335.00811091887772
 30
0.0
 11
252.42051406914936
 21
238.28684293211327
 31
0.0
  0
LINE
  5
9E
100
AcDbEntity
  8
0
  6
DASHED
 62
               6
100
AcDbLine
 10
252.42051406914936
 20
235.15475097944008
 30
0.0
 11
576.32474069169803
 21
332.32601896620451
 31
0.0
  0
LINE
  5
9F
100
AcDbEntity
  8
0
  6
Continuous
 62
               4
100
AcDbLine
 10
255.26588766786745
 20
364.66290708301324
 30
0.0
 11
395.2658876678675
 21
364.66290708301324
 31
0.0
  0
LINE
  5
A0
100
AcDbEntity
  8
0
  6
Continuous
 62
               4
100
AcDbLine
 10
255.26588766786745
 20
348.66290708301324
 30
0.0
 11
404.50349197490146
 21
348.66290708301324
 31
0.0
  0
LINE
  5
A1
100
AcDbEntity
  8
0
  6
Continuous
 62
               4
100
AcDbLine
 10
255.26588766786745
 20
332.66290708301324
 30
0.0
 11
413.74109628193554
 21
332.66290708301324
 31
0.0
  0
LINE
  5
A2
100
AcDbEntity
  8
0
  6
Continuous
 62
               4
100
AcDbLine
 10
395.2658876678675
 20
364.66290708301324
 30
0.0
 11
448.18540948358071
 21
273.00360658594821
 31
0.0
  0
LINE
  5
A3
100
AcDbEntity
  8
0
  6
Continuous
 62
               3
100
AcDbLine
 10
570.92839143810579
 20
328.61905288834487
 30
0.0
 11
577.82474069169803
 21
305.63122204303716
 31
0.0
  0
LINE
  5
A4
100
AcDbEntity
  8
0
  6
Continuous
 62
               3
100
AcDbLine
 10
577.82474069169803
 20
436.76035612600629
 30
0.0
 11
577.82474069169803
 21
328.69138257606426
 31
0.0
  0
LINE
  5
A5
100
AcDbEntity
  8
0
  6
Continuous
 62
               2
100
AcDbLine
 10
557.82474069169803
 20
438.26035612600629
 30
0.0
 11
557.82474069169803
 21
338.26035612600617
 31
0.0
  0
LINE
  5
A6
100
AcDbEntity
  8
0
  6
Continuous
 62
               2
100
AcDbLine
 10
557.82474069169803
 20
338.26035612600617
 30
0.0
 11
512.07747766263014
 21
319.39550539236996
 31
0.0
  0
LINE
  5
A7
100
AcDbEntity
  8
0
  6
Continuous
 62
               2
100
AcDbLine
 10
521.68614650626614
 20
319.17956880776615
 30
0.0
 11
512.52764218198763
 21
317.77824434571778
 31
0.0
  0
LINE
  5
A8
100
AcDbEntity
  8
0
  6
Continuous
 62
               4
100
AcDbLine
 10
520.04355578866648
 20
320.13980142430501
 30
0.0
 11
571.25204078073489
 21
335.50234692192544
 31
0.0
  0
LINE
  5
A9
100
AcDbEntity
  8
0
  6
Continuous
 62
               4
100
AcDbLine
 10
520.04355578866648
 20
320.13980142430501
 30
0.0
 11
512.07633653981406
 21
318.48997923526167
 31
0.0
  0
LINE
  5
AA
100
AcDbEntity
  8
0
  6
Continuous
 62
               7
100
AcDbLine
 10
522.99632002494468
 20
321.0256306951884
 30
0.0
 11
523.42734185329437
 21
319.58889126735664
 31
0.0
  0
LINE
  5
AB
100
AcDbEntity
  8
0
  6
Continuous
 62
               7
100
AcDbLine
 10
559.39371886334857
 20
331.94485034670947
 30
0.0
 11
558.38803916629149
 21
330.07710046125578
 31
0.0
  0
LINE
  5
AC
100
AcDbEntity
  8
0
  6
Continuous
 62
               7
100
AcDbLine
 10
557.36188927979788
 20
331.33530147164424
 30
0.0
 11
556.3562095827408
 21
329.46755158619055
 31
0.0
  0
LINE
  5
AD
100
AcDbEntity
  8
0
  6
Continuous
 62
               7
100
AcDbLine
 10
555.33005969624719
 20
330.72575259657901
 30
0.0
 11
554.32437999919011
 21
328.85800271112532
 31
0.0
  0
LINE
  5
AE
100
AcDbEntity
  8
0
  6
Continuous
 62
               7
100
AcDbLine
 10
553.29823011269627
 20
330.1162037215139
 30
0.0
 11
552.29255041563943
 21
328.24845383606021
 31
0.0
  0
LINE
  5
AF
100
AcDbEntity
  8
0
  6
Continuous
 62
               7
100
AcDbLine
 10
551.26640052914559
 20
329.50665484644867
 30
0.0
 11
550.26072083208851
 21
327.63890496099498
 31
0.0
  0
LINE
  5
B0
100
AcDbEntity
  8
0
  6
Continuous
 62
               7
100
AcDbLine
 10
549.2345709455949
 20
328.89710597138344
 30
0.0
 11
548.22889124853782
 21
327.02935608592975
 31
0.0
  0
LINE
  5
B1
100
AcDbEntity
  8
0
  6
Continuous
 62
               7
100
AcDbLine
 10
547.20274136204421
 20
328.28755709631821
 30
0.0
 11
546.19706166498713
 21
326.41980721086441
 31
0.0
  0
LINE
  5
B2
100
AcDbEntity
  8
0
  6
Continuous
 62
               7
100
AcDbLine
 10
545.17091177849352
 20
327.67800822125309
 30
0.0
 11
544.16523208143644
 21
325.81025833579929
 31
0.0
  0
LINE
  5
B3
100
AcDbEntity
  8
0
  6
Continuous
 62
               7
100
AcDbLine
 10
543.13908219494283
 20
327.06845934618775
 30
0.0
 11
542.13340249788575
 21
325.20070946073406
 31
0.0
  0
LINE
  5
B4
100
AcDbEntity
  8
0
  6
Continuous
 62
               7
100
AcDbLine
 10
541.10725261139214
 20
326.45891047112252
 30
0.0
 11
540.10157291433507
 21
324.59116058566883
 31
0.0
  0
LINE
  5
B5
100
AcDbEntity
  8
0
  6
Continuous
 62
               7
100
AcDbLine
 10
539.07542302784145
 20
325.84936159605741
 30
0.0
 11
538.06974333078438
 21
323.9816117106036
 31
0.0
  0
LINE
  5
B6
100
AcDbEntity
  8
0
  6
Continuous
 62
               7
100
AcDbLine
 10
537.04359344429076
 20
325.23981272099218
 30
0.0
 11
536.03791374723369
 21
323.37206283553849
 31
0.0
  0
LINE
  5
B7
100
AcDbEntity
  8
0
  6
Continuous
 62
               7
100
AcDbLine
 10
535.01176386074007
 20
324.63026384592695
 30
0.0
 11
534.006084163683
 21
322.76251396047326
 31
0.0
  0
LINE
  5
B8
100
AcDbEntity
  8
0
  6
Continuous
 62
               7
100
AcDbLine
 10
532.97993427718939
 20
324.0207149708616
 30
0.0
 11
531.97425458013231
 21
322.15296508540791
 31
0.0
  0
LINE
  5
B9
100
AcDbEntity
  8
0
  6
Continuous
 62
               7
100
AcDbLine
 10
530.94810469363847
 20
323.4111660957966
 30
0.0
 11
529.94242499658162
 21
321.5434162103428
 31
0.0
  0
LINE
  5
BA
100
AcDbEntity
  8
0
  6
Continuous
 62
               7
100
AcDbLine
 10
528.91627511008778
 20
322.80161722073126
 30
0.0
 11
527.91059541303071
 21
320.93386733527757
 31
0.0
  0
LINE
  5
BB
100
AcDbEntity
  8
0
  6
Continuous
 62
               7
100
AcDbLine
 10
526.88444552653709
 20
322.19206834566603
 30
0.0
 11
525.87876582948002
 21
320.32431846021234
 31
0.0
  0
LINE
  5
BC
100
AcDbEntity
  8
0
  6
Continuous
 62
               7
100
AcDbLine
 10
524.8526159429864
 20
321.5825194706008
 30
0.0
 11
523.84693624592933
 21
319.71476958514711
 31
0.0
  0
LINE
  5
BD
100
AcDbEntity
  8
0
  6
Continuous
 62
               2
100
AcDbLine
 10
557.82474069169803
 20
438.26035612600629
 30
0.0
 11
574.82474069169803
 21
438.26035612600629
 31
0.0
  0
LINE
  5
BE
100
AcDbEntity
  8
0
  6
Continuous
 62
               7
100
AcDbLine
 10
562.82474069169803
 20
458.26035612600629
 30
0.0
 11
577.82474069169803
 21
458.26035612600629
 31
0.0
  0
LINE
  5
BF
100
AcDbEntity
  8
0
  6
Continuous
 62
               7
100
AcDbLine
 10
577.82474069169803
 20
498.26035612600629
 30
0.0
 11
577.82474069169803
 21
153.02199826385217
 31
0.0
  0
LINE
  5
C0
100
AcDbEntity
  8
0
  6
Continuous
 62
               2
100
AcDbLine
 10
574.82474069169803
 20
438.26035612600629
 30
0.0
 11
574.82474069169803
 21
456.76035612600629
 31
0.0
  0
LINE
  5
C1
100
AcDbEntity
  8
0
  6
Continuous
 62
               7
100
AcDbLine
 10
562.82474069169803
 20
458.26035612600629
 30
0.0
 11
562.82474069169803
 21
498.26035612600629
 31
0.0
  0
LINE
  5
C2
100
AcDbEntity
  8
0
  6
Continuous
 62
               7
100
AcDbLine
 10
572.82474069169803
 20
458.26035612600629
 30
0.0
 11
572.82474069169803
 21
466.26035612600629
 31
0.0
  0
LINE
  5
C3
100
AcDbEntity
  8
0
  6
Continuous
 62
               6
100
AcDbLine
 10
566.31002206593666
 20
438.26035612600629
 30
0.0
 11
563.54745951526502
 21
441.02291867667782
 31
0.0
  0
LINE
  5
C4
100
AcDbEntity
  8
0
  6
Continuous
 62
               6
100
AcDbLine
 10
570.55266275305598
 20
438.26035612600629
 30
0.0
 11
564.13586518608417
 21
444.6771536929781
 31
0.0
  0
LINE
  5
C5
100
AcDbEntity
  8
0
  6
Continuous
 62
               6
100
AcDbLine
 10
572.82474069169803
 20
440.23091887448345
 30
0.0
 11
564.32144654189665
 21
448.73421302428505
 31
0.0
  0
LINE
  5
C6
100
AcDbEntity
  8
0
  6
Continuous
 62
               6
100
AcDbLine
 10
572.82474069169803
 20
444.47355956160277
 30
0.0
 11
563.94156335390471
 21
453.35673689939608
 31
0.0
  0
LINE
  5
C7
100
AcDbEntity
  8
0
  6
Continuous
 62
               6
100
AcDbLine
 10
572.82474069169803
 20
448.71620024872209
 30
0.0
 11
563.28058481441371
 21
458.26035612600629
 31
0.0
  0
LINE
  5
C8
100
AcDbEntity
  8
0
  6
Continuous
 62
               6
100
AcDbLine
 10
572.82474069169803
 20
452.95884093584141
 30
0.0
 11
567.52322550153303
 21
458.26035612600629
 31
0.0
  0
LINE
  5
C9
100
AcDbEntity
  8
0
  6
Continuous
 62
               6
100
AcDbLine
 10
572.82474069169803
 20
457.20148162296073
 30
0.0
 11
571.76586618865235
 21
458.26035612600629
 31
0.0
  0
LINE
  5
CA
100
AcDbEntity
  8
0
  6
Continuous
 62
               6
100
AcDbLine
 10
572.82474069169803
 20
440.53243406464844
 30
0.0
 11
570.55266275305598
 21
438.26035612600629
 31
0.0
  0
LINE
  5
CB
100
AcDbEntity
  8
0
  6
Continuous
 62
               6
100
AcDbLine
 10
572.82474069169803
 20
444.77507475176776
 30
0.0
 11
566.31002206593666
 21
438.26035612600629
 31
0.0
  0
LINE
  5
CC
100
AcDbEntity
  8
0
  6
Continuous
 62
               6
100
AcDbLine
 10
572.82474069169803
 20
449.01771543888708
 30
0.0
 11
563.13286588484311
 21
439.32584063203205
 31
0.0
  0
LINE
  5
CD
100
AcDbEntity
  8
0
  6
Continuous
 62
               6
100
AcDbLine
 10
572.82474069169803
 20
453.26035612600629
 30
0.0
 11
564.12313928149888
 21
444.55875471580703
 31
0.0
  0
LINE
  5
CE
100
AcDbEntity
  8
0
  6
Continuous
 62
               6
100
AcDbLine
 10
572.82474069169803
 20
457.50299681312561
 30
0.0
 11
564.31682073170828
 21
448.99507685313574
 31
0.0
  0
LINE
  5
CF
100
AcDbEntity
  8
0
  6
Continuous
 62
               6
100
AcDbLine
 10
569.33945931745939
 20
458.26035612600629
 30
0.0
 11
564.00403915779953
 21
452.92493596634631
 31
0.0
  0
LINE
  5
D0
100
AcDbEntity
  8
0
  6
Continuous
 62
               6
100
AcDbLine
 10
565.09681863034029
 20
458.26035612600629
 30
0.0
 11
563.31830034351447
 21
456.48183783918068
 31
0.0
  0
LINE
  5
D1
100
AcDbEntity
  8
0
  6
Continuous
 62
               7
100
AcDbLine
 10
570.82474069169803
 20
468.26035612600629
 30
0.0
 11
570.82474069169803
 21
498.26035612600629
 31
0.0
  0
LINE
  5
D2
100
AcDbEntity
  8
0
  6
Continuous
 62
               4
100
AcDbLine
 10
548.67522732287148
 20
360.4479260454109
 30
0.0
 11
555.53736603036441
 21
343.80723967974052
 31
0.0
  0
LINE
  5
D3
100
AcDbEntity
  8
0
  6
Continuous
 62
               4
100
AcDbLine
 10
502.14639354767388
 20
341.26077809687581
 30
0.0
 11
509.33082947006557
 21
323.83852098507589
 31
0.0
  0
LINE
  5
D4
100
AcDbEntity
  8
0
  6
Continuous
 62
               4
100
AcDbLine
 10
549.81891465353829
 20
357.67448426854367
 30
0.0
 11
503.2900808783408
 21
338.48733632000869
 31
0.0
  0
LINE
  5
D5
100
AcDbEntity
  8
0
  6
Continuous
 62
               4
100
AcDbLine
 10
533.82474069169803
 20
338.26035612600617
 30
0.0
 11
551.82474069169803
 21
338.26035612600617
 31
0.0
  0
LINE
  5
D6
100
AcDbEntity
  8
0
  6
Continuous
 62
               4
100
AcDbLine
 10
533.82474069169803
 20
438.26035612600629
 30
0.0
 11
551.82474069169803
 21
438.26035612600629
 31
0.0
  0
LINE
  5
D7
100
AcDbEntity
  8
0
  6
Continuous
 62
               4
100
AcDbLine
 10
536.82474069169803
 20
338.26035612600617
 30
0.0
 11
536.82474069169803
 21
438.26035612600629
 31
0.0
  0
LINE
  5
D8
100
AcDbEntity
  8
0
  6
Continuous
 62
               4
100
AcDbLine
 10
533.82474069169803
 20
458.26035612600629
 30
0.0
 11
557.28058481441371
 21
458.26035612600629
 31
0.0
  0
LINE
  5
D9
100
AcDbEntity
  8
0
  6
Continuous
 62
               4
100
AcDbLine
 10
536.82474069169803
 20
438.26035612600629
 30
0.0
 11
536.82474069169803
 21
458.26035612600629
 31
0.0
  0
LINE
  5
DA
100
AcDbEntity
  8
0
  6
Continuous
 62
               4
100
AcDbLine
 10
529.8763637344689
 20
323.08964380804559
 30
0.0
 11
486.41022184842421
 21
398.37520996367277
 31
0.0
  0
LINE
  5
DB
100
AcDbEntity
  8
0
  6
Continuous
 62
               4
100
AcDbLine
 10
557.82474069169803
 20
374.6816349290375
 30
0.0
 11
526.82474069169803
 21
428.37520996367277
 31
0.0
  0
LINE
  5
DC
100
AcDbEntity
  8
0
  6
Continuous
 62
               4
100
AcDbLine
 10
526.82474069169803
 20
428.37520996367277
 30
0.0
 11
445.20822852302484
 21
428.37520996367277
 31
0.0
  0
LINE
  5
DD
100
AcDbEntity
  8
0
  6
Continuous
 62
               4
100
AcDbLine
 10
486.41022184842421
 20
398.37520996367277
 30
0.0
 11
353.88257830151139
 21
398.37520996367277
 31
0.0
  0
LINE
  5
DE
100
AcDbEntity
  8
0
  6
Continuous
 62
               4
100
AcDbLine
 10
564.32474069169803
 20
448.26035612600629
 30
0.0
 11
547.0042326160094
 21
478.26035612600629
 31
0.0
  0
LINE
  5
DF
100
AcDbEntity
  8
0
  6
Continuous
 62
               4
100
AcDbLine
 10
547.0042326160094
 20
478.26035612600629
 30
0.0
 11
457.80344607263186
 21
478.26035612600629
 31
0.0
  0
LINE
  5
E0
100
AcDbEntity
  8
0
  6
Continuous
 62
               4
100
AcDbLine
 10
564.32474069169803
 20
448.26035612600629
 30
0.0
 11
558.53965220451914
 21
455.15475611407714
 31
0.0
  0
LINE
  5
E1
100
AcDbEntity
  8
0
  6
Continuous
 62
               4
100
AcDbLine
 10
564.32474069169803
 20
448.26035612600629
 30
0.0
 11
561.24655940176694
 21
456.71758971307952
 31
0.0
  0
LINE
  5
E2
100
AcDbEntity
  8
0
  6
Continuous
 62
               4
100
AcDbLine
 10
557.82474069169803
 20
374.6816349290375
 30
0.0
 11
552.03965220451914
 21
381.57603491710825
 31
0.0
  0
LINE
  5
E3
100
AcDbEntity
  8
0
  6
Continuous
 62
               4
100
AcDbLine
 10
557.82474069169803
 20
374.6816349290375
 30
0.0
 11
554.74655940176694
 21
383.13886851611051
 31
0.0
  0
LINE
  5
E4
100
AcDbEntity
  8
0
  6
Continuous
 62
               4
100
AcDbLine
 10
529.8763637344689
 20
323.08964380804559
 30
0.0
 11
524.09127524729001
 21
329.98404379611645
 31
0.0
  0
LINE
  5
E5
100
AcDbEntity
  8
0
  6
Continuous
 62
               4
100
AcDbLine
 10
529.8763637344689
 20
323.08964380804559
 30
0.0
 11
526.79818244453782
 21
331.54687739511871
 31
0.0
  0
LINE
  5
E6
100
AcDbEntity
  8
0
  6
Continuous
 62
               6
100
AcDbLine
 10
577.82474069169803
 20
422.44395529580197
 30
0.0
 11
627.82474069169803
 21
472.44395529580197
 31
0.0
  0
LINE
  5
E7
100
AcDbEntity
  8
0
  6
Continuous
 62
               6
100
AcDbLine
 10
577.82474069169803
 20
415.37288748393644
 30
0.0
 11
627.82474069169803
 21
465.37288748393644
 31
0.0
  0
LINE
  5
E8
100
AcDbEntity
  8
0
  6
Continuous
 62
               6
100
AcDbLine
 10
577.82474069169803
 20
408.30181967207091
 30
0.0
 11
627.82474069169803
 21
458.30181967207102
 31
0.0
  0
LINE
  5
E9
100
AcDbEntity
  8
0
  6
Continuous
 62
               6
100
AcDbLine
 10
577.82474069169803
 20
252.73832781103047
 30
0.0
 11
627.82474069169803
 21
302.73832781103044
 31
0.0
  0
LINE
  5
EA
100
AcDbEntity
  8
0
  6
Continuous
 62
               6
100
AcDbLine
 10
577.82474069169803
 20
245.66725999916494
 30
0.0
 11
627.82474069169803
 21
295.66725999916491
 31
0.0
  0
LINE
  5
EB
100
AcDbEntity
  8
0
  6
Continuous
 62
               6
100
AcDbLine
 10
577.82474069169803
 20
238.59619218729947
 30
0.0
 11
627.82474069169803
 21
288.59619218729949
 31
0.0
  0
LINE
  5
EC
100
AcDbEntity
  8
0
  6
Continuous
 62
               7
100
AcDbLine
 10
325.07675146889841
 20
254.86356089758263
 30
0.0
 11
323.3249562558762
 21
251.61012412438808
 31
0.0
  0
LINE
  5
ED
100
AcDbEntity
  8
0
  6
Continuous
 62
               7
100
AcDbLine
 10
296.17882191073545
 20
221.13744640874833
 30
0.0
 11
281.236428633885
 21
229.18309623638598
 31
0.0
  0
LINE
  5
EE
100
AcDbEntity
  8
0
  6
Continuous
 62
               7
100
AcDbLine
 10
294.59490984079537
 20
227.66903295507538
 30
0.0
 11
288.00937258848978
 21
231.21497942276736
 31
0.0
  0
LINE
  5
EF
100
AcDbEntity
  8
0
  6
Continuous
 62
               7
100
AcDbLine
 10
292.13453112991215
 20
235.87029532468594
 30
0.0
 11
289.93971675012494
 21
231.79408267125794
 31
0.0
  0
LINE
  5
F0
100
AcDbEntity
  8
0
  6
Continuous
 62
               7
100
AcDbLine
 10
290.10264794353077
 20
242.64323927929078
 30
0.0
 11
283.16695147162267
 21
229.76225308770725
 31
0.0
  0
LINE
  5
F1
100
AcDbEntity
  8
0
  6
Continuous
 62
               7
100
AcDbLine
 10
275.85999004692098
 20
215.04179684960408
 30
0.0
 11
260.91759677007047
 21
223.08744667724156
 31
0.0
  0
LINE
  5
F2
100
AcDbEntity
  8
0
  6
Continuous
 62
               7
100
AcDbLine
 10
282.63293400152588
 20
217.07368003598546
 30
0.0
 11
267.69054072467526
 21
225.11932986362305
 31
0.0
  0
LINE
  5
F3
100
AcDbEntity
  8
0
  6
Continuous
 62
               7
100
AcDbLine
 10
289.40587795613067
 20
219.10556322236695
 30
0.0
 11
274.46348467928004
 21
227.15121305000443
 31
0.0
  0
LINE
  5
F4
100
AcDbEntity
  8
0
  6
Continuous
 62
               7
100
AcDbLine
 10
284.43908774126947
 20
242.67226177929396
 30
0.0
 11
276.39365016481298
 21
227.73026269566438
 31
0.0
  0
LINE
  5
F5
100
AcDbEntity
  8
0
  6
Continuous
 62
               7
100
AcDbLine
 10
277.6663224627672
 20
240.64043219574327
 30
0.0
 11
269.62088488631059
 21
225.69843311211358
 31
0.0
  0
LINE
  5
F6
100
AcDbEntity
  8
0
  6
Continuous
 62
               7
100
AcDbLine
 10
270.89355718426475
 20
238.60860261219258
 30
0.0
 11
262.84811960780814
 21
223.66660352856283
 31
0.0
  0
LINE
  5
F7
100
AcDbEntity
  8
0
  6
Continuous
 62
               7
100
AcDbLine
 10
255.54115818310646
 20
208.94614729045978
 30
0.0
 11
252.42051406914936
 21
210.62644102335693
 31
0.0
  0
LINE
  5
F8
100
AcDbEntity
  8
0
  6
Continuous
 62
               7
100
AcDbLine
 10
262.31410213771136
 20
210.97803047684116
 30
0.0
 11
252.42051406914936
 21
216.30517878994723
 31
0.0
  0
LINE
  5
F9
100
AcDbEntity
  8
0
  6
Continuous
 62
               7
100
AcDbLine
 10
269.08704609231614
 20
213.00991366322253
 30
0.0
 11
254.14465281546569
 21
221.05556349086018
 31
0.0
  0
LINE
  5
FA
100
AcDbEntity
  8
0
  6
Continuous
 62
               7
100
AcDbLine
 10
264.12025587745495
 20
236.57661222014954
 30
0.0
 11
256.07481830099834
 21
221.63461313651996
 31
0.0
  0
LINE
  5
FB
100
AcDbEntity
  8
0
  6
Continuous
 62
               7
100
AcDbLine
 10
257.34749059895256
 20
234.54478263659897
 30
0.0
 11
252.42051406914936
 21
225.39439422157764
 31
0.0
  0
LINE
  5
FC
100
AcDbEntity
  8
0
  6
Continuous
 62
               4
100
AcDbLine
 10
294.08594518225226
 20
245.56631901158877
 30
0.0
 11
297.53411980904838
 21
234.07240358893498
 31
0.0
  0
LINE
  5
FD
100
AcDbEntity
  8
0
  6
Continuous
 62
               4
100
AcDbLine
 10
297.53411980904838
 20
234.07240358893498
 30
0.0
 11
300.98229443584455
 21
222.57848816628118
 31
0.0
  0
LINE
  5
FE
100
AcDbEntity
  8
0
  6
Continuous
 62
               4
100
AcDbLine
 10
316.49765377454986
 20
227.23309596789264
 30
0.0
 11
308.16456509312587
 21
255.01005823930618
 31
0.0
  0
LINE
  5
FF
100
AcDbEntity
  8
0
  6
Continuous
 62
               4
100
AcDbLine
 10
294.08594762498217
 20
245.56631974440776
 30
0.0
 11
292.64920819715047
 21
250.35545117051348
 31
0.0
  0
LINE
  5
100
100
AcDbEntity
  8
0
  6
Continuous
 62
               4
100
AcDbLine
 10
292.64920819715047
 20
250.35545117051348
 30
0.0
 11
290.9538554930935
 21
256.00662685070336
 31
0.0
  0
LINE
  5
101
100
AcDbEntity
  8
0
  6
Continuous
 62
               7
100
AcDbLine
 10
574.94761521463806
 20
315.22164029990347
 30
0.0
 11
572.47301868189288
 21
316.55407325078829
 31
0.0
  0
LINE
  5
102
100
AcDbEntity
  8
0
  6
Continuous
 62
               7
100
AcDbLine
 10
573.83605635033587
 20
443.94771430924652
 30
0.0
 11
573.83605635033541
 21
449.34771430924684
 31
0.0
  0
LINE
  5
103
100
AcDbEntity
  8
0
  6
Continuous
 62
               7
100
AcDbLine
 10
574.33605635033473
 20
451.14771430924634
 30
0.0
 11
574.33605635033518
 21
442.14771430924679
 31
0.0
  0
LINE
  5
104
100
AcDbEntity
  8
0
  6
Continuous
 62
               7
100
AcDbLine
 10
574.13605635033537
 20
449.64771430924668
 30
0.0
 11
574.3360563503345
 21
449.64771430924691
 31
0.0
  0
LINE
  5
105
100
AcDbEntity
  8
0
  6
Continuous
 62
               7
100
AcDbLine
 10
574.13605635033559
 20
443.64771430924588
 30
0.0
 11
574.3360563503345
 21
443.64771430924702
 31
0.0
  0
LINE
  5
106
100
AcDbEntity
  8
0
  6
Continuous
 62
               7
100
AcDbLine
 10
604.18231549700658
 20
448.14771430924782
 30
0.0
 11
605.83605635033609
 21
448.14771430924679
 31
0.0
  0
LINE
  5
107
100
AcDbEntity
  8
0
  6
Continuous
 62
               7
100
AcDbLine
 10
604.18231549700317
 20
445.1477143092485
 30
0.0
 11
605.83605635033496
 21
445.14771430924736
 31
0.0
  0
LINE
  5
108
100
AcDbEntity
  8
0
  6
Continuous
 62
               7
100
AcDbLine
 10
574.78951286585152
 20
451.14771430924691
 30
0.0
 11
574.33605635033473
 21
451.14771430924634
 31
0.0
  0
LINE
  5
109
100
AcDbEntity
  8
0
  6
Continuous
 62
               7
100
AcDbLine
 10
574.78951286585175
 20
442.14771430924725
 30
0.0
 11
574.33605635033518
 21
442.14771430924679
 31
0.0
  0
LINE
  5
10A
100
AcDbEntity
  8
0
  6
Continuous
 62
               7
100
AcDbLine
 10
575.83605635033382
 20
449.14771430924725
 30
0.0
 11
593.33605635033541
 21
449.14771430924691
 31
0.0
  0
LINE
  5
10B
100
AcDbEntity
  8
0
  6
Continuous
 62
               7
100
AcDbLine
 10
575.8360563503345
 20
444.14771430924668
 30
0.0
 11
593.33605635033587
 21
444.14771430924702
 31
0.0
  0
LINE
  5
10C
100
AcDbEntity
  8
0
  6
Continuous
 62
               7
100
AcDbLine
 10
575.46861261595359
 20
450.61748924677272
 30
0.0
 11
575.83605635033382
 21
449.14771430924725
 31
0.0
  0
LINE
  5
10D
100
AcDbEntity
  8
0
  6
Continuous
 62
               7
100
AcDbLine
 10
575.46861261595336
 20
442.67793937172155
 30
0.0
 11
575.8360563503345
 21
444.14771430924668
 31
0.0
  0
LINE
  5
10E
100
AcDbEntity
  8
0
  6
Continuous
 62
               7
100
AcDbLine
 10
606.38816655210076
 20
449.55209197756994
 30
0.0
 11
606.56181472976687
 21
448.56728422455819
 31
0.0
  0
LINE
  5
10F
100
AcDbEntity
  8
0
  6
Continuous
 62
               7
100
AcDbLine
 10
606.56181472976664
 20
444.72814439393642
 30
0.0
 11
598.79807573286644
 21
446.09710105026875
 31
0.0
  0
LINE
  5
110
100
AcDbEntity
  8
0
  6
Continuous
 62
               7
100
AcDbLine
 10
606.56181472976687
 20
448.56728422455819
 30
0.0
 11
598.79807573286757
 21
447.19832756822598
 31
0.0
  0
LINE
  5
111
100
AcDbEntity
  8
0
  6
Continuous
 62
               7
100
AcDbLine
 10
606.38816655210098
 20
443.74333664092364
 30
0.0
 11
606.56181472976664
 21
444.72814439393642
 31
0.0
  0
LINE
  5
112
100
AcDbEntity
  8
0
  6
Continuous
 62
               7
100
AcDbLine
 10
604.7373067449148
 20
450.27642746408253
 30
0.0
 11
598.33605635033564
 21
449.14771430924736
 31
0.0
  0
LINE
  5
113
100
AcDbEntity
  8
0
  6
Continuous
 62
               7
100
AcDbLine
 10
604.73730674491549
 20
443.01900115441197
 30
0.0
 11
598.33605635033518
 21
444.14771430924725
 31
0.0
  0
LINE
  5
114
100
AcDbEntity
  8
0
  6
Continuous
 62
               7
100
AcDbLine
 10
606.38816655210098
 20
443.74333664092364
 30
0.0
 11
604.73730674491549
 21
443.01900115441197
 31
0.0
  0
LINE
  5
115
100
AcDbEntity
  8
0
  6
Continuous
 62
               7
100
AcDbLine
 10
606.38816655210076
 20
449.55209197756994
 30
0.0
 11
604.7373067449148
 21
450.27642746408253
 31
0.0
  0
LINE
  5
116
100
AcDbEntity
  8
0
  6
Continuous
 62
               7
100
AcDbLine
 10
596.33605635033609
 20
449.14771430924759
 30
0.0
 11
596.33605635033632
 21
448.64771430924725
 31
0.0
  0
LINE
  5
117
100
AcDbEntity
  8
0
  6
Continuous
 62
               7
100
AcDbLine
 10
593.33605635033541
 20
449.14771430924691
 30
0.0
 11
593.33605635033632
 21
448.64771430924782
 31
0.0
  0
LINE
  5
118
100
AcDbEntity
  8
0
  6
Continuous
 62
               7
100
AcDbLine
 10
594.33605635033564
 20
449.14771430924748
 30
0.0
 11
594.33605635033609
 21
448.64771430924816
 31
0.0
  0
LINE
  5
119
100
AcDbEntity
  8
0
  6
Continuous
 62
               7
100
AcDbLine
 10
595.33605635033541
 20
449.14771430924793
 30
0.0
 11
595.33605635033609
 21
448.64771430924668
 31
0.0
  0
LINE
  5
11A
100
AcDbEntity
  8
0
  6
Continuous
 62
               7
100
AcDbLine
 10
593.33605635033518
 20
444.64771430924816
 30
0.0
 11
594.33605635033632
 21
444.64771430924725
 31
0.0
  0
LINE
  5
11B
100
AcDbEntity
  8
0
  6
Continuous
 62
               7
100
AcDbLine
 10
593.33605635033632
 20
448.64771430924782
 30
0.0
 11
594.33605635033609
 21
448.64771430924816
 31
0.0
  0
LINE
  5
11C
100
AcDbEntity
  8
0
  6
Continuous
 62
               7
100
AcDbLine
 10
596.33605635033587
 20
444.64771430924702
 30
0.0
 11
596.33605635033564
 21
444.14771430924736
 31
0.0
  0
LINE
  5
11D
100
AcDbEntity
  8
0
  6
Continuous
 62
               7
100
AcDbLine
 10
593.33605635033518
 20
444.64771430924816
 30
0.0
 11
593.33605635033587
 21
444.14771430924702
 31
0.0
  0
LINE
  5
11E
100
AcDbEntity
  8
0
  6
Continuous
 62
               7
100
AcDbLine
 10
594.33605635033632
 20
444.64771430924725
 30
0.0
 11
594.33605635033632
 21
444.14771430924679
 31
0.0
  0
LINE
  5
11F
100
AcDbEntity
  8
0
  6
Continuous
 62
               7
100
AcDbLine
 10
595.33605635033587
 20
444.64771430924748
 30
0.0
 11
595.33605635033655
 21
444.14771430924736
 31
0.0
  0
LINE
  5
120
100
AcDbEntity
  8
0
  6
Continuous
 62
               7
100
AcDbLine
 10
596.33605635033609
 20
449.14771430924759
 30
0.0
 11
598.33605635033564
 21
449.14771430924736
 31
0.0
  0
LINE
  5
121
100
AcDbEntity
  8
0
  6
Continuous
 62
               7
100
AcDbLine
 10
596.33605635033564
 20
444.14771430924736
 30
0.0
 11
598.33605635033518
 21
444.14771430924725
 31
0.0
  0
LINE
  5
122
100
AcDbEntity
  8
0
  6
Continuous
 62
               7
100
AcDbLine
 10
594.33605635033564
 20
449.14771430924748
 30
0.0
 11
595.33605635033541
 21
449.14771430924793
 31
0.0
  0
LINE
  5
123
100
AcDbEntity
  8
0
  6
Continuous
 62
               7
100
AcDbLine
 10
594.33605635033632
 20
444.14771430924679
 30
0.0
 11
595.33605635033655
 21
444.14771430924736
 31
0.0
  0
LINE
  5
124
100
AcDbEntity
  8
0
  6
Continuous
 62
               7
100
AcDbLine
 10
595.33605635033587
 20
444.64771430924748
 30
0.0
 11
596.33605635033587
 21
444.64771430924702
 31
0.0
  0
LINE
  5
125
100
AcDbEntity
  8
0
  6
Continuous
 62
               7
100
AcDbLine
 10
595.33605635033609
 20
448.64771430924668
 30
0.0
 11
596.33605635033632
 21
448.64771430924725
 31
0.0
  0
LINE
  5
126
100
AcDbEntity
  8
0
  6
Continuous
 62
               7
100
AcDbLine
 10
605.57359035975719
 20
448.14771430924804
 30
0.0
 11
605.83605635033496
 21
445.14771430924736
 31
0.0
  0
LINE
  5
127
100
AcDbEntity
  8
0
  6
Continuous
 62
               7
100
AcDbLine
 10
604.56977052221464
 20
448.14771430924748
 30
0.0
 11
604.8322365127915
 21
445.14771430924827
 31
0.0
  0
LINE
  5
128
100
AcDbEntity
  8
0
  6
Continuous
 62
               7
100
AcDbLine
 10
603.57531465113539
 20
448.04068368280707
 30
0.0
 11
603.82287167490995
 21
445.21109395313181
 31
0.0
  0
LINE
  5
129
100
AcDbEntity
  8
0
  6
Continuous
 62
               7
100
AcDbLine
 10
602.58674509249431
 20
447.86637219731176
 30
0.0
 11
602.80332366593484
 21
445.39086777524165
 31
0.0
  0
LINE
  5
12A
100
AcDbEntity
  8
0
  6
Continuous
 62
               7
100
AcDbLine
 10
601.59817553385437
 20
447.692060711816
 30
0.0
 11
601.78377565695746
 21
445.57064159735239
 31
0.0
  0
LINE
  5
12B
100
AcDbEntity
  8
0
  6
Continuous
 62
               7
100
AcDbLine
 10
600.60960597521557
 20
447.5177492263216
 30
0.0
 11
600.76422764798076
 21
445.75041541946257
 31
0.0
  0
LINE
  5
12C
100
AcDbEntity
  8
0
  6
Continuous
 62
               7
100
AcDbLine
 10
599.62103641657404
 20
447.34343774082606
 30
0.0
 11
599.74467963900452
 21
445.93018924157195
 31
0.0
  0
LINE
  5
12D
100
AcDbEntity
  8
0
  6
Continuous
 62
               7
100
AcDbLine
 10
598.6324668579357
 20
447.16912625533007
 30
0.0
 11
598.72513163002918
 21
446.10996306368259
 31
0.0
  0
LINE
  5
12E
100
AcDbEntity
  8
0
  6
Continuous
 62
               7
100
AcDbLine
 10
609.83605635033518
 20
446.89771430924861
 30
0.0
 11
609.83605635033564
 21
446.39771430924827
 31
0.0
  0
LINE
  5
12F
100
AcDbEntity
  8
0
  6
Continuous
 62
               7
100
AcDbLine
 10
605.83605635033496
 20
445.14771430924736
 30
0.0
 11
609.83605635033564
 21
446.39771430924827
 31
0.0
  0
LINE
  5
130
100
AcDbEntity
  8
0
  6
Continuous
 62
               7
100
AcDbLine
 10
609.83605635033518
 20
446.89771430924861
 30
0.0
 11
605.83605635033609
 21
448.14771430924679
 31
0.0
  0
LINE
  5
131
100
AcDbEntity
  8
0
  6
Continuous
 62
               7
100
AcDbLine
 10
573.92583730529486
 20
415.97175187567541
 30
0.0
 11
573.92583730529441
 21
421.37175187567573
 31
0.0
  0
LINE
  5
132
100
AcDbEntity
  8
0
  6
Continuous
 62
               7
100
AcDbLine
 10
574.42583730529373
 20
423.17175187567534
 30
0.0
 11
574.42583730529418
 21
414.1717518756758
 31
0.0
  0
LINE
  5
133
100
AcDbEntity
  8
0
  6
Continuous
 62
               7
100
AcDbLine
 10
574.22583730529436
 20
421.67175187567568
 30
0.0
 11
574.4258373052935
 21
421.67175187567591
 31
0.0
  0
LINE
  5
134
100
AcDbEntity
  8
0
  6
Continuous
 62
               7
100
AcDbLine
 10
574.22583730529459
 20
415.671751875675
 30
0.0
 11
574.4258373052935
 21
415.67175187567591
 31
0.0
  0
LINE
  5
135
100
AcDbEntity
  8
0
  6
Continuous
 62
               7
100
AcDbLine
 10
604.27209645196535
 20
420.17175187567682
 30
0.0
 11
605.92583730529509
 21
420.17175187567568
 31
0.0
  0
LINE
  5
136
100
AcDbEntity
  8
0
  6
Continuous
 62
               7
100
AcDbLine
 10
604.27209645196217
 20
417.1717518756775
 30
0.0
 11
605.92583730529373
 21
417.17175187567625
 31
0.0
  0
LINE
  5
137
100
AcDbEntity
  8
0
  6
Continuous
 62
               7
100
AcDbLine
 10
574.87929382081052
 20
423.17175187567591
 30
0.0
 11
574.42583730529373
 21
423.17175187567534
 31
0.0
  0
LINE
  5
138
100
AcDbEntity
  8
0
  6
Continuous
 62
               7
100
AcDbLine
 10
574.87929382081074
 20
414.17175187567614
 30
0.0
 11
574.42583730529418
 21
414.1717518756758
 31
0.0
  0
LINE
  5
139
100
AcDbEntity
  8
0
  6
Continuous
 62
               7
100
AcDbLine
 10
575.92583730529282
 20
421.17175187567614
 30
0.0
 11
593.42583730529418
 21
421.17175187567591
 31
0.0
  0
LINE
  5
13A
100
AcDbEntity
  8
0
  6
Continuous
 62
               7
100
AcDbLine
 10
575.9258373052935
 20
416.17175187567568
 30
0.0
 11
593.42583730529464
 21
416.17175187567591
 31
0.0
  0
LINE
  5
13B
100
AcDbEntity
  8
0
  6
Continuous
 62
               7
100
AcDbLine
 10
575.55839357091259
 20
422.64152681320161
 30
0.0
 11
575.92583730529282
 21
421.17175187567614
 31
0.0
  0
LINE
  5
13C
100
AcDbEntity
  8
0
  6
Continuous
 62
               7
100
AcDbLine
 10
575.55839357091236
 20
414.70197693815055
 30
0.0
 11
575.9258373052935
 21
416.17175187567568
 31
0.0
  0
LINE
  5
13D
100
AcDbEntity
  8
0
  6
Continuous
 62
               7
100
AcDbLine
 10
606.47794750705975
 20
421.57612954399883
 30
0.0
 11
606.65159568472563
 21
420.59132179098719
 31
0.0
  0
LINE
  5
13E
100
AcDbEntity
  8
0
  6
Continuous
 62
               7
100
AcDbLine
 10
606.65159568472563
 20
416.75218196036531
 30
0.0
 11
598.88785668782543
 21
418.12113861669764
 31
0.0
  0
LINE
  5
13F
100
AcDbEntity
  8
0
  6
Continuous
 62
               7
100
AcDbLine
 10
606.65159568472563
 20
420.59132179098719
 30
0.0
 11
598.88785668782634
 21
419.22236513465486
 31
0.0
  0
LINE
  5
140
100
AcDbEntity
  8
0
  6
Continuous
 62
               7
100
AcDbLine
 10
606.47794750705975
 20
415.76737420735253
 30
0.0
 11
606.65159568472563
 21
416.75218196036531
 31
0.0
  0
LINE
  5
141
100
AcDbEntity
  8
0
  6
Continuous
 62
               7
100
AcDbLine
 10
604.8270876998738
 20
422.30046503051153
 30
0.0
 11
598.42583730529441
 21
421.17175187567636
 31
0.0
  0
LINE
  5
142
100
AcDbEntity
  8
0
  6
Continuous
 62
               7
100
AcDbLine
 10
604.82708769987426
 20
415.04303872084097
 30
0.0
 11
598.42583730529395
 21
416.17175187567614
 31
0.0
  0
LINE
  5
143
100
AcDbEntity
  8
0
  6
Continuous
 62
               7
100
AcDbLine
 10
606.47794750705975
 20
415.76737420735253
 30
0.0
 11
604.82708769987426
 21
415.04303872084097
 31
0.0
  0
LINE
  5
144
100
AcDbEntity
  8
0
  6
Continuous
 62
               7
100
AcDbLine
 10
606.47794750705975
 20
421.57612954399883
 30
0.0
 11
604.8270876998738
 21
422.30046503051153
 31
0.0
  0
LINE
  5
145
100
AcDbEntity
  8
0
  6
Continuous
 62
               7
100
AcDbLine
 10
596.42583730529486
 20
421.17175187567659
 30
0.0
 11
596.42583730529509
 21
420.67175187567625
 31
0.0
  0
LINE
  5
146
100
AcDbEntity
  8
0
  6
Continuous
 62
               7
100
AcDbLine
 10
593.42583730529418
 20
421.17175187567591
 30
0.0
 11
593.42583730529509
 21
420.67175187567682
 31
0.0
  0
LINE
  5
147
100
AcDbEntity
  8
0
  6
Continuous
 62
               7
100
AcDbLine
 10
594.42583730529441
 20
421.17175187567648
 30
0.0
 11
594.42583730529486
 21
420.67175187567705
 31
0.0
  0
LINE
  5
148
100
AcDbEntity
  8
0
  6
Continuous
 62
               7
100
AcDbLine
 10
595.42583730529418
 20
421.17175187567682
 30
0.0
 11
595.42583730529486
 21
420.67175187567568
 31
0.0
  0
LINE
  5
149
100
AcDbEntity
  8
0
  6
Continuous
 62
               7
100
AcDbLine
 10
593.42583730529395
 20
416.67175187567716
 30
0.0
 11
594.42583730529509
 21
416.67175187567625
 31
0.0
  0
LINE
  5
14A
100
AcDbEntity
  8
0
  6
Continuous
 62
               7
100
AcDbLine
 10
593.42583730529509
 20
420.67175187567682
 30
0.0
 11
594.42583730529486
 21
420.67175187567705
 31
0.0
  0
LINE
  5
14B
100
AcDbEntity
  8
0
  6
Continuous
 62
               7
100
AcDbLine
 10
596.42583730529464
 20
416.67175187567591
 30
0.0
 11
596.42583730529441
 21
416.17175187567636
 31
0.0
  0
LINE
  5
14C
100
AcDbEntity
  8
0
  6
Continuous
 62
               7
100
AcDbLine
 10
593.42583730529395
 20
416.67175187567716
 30
0.0
 11
593.42583730529464
 21
416.17175187567591
 31
0.0
  0
LINE
  5
14D
100
AcDbEntity
  8
0
  6
Continuous
 62
               7
100
AcDbLine
 10
594.42583730529509
 20
416.67175187567625
 30
0.0
 11
594.42583730529509
 21
416.1717518756758
 31
0.0
  0
LINE
  5
14E
100
AcDbEntity
  8
0
  6
Continuous
 62
               7
100
AcDbLine
 10
595.42583730529464
 20
416.67175187567648
 30
0.0
 11
595.42583730529532
 21
416.17175187567625
 31
0.0
  0
LINE
  5
14F
100
AcDbEntity
  8
0
  6
Continuous
 62
               7
100
AcDbLine
 10
596.42583730529486
 20
421.17175187567659
 30
0.0
 11
598.42583730529441
 21
421.17175187567636
 31
0.0
  0
LINE
  5
150
100
AcDbEntity
  8
0
  6
Continuous
 62
               7
100
AcDbLine
 10
596.42583730529441
 20
416.17175187567636
 30
0.0
 11
598.42583730529395
 21
416.17175187567614
 31
0.0
  0
LINE
  5
151
100
AcDbEntity
  8
0
  6
Continuous
 62
               7
100
AcDbLine
 10
594.42583730529441
 20
421.17175187567648
 30
0.0
 11
595.42583730529418
 21
421.17175187567682
 31
0.0
  0
LINE
  5
152
100
AcDbEntity
  8
0
  6
Continuous
 62
               7
100
AcDbLine
 10
594.42583730529509
 20
416.1717518756758
 30
0.0
 11
595.42583730529532
 21
416.17175187567625
 31
0.0
  0
LINE
  5
153
100
AcDbEntity
  8
0
  6
Continuous
 62
               7
100
AcDbLine
 10
595.42583730529464
 20
416.67175187567648
 30
0.0
 11
596.42583730529464
 21
416.67175187567591
 31
0.0
  0
LINE
  5
154
100
AcDbEntity
  8
0
  6
Continuous
 62
               7
100
AcDbLine
 10
595.42583730529486
 20
420.67175187567568
 30
0.0
 11
596.42583730529509
 21
420.67175187567625
 31
0.0
  0
LINE
  5
155
100
AcDbEntity
  8
0
  6
Continuous
 62
               7
100
AcDbLine
 10
605.66337131471596
 20
420.17175187567705
 30
0.0
 11
605.92583730529373
 21
417.17175187567625
 31
0.0
  0
LINE
  5
156
100
AcDbEntity
  8
0
  6
Continuous
 62
               7
100
AcDbLine
 10
604.65955147717364
 20
420.17175187567636
 30
0.0
 11
604.92201746775027
 21
417.17175187567727
 31
0.0
  0
LINE
  5
157
100
AcDbEntity
  8
0
  6
Continuous
 62
               7
100
AcDbLine
 10
603.66509560609438
 20
420.06472124923596
 30
0.0
 11
603.91265262986872
 21
417.23513151956081
 31
0.0
  0
LINE
  5
158
100
AcDbEntity
  8
0
  6
Continuous
 62
               7
100
AcDbLine
 10
602.67652604745331
 20
419.89040976374065
 30
0.0
 11
602.89310462089384
 21
417.41490534167065
 31
0.0
  0
LINE
  5
159
100
AcDbEntity
  8
0
  6
Continuous
 62
               7
100
AcDbLine
 10
601.68795648881337
 20
419.716098278245
 30
0.0
 11
601.87355661191623
 21
417.59467916378139
 31
0.0
  0
LINE
  5
15A
100
AcDbEntity
  8
0
  6
Continuous
 62
               7
100
AcDbLine
 10
600.69938693017434
 20
419.5417867927506
 30
0.0
 11
600.85400860293976
 21
417.77445298589157
 31
0.0
  0
LINE
  5
15B
100
AcDbEntity
  8
0
  6
Continuous
 62
               7
100
AcDbLine
 10
599.71081737153281
 20
419.36747530725506
 30
0.0
 11
599.83446059396351
 21
417.95422680800084
 31
0.0
  0
LINE
  5
15C
100
AcDbEntity
  8
0
  6
Continuous
 62
               7
100
AcDbLine
 10
598.72224781289447
 20
419.19316382175907
 30
0.0
 11
598.81491258498818
 21
418.13400063011147
 31
0.0
  0
LINE
  5
15D
100
AcDbEntity
  8
0
  6
Continuous
 62
               7
100
AcDbLine
 10
609.92583730529395
 20
418.9217518756775
 30
0.0
 11
609.92583730529441
 21
418.42175187567716
 31
0.0
  0
LINE
  5
15E
100
AcDbEntity
  8
0
  6
Continuous
 62
               7
100
AcDbLine
 10
605.92583730529373
 20
417.17175187567625
 30
0.0
 11
609.92583730529441
 21
418.42175187567716
 31
0.0
  0
LINE
  5
15F
100
AcDbEntity
  8
0
  6
Continuous
 62
               7
100
AcDbLine
 10
609.92583730529395
 20
418.9217518756775
 30
0.0
 11
605.92583730529509
 21
420.17175187567568
 31
0.0
  0
LINE
  5
160
100
AcDbEntity
  8
0
  6
DASHED
 62
               6
100
AcDbLine
 10
576.32474069169803
 20
332.32601896620451
 30
0.0
 11
576.32474069169803
 21
458.26035612600629
 31
0.0
  0
LINE
  5
161
100
AcDbEntity
  8
0
  6
Continuous
 62
               2
100
AcDbLine
 10
574.82474069169803
 20
435.26035612600629
 30
0.0
 11
574.82474069169803
 21
335.00811091887772
 31
0.0
  0
LINE
  5
162
100
AcDbEntity
  8
0
  6
Continuous
 62
               7
100
AcDbLine
 10
561.42554844689926
 20
332.5543992217747
 30
0.0
 11
560.41986874984218
 21
330.68664933632101
 31
0.0
  0
LINE
  5
163
100
AcDbEntity
  8
0
  6
Continuous
 62
               7
100
AcDbLine
 10
563.45737803044995
 20
333.16394809683982
 30
0.0
 11
562.45169833339287
 21
331.29619821138624
 31
0.0
  0
LINE
  5
164
100
AcDbEntity
  8
0
  6
Continuous
 62
               7
100
AcDbLine
 10
565.48920761400041
 20
333.77349697190516
 30
0.0
 11
564.48352791694356
 21
331.90574708645136
 31
0.0
  0
LINE
  5
165
100
AcDbEntity
  8
0
  6
Continuous
 62
               7
100
AcDbLine
 10
567.5210371975511
 20
334.38304584697028
 30
0.0
 11
566.51535750049425
 21
332.5152959615167
 31
0.0
  0
LINE
  5
166
100
AcDbEntity
  8
0
  6
Continuous
 62
               7
100
AcDbLine
 10
569.55286678110178
 20
334.99259472203551
 30
0.0
 11
568.54718708404494
 21
333.12484483658181
 31
0.0
  0
LINE
  5
167
100
AcDbEntity
  8
0
  6
Continuous
 62
               7
100
AcDbLine
 10
569.97067675995163
 20
335.11793771569046
 30
0.0
 11
570.40169858830109
 21
333.68119828785871
 31
0.0
  0
LINE
  5
168
100
AcDbEntity
  8
0
  6
Continuous
 62
               7
100
AcDbLine
 10
548.10987432423758
 20
326.80676004495126
 30
0.0
 11
556.73031089122765
 21
298.07197148831654
 31
0.0
  0
LINE
  5
169
100
AcDbEntity
  8
0
  6
Continuous
 62
               7
100
AcDbLine
 10
544.99693889726882
 20
328.48295604408827
 30
0.0
 11
545.14061284005197
 21
328.00404290147765
 31
0.0
  0
LINE
  5
16A
100
AcDbEntity
  8
0
  6
Continuous
 62
               7
100
AcDbLine
 10
552.89900575034335
 20
328.2434994727829
 30
0.0
 11
561.51944231733341
 21
299.50871091614829
 31
0.0
  0
LINE
  5
16B
100
AcDbEntity
  8
0
  6
Continuous
 62
               7
100
AcDbLine
 10
554.57520174948058
 20
331.35643489975166
 30
0.0
 11
554.71887569226351
 21
330.87752175714104
 31
0.0
  0
LINE
  5
16C
100
AcDbEntity
  8
0
  6
Continuous
 62
               7
100
AcDbLine
 10
544.99693889726882
 20
328.48295604408827
 30
0.0
 11
554.57520174948058
 21
331.35643489975166
 31
0.0
  0
LINE
  5
16D
100
AcDbEntity
  8
0
  6
Continuous
 62
               7
100
AcDbLine
 10
548.10987432423758
 20
326.80676004495126
 30
0.0
 11
552.89900575034335
 21
328.2434994727829
 31
0.0
  0
LINE
  5
16E
100
AcDbEntity
  8
0
  6
Continuous
 62
               7
100
AcDbLine
 10
545.14061284005197
 20
328.00404290147765
 30
0.0
 11
548.10987432423758
 21
326.80676004495126
 31
0.0
  0
LINE
  5
16F
100
AcDbEntity
  8
0
  6
Continuous
 62
               7
100
AcDbLine
 10
552.89900575034335
 20
328.2434994727829
 30
0.0
 11
554.71887569226374
 21
330.87752175714104
 31
0.0
  0
LINE
  5
170
100
AcDbEntity
  8
0
  6
Continuous
 62
               7
100
AcDbLine
 10
545.14061284005197
 20
328.00404290147765
 30
0.0
 11
554.71887569226374
 21
330.87752175714104
 31
0.0
  0
LINE
  5
171
100
AcDbEntity
  8
0
  6
Continuous
 62
               7
100
AcDbLine
 10
556.73031089122765
 20
298.07197148831654
 30
0.0
 11
559.55589843262987
 21
297.35360177440066
 31
0.0
  0
LINE
  5
172
100
AcDbEntity
  8
0
  6
Continuous
 62
               7
100
AcDbLine
 10
561.51944231733341
 20
299.50871091614829
 30
0.0
 11
559.55589843262987
 21
297.35360177440066
 31
0.0
  0
LINE
  5
173
100
AcDbEntity
  8
0
  6
Continuous
 62
               7
100
AcDbLine
 10
550.12130952320194
 20
320.10197604840312
 30
0.0
 11
554.3357451781751
 21
323.45436804667702
 31
0.0
  0
LINE
  5
174
100
AcDbEntity
  8
0
  6
Continuous
 62
               7
100
AcDbLine
 10
550.69600529433455
 20
318.18632347796085
 30
0.0
 11
554.91044094930771
 21
321.53871547623487
 31
0.0
  0
LINE
  5
175
100
AcDbEntity
  8
0
  6
Continuous
 62
               7
100
AcDbLine
 10
551.27070106546716
 20
316.27067090751859
 30
0.0
 11
555.48513672044032
 21
319.62306290579261
 31
0.0
  0
LINE
  5
176
100
AcDbEntity
  8
0
  6
Continuous
 62
               7
100
AcDbLine
 10
551.8453968366
 20
314.3550183370761
 30
0.0
 11
556.05983249157293
 21
317.70741033535012
 31
0.0
  0
LINE
  5
177
100
AcDbEntity
  8
0
  6
Continuous
 62
               7
100
AcDbLine
 10
552.42009260773261
 20
312.43936576663395
 30
0.0
 11
556.63452826270554
 21
315.79175776490786
 31
0.0
  0
LINE
  5
178
100
AcDbEntity
  8
0
  6
Continuous
 62
               7
100
AcDbLine
 10
552.99478837886522
 20
310.52371319619169
 30
0.0
 11
557.20922403383838
 21
313.87610519446559
 31
0.0
  0
LINE
  5
179
100
AcDbEntity
  8
0
  6
Continuous
 62
               7
100
AcDbLine
 10
553.56948414999783
 20
308.6080606257492
 30
0.0
 11
557.78391980497099
 21
311.96045262402322
 31
0.0
  0
LINE
  5
17A
100
AcDbEntity
  8
0
  6
Continuous
 62
               7
100
AcDbLine
 10
554.14417992113044
 20
306.69240805530706
 30
0.0
 11
558.3586155761036
 21
310.04480005358096
 31
0.0
  0
LINE
  5
17B
100
AcDbEntity
  8
0
  6
Continuous
 62
               7
100
AcDbLine
 10
554.71887569226305
 20
304.77675548486479
 30
0.0
 11
557.24753708524713
 21
306.78819068382916
 31
0.0
  0
LINE
  5
17C
100
AcDbEntity
  8
0
  6
Continuous
 62
               7
100
AcDbLine
 10
560.89685873960411
 20
299.84393842376039
 30
0.0
 11
558.51186778173906
 21
307.79390828331134
 31
0.0
  0
LINE
  5
17D
100
AcDbEntity
  8
0
  6
Continuous
 62
               7
100
AcDbLine
 10
557.24753708524713
 20
306.78819068382916
 30
0.0
 11
557.95153940488467
 21
308.0956235631561
 31
0.0
  0
LINE
  5
17E
100
AcDbEntity
  8
0
  6
Continuous
 62
               7
100
AcDbLine
 10
558.51186778173906
 20
307.79390828331134
 30
0.0
 11
557.95153940488467
 21
308.0956235631561
 31
0.0
  0
LINE
  5
17F
100
AcDbEntity
  8
0
  6
Continuous
 62
               7
100
AcDbLine
 10
558.51186778173906
 20
307.79390828331134
 30
0.0
 11
558.93331134723621
 21
308.12914748313881
 31
0.0
  0
LINE
  5
180
100
AcDbEntity
  8
0
  6
Continuous
 62
               7
100
AcDbLine
 10
561.51944231733341
 20
299.50871091614829
 30
0.0
 11
560.89685523193953
 21
299.84395011597564
 31
0.0
  0
LINE
  5
181
100
AcDbEntity
  8
0
  6
Continuous
 62
               4
100
AcDbLine
 10
714.78679656440374
 20
21.213203435596483
 30
0.0
 11
714.78679656440374
 21
41.213203435596483
 31
0.0
  0
LINE
  5
182
100
AcDbEntity
  8
0
  6
Continuous
 62
               4
100
AcDbLine
 10
864.78679656440374
 20
21.213203435596483
 30
0.0
 11
714.78679656440374
 21
21.213203435596483
 31
0.0
  0
LINE
  5
183
100
AcDbEntity
  8
0
  6
Continuous
 62
               4
100
AcDbLine
 10
864.78679656440374
 20
41.213203435596483
 30
0.0
 11
864.78679656440374
 21
21.213203435596483
 31
0.0
  0
LINE
  5
184
100
AcDbEntity
  8
0
  6
Continuous
 62
               4
100
AcDbLine
 10
864.78679656440374
 20
41.213203435596483
 30
0.0
 11
714.78679656440374
 21
41.213203435596483
 31
0.0
  0
LINE
  5
185
100
AcDbEntity
  8
0
  6
Continuous
 62
               4
100
AcDbLine
 10
14.142135623730949
 20
595.85786437626905
 30
0.0
 11
14.142135623730949
 21
615.85786437626905
 31
0.0
  0
LINE
  5
186
100
AcDbEntity
  8
0
  6
Continuous
 62
               4
100
AcDbLine
 10
164.14213562373095
 20
595.85786437626905
 30
0.0
 11
14.142135623730949
 21
595.85786437626905
 31
0.0
  0
LINE
  5
187
100
AcDbEntity
  8
0
  6
Continuous
 62
               4
100
AcDbLine
 10
164.14213562373095
 20
615.85786437626905
 30
0.0
 11
164.14213562373095
 21
595.85786437626905
 31
0.0
  0
LINE
  5
188
100
AcDbEntity
  8
0
  6
Continuous
 62
               4
100
AcDbLine
 10
164.14213562373095
 20
615.85786437626905
 30
0.0
 11
14.142135623730949
 21
615.85786437626905
 31
0.0
  0
CIRCLE
  5
189
100
AcDbEntity
  8
0
  6
Continuous
 62
               4
100
AcDbCircle
 10
448.1854094835806
 20
273.00360658594821
 30
0.0
 40
1.5
  0
CIRCLE
  5
18A
100
AcDbEntity
  8
0
  6
Continuous
 62
               4
100
AcDbCircle
 10
442.02002830116743
 20
283.68236004191704
 30
0.0
 40
1.5
  0
CIRCLE
  5
18B
100
AcDbEntity
  8
0
  6
Continuous
 62
               4
100
AcDbCircle
 10
437.90977417955861
 20
290.80152901256281
 30
0.0
 40
1.5
  0
CIRCLE
  5
18C
100
AcDbEntity
  8
0
  6
Continuous
 62
               4
100
AcDbCircle
 10
436.36842888395535
 20
293.47121737655505
 30
0.0
 40
1.5
  0
CIRCLE
  5
18D
100
AcDbEntity
  8
0
  6
Continuous
 62
               4
100
AcDbCircle
 10
549.81891465353829
 20
357.67448426854367
 30
0.0
 40
1.5
  0
CIRCLE
  5
18E
100
AcDbEntity
  8
0
  6
Continuous
 62
               4
100
AcDbCircle
 10
503.2900808783408
 20
338.48733632000869
 30
0.0
 40
1.5
  0
CIRCLE
  5
18F
100
AcDbEntity
  8
0
  6
Continuous
 62
               4
100
AcDbCircle
 10
536.82474069169803
 20
338.26035612600617
 30
0.0
 40
1.5
  0
CIRCLE
  5
190
100
AcDbEntity
  8
0
  6
Continuous
 62
               4
100
AcDbCircle
 10
536.82474069169803
 20
438.26035612600629
 30
0.0
 40
1.5
  0
CIRCLE
  5
191
100
AcDbEntity
  8
0
  6
Continuous
 62
               4
100
AcDbCircle
 10
536.82474069169803
 20
438.26035612600629
 30
0.0
 40
1.5
  0
CIRCLE
  5
192
100
AcDbEntity
  8
0
  6
Continuous
 62
               4
100
AcDbCircle
 10
536.82474069169803
 20
458.26035612600629
 30
0.0
 40
1.5
  0
CIRCLE
  5
193
100
AcDbEntity
  8
0
  6
Continuous
 62
               4
100
AcDbCircle
 10
294.08594518225226
 20
245.56631901158877
 30
0.0
 40
1.5
  0
CIRCLE
  5
194
100
AcDbEntity
  8
0
  6
Continuous
 62
               4
100
AcDbCircle
 10
297.53411980904838
 20
234.07240358893498
 30
0.0
 40
1.5
  0
CIRCLE
  5
195
100
AcDbEntity
  8
0
  6
Continuous
 62
               4
100
AcDbCircle
 10
297.53411980904838
 20
234.07240358893498
 30
0.0
 40
1.5
  0
CIRCLE
  5
196
100
AcDbEntity
  8
0
  6
Continuous
 62
               4
100
AcDbCircle
 10
300.98229443584455
 20
222.57848816628118
 30
0.0
 40
1.5
  0
CIRCLE
  5
197
100
AcDbEntity
  8
0
  6
Continuous
 62
               4
100
AcDbCircle
 10
316.49765377454986
 20
227.23309596789264
 30
0.0
 40
1.5
  0
CIRCLE
  5
198
100
AcDbEntity
  8
0
  6
Continuous
 62
               4
100
AcDbCircle
 10
308.16456509312587
 20
255.01005823930618
 30
0.0
 40
1.5
  0
CIRCLE
  5
199
100
AcDbEntity
  8
0
  6
Continuous
 62
               4
100
AcDbCircle
 10
294.08594762498217
 20
245.56631974440776
 30
0.0
 40
1.5
  0
CIRCLE
  5
19A
100
AcDbEntity
  8
0
  6
Continuous
 62
               4
100
AcDbCircle
 10
292.64920819715047
 20
250.35545117051348
 30
0.0
 40
1.5
  0
ARC
  5
19B
100
AcDbEntity
  8
0
  6
Continuous
 62
               6
100
AcDbCircle
 10
567.33803858388933
 20
202.88468721612108
 30
0.0
 40
2.2999999523162842
100
AcDbArc
 50
286.69924423399351
 51
16.6992442339935
  0
ARC
  5
19C
100
AcDbEntity
  8
0
  6
Continuous
 62
               6
100
AcDbCircle
 10
567.33803858388933
 20
202.88468721612108
 30
0.0
 40
4.5999999046325684
100
AcDbArc
 50
286.69924423399351
 51
16.6992442339935
  0
ARC
  5
19D
100
AcDbEntity
  8
0
  6
Continuous
 62
               6
100
AcDbCircle
 10
528.25872596417526
 20
191.16089343020687
 30
0.0
 40
2.2999999523162842
100
AcDbArc
 50
196.69924423399351
 51
286.69924423399351
  0
ARC
  5
19E
100
AcDbEntity
  8
0
  6
Continuous
 62
               6
100
AcDbCircle
 10
528.25872596417526
 20
191.16089343020687
 30
0.0
 40
4.5999999046325684
100
AcDbArc
 50
196.69924423399351
 51
286.69924423399351
  0
ARC
  5
19F
100
AcDbEntity
  8
0
  6
Continuous
 62
               6
100
AcDbCircle
 10
502.16753789994408
 20
278.13152031097866
 30
0.0
 40
4.5999999046325684
100
AcDbArc
 50
106.69924423399348
 51
196.69924423399351
  0
ARC
  5
1A0
100
AcDbEntity
  8
0
  6
Continuous
 62
               6
100
AcDbCircle
 10
502.16753789994408
 20
278.13152031097866
 30
0.0
 40
2.2999999523162842
100
AcDbArc
 50
106.69924423399348
 51
196.69924423399351
  0
ARC
  5
1A1
100
AcDbEntity
  8
0
  6
Continuous
 62
               6
100
AcDbCircle
 10
541.24685051965798
 20
289.85531409689281
 30
0.0
 40
2.2999999523162842
100
AcDbArc
 50
16.6992442339935
 51
106.69924423399348
  0
ARC
  5
1A2
100
AcDbEntity
  8
0
  6
Continuous
 62
               6
100
AcDbCircle
 10
541.24685051965798
 20
289.85531409689281
 30
0.0
 40
4.5999999046325684
100
AcDbArc
 50
16.6992442339935
 51
106.69924423399348
  0
ARC
  5
1A3
100
AcDbEntity
  8
0
  6
Continuous
 62
               2
100
AcDbCircle
 10
512.3997748775289
 20
318.61393464624041
 30
0.0
 40
0.845416066760705
100
AcDbArc
 50
112.40983737149288
 51
278.69924423399391
  0
ARC
  5
1A4
100
AcDbEntity
  8
0
  6
Continuous
 62
               6
100
AcDbCircle
 10
530.24140735836477
 20
448.26035612600629
 30
0.0
 40
34.083333333333343
100
AcDbArc
 50
342.93846878010368
 51
17.061531219896253
  0
ARC
  5
1A5
100
AcDbEntity
  8
0
  6
Continuous
 62
               7
100
AcDbCircle
 10
572.82474069169803
 20
468.26035612600629
 30
0.0
 40
2.0
100
AcDbArc
 50
180.0
 51
270.0
  0
ARC
  5
1A6
100
AcDbEntity
  8
0
  6
Continuous
 62
               7
100
AcDbCircle
 10
598.8951637063592
 20
446.64771430924702
 30
0.0
 40
0.5591073560238961
100
AcDbArc
 50
99.999999999995566
 51
260.00000000000676
  0
ARC
  5
1A7
100
AcDbEntity
  8
0
  6
Continuous
 62
               7
100
AcDbCircle
 10
574.78951286585152
 20
442.84771430924638
 30
0.0
 40
0.7
100
AcDbArc
 50
270.00000000000119
 51
345.96375653208702
  0
ARC
  5
1A8
100
AcDbEntity
  8
0
  6
Continuous
 62
               7
100
AcDbCircle
 10
574.78951286585107
 20
450.44771430924743
 30
0.0
 40
0.7
100
AcDbArc
 50
14.036243467915355
 51
90.000000000000028
  0
ARC
  5
1A9
100
AcDbEntity
  8
0
  6
Continuous
 62
               7
100
AcDbCircle
 10
574.13605635033514
 20
449.34771430924786
 30
0.0
 40
0.3
100
AcDbArc
 50
90.000000000001123
 51
180.0
  0
ARC
  5
1AA
100
AcDbEntity
  8
0
  6
Continuous
 62
               7
100
AcDbCircle
 10
574.13605635033514
 20
443.94771430924652
 30
0.0
 40
0.3
100
AcDbArc
 50
180.00000000000108
 51
270.00000000000119
  0
ARC
  5
1AB
100
AcDbEntity
  8
0
  6
Continuous
 62
               7
100
AcDbCircle
 10
598.9849446613182
 20
418.67175187567591
 30
0.0
 40
0.5591073560238961
100
AcDbArc
 50
99.999999999995566
 51
260.00000000000676
  0
ARC
  5
1AC
100
AcDbEntity
  8
0
  6
Continuous
 62
               7
100
AcDbCircle
 10
574.87929382081052
 20
414.87175187567527
 30
0.0
 40
0.7
100
AcDbArc
 50
270.00000000000119
 51
345.96375653208702
  0
ARC
  5
1AD
100
AcDbEntity
  8
0
  6
Continuous
 62
               7
100
AcDbCircle
 10
574.87929382081006
 20
422.47175187567643
 30
0.0
 40
0.7
100
AcDbArc
 50
14.036243467915355
 51
90.000000000000028
  0
ARC
  5
1AE
100
AcDbEntity
  8
0
  6
Continuous
 62
               7
100
AcDbCircle
 10
574.22583730529414
 20
421.37175187567686
 30
0.0
 40
0.3
100
AcDbArc
 50
90.000000000001123
 51
180.0
  0
ARC
  5
1AF
100
AcDbEntity
  8
0
  6
Continuous
 62
               7
100
AcDbCircle
 10
574.22583730529414
 20
415.97175187567541
 30
0.0
 40
0.3
100
AcDbArc
 50
180.00000000000108
 51
270.00000000000119
  0
ARC
  5
1B0
100
AcDbEntity
  8
0
  6
Continuous
 62
               7
100
AcDbCircle
 10
529.00192893837198
 20
296.67950034268358
 30
0.0
 40
30.0
100
AcDbArc
 50
1.5620294067002536
 51
19.691546246868189
  0
TEXT
  5
1B1
100
AcDbEntity
  8
0
 62
               7
100
AcDbText
 10
295.86762785874697
 20
244.84746489016308
 30
0.0
 40
9.600000381469739
  1
12
 50
286.6992667887929
 41
0.7695
  7
FontTableH_0
 72
               5
 11
298.62617128951285
 21
235.6523332725734
 31
0.0
100
AcDbText
  0
TEXT
  5
1B2
100
AcDbEntity
  8
0
 62
               7
100
AcDbText
 10
299.31580901109072
 20
233.35353788820996
 30
0.0
 40
9.600000381469739
  1
12
 50
286.6992667887929
 41
0.7695
  7
FontTableH_0
 72
               5
 11
302.0743524418566
 21
224.15840627062028
 31
0.0
100
AcDbText
  0
TEXT
  5
1B3
100
AcDbEntity
  8
0
 62
               7
100
AcDbText
 10
312.38892912827822
 20
246.14974150149121
 30
0.0
 40
9.600000381469739
  1
29
 50
286.6992667887929
 41
0.7695
  7
FontTableH_0
 72
               5
 11
315.1474725590441
 21
236.95460988390153
 31
0.0
100
AcDbText
  0
TEXT
  5
1B4
100
AcDbEntity
  8
0
 62
               7
100
AcDbText
 10
292.39069914780947
 20
256.43715605227248
 30
0.0
 40
9.600000381469739
  1
5
 50
286.6992667887929
 41
0.7695
  7
FontTableH_0
 72
               5
 11
293.76997086319238
 21
251.83959024347763
 31
0.0
100
AcDbText
  0
TEXT
  5
1B5
100
AcDbEntity
  8
0
 62
               7
100
AcDbText
 10
726.78679823333368
 20
26.713203554805766
 30
0.0
 40
8.9999997615814333
  1
水上壁取合い詳細図 【S=1/3】
 41
0.7695
  7
FontTableH_0
 72
               5
 11
852.7867948954738
 21
26.713203554805766
 31
0.0
100
AcDbText
  0
TEXT
  5
1B6
100
AcDbEntity
  8
0
 62
               7
100
AcDbText
 10
256.82990813218447
 20
350.16335234133498
 30
0.0
 40
9.6000000000000103
  1
アスファルトルーフィング 22kg
 41
0.7695
  7
FontTableH_0
 72
               5
 11
396.02990813218463
 21
350.16335234133498
 31
0.0
100
AcDbText
  0
TEXT
  5
1B7
100
AcDbEntity
  8
0
 62
               7
100
AcDbText
 10
256.82990813218447
 20
334.16341337649123
 30
0.0
 40
9.6000000000000103
  1
硬質木片セメント板 12mm＋12mm
 41
0.7695
  7
FontTableH_0
 72
               5
 11
396.02990813218463
 21
334.16341337649123
 31
0.0
100
AcDbText
  0
TEXT
  5
1B8
100
AcDbEntity
  8
0
 62
               7
100
AcDbText
 10
510.45142912827822
 20
343.06255278078811
 30
0.0
 40
9.6000000000000103
  1
50～100
 50
22.409811393224086
 41
0.7695
  7
FontTableH_0
 72
               5
 11
541.51398283700416
 21
355.87183680029989
 31
0.0
100
AcDbText
  0
TEXT
  5
1B9
100
AcDbEntity
  8
0
 62
               7
100
AcDbText
 10
535.32484221421578
 20
369.06005033938186
 30
0.0
 40
9.6000000000000103
  1
100～150
 50
89.999982013910653
 41
0.7695
  7
FontTableH_0
 72
               5
 11
535.32485426860853
 21
407.46005033938002
 31
0.0
100
AcDbText
  0
TEXT
  5
1BA
100
AcDbEntity
  8
0
 62
               7
100
AcDbText
 10
535.32484221421578
 20
443.46047148195998
 30
0.0
 40
9.6000000000000103
  1
20
 50
89.999982013910653
 41
0.7695
  7
FontTableH_0
 72
               5
 11
535.32484522781397
 21
453.0604714819595
 31
0.0
100
AcDbText
  0
TEXT
  5
1BB
100
AcDbEntity
  8
0
 62
               7
100
AcDbText
 10
448.29542326890322
 20
429.87538847414748
 30
0.0
 40
9.6000000000000103
  1
雨押え：屋根同材
 41
0.7695
  7
FontTableH_0
 72
               5
 11
525.09542326890335
 21
429.87538847414748
 31
0.0
100
AcDbText
  0
TEXT
  5
1BC
100
AcDbEntity
  8
0
 62
               7
100
AcDbText
 10
359.43806242905947
 20
399.87551054445998
 30
0.0
 40
9.6000000000000103
  1
力板（ブチルテープをはさむ）
 41
0.7695
  7
FontTableH_0
 72
               5
 11
493.83806242905962
 21
399.87551054445998
 31
0.0
100
AcDbText
  0
TEXT
  5
1BD
100
AcDbEntity
  8
0
 62
               7
100
AcDbText
 10
458.42237639390322
 20
479.76058134524123
 30
0.0
 40
9.6000000000000103
  1
コーキング（別途）
 41
0.7695
  7
FontTableH_0
 72
               5
 11
544.82237639390337
 21
479.76058134524123
 31
0.0
100
AcDbText
  0
TEXT
  5
1BE
100
AcDbEntity
  8
0
 62
               7
100
AcDbText
 10
256.82990813218441
 20
366.16341337649123
 30
0.0
 40
9.6000000000000103
  1
：各種金属板
 41
0.7695
  7
FontTableH_0
 72
               5
 11
314.42990813218449
 21
366.16341337649123
 31
0.0
100
AcDbText
  0
TEXT
  5
1BF
100
AcDbEntity
  8
0
 62
               7
100
AcDbText
 10
256.82990813218441
 20
375.76341337649126
 30
0.0
 40
9.6000000000000103
  1
プロムナ－ル－フジャストワン
 41
0.7695
  7
FontTableH_0
 72
               5
 11
391.22990813218456
 21
375.76341337649126
 31
0.0
100
AcDbText
  0
TEXT
  5
1C0
100
AcDbEntity
  8
0
 62
               7
100
AcDbText
 10
26.142137292660934
 20
601.35786449547834
 30
0.0
 40
8.9999997615814333
  1
プロムナールーフジャストワン
 41
0.7695
  7
FontTableH_0
 72
               5
 11
152.14213395480101
 21
601.35786449547834
 31
0.0
100
AcDbText
  0
ENDSEC
  0
SECTION
  2
OBJECTS
  0
DICTIONARY
  5
19
100
AcDbDictionary
  3
ACAD_GROUP
350
1A
  3
ACAD_MLINESTYLE
350
1B
  3
DWGPROPS
350
1C1
  0
DICTIONARY
  5
1A
102
{ACAD_REACTORS
330
19
102
}
100
AcDbDictionary
  0
DICTIONARY
  5
1B
102
{ACAD_REACTORS
330
19
102
}
100
AcDbDictionary
  3
STANDARD
350
1C
  0
MLINESTYLE
  5
1C
102
{ACAD_REACTORS
330
1B
102
}
100
AcDbMlineStyle
  2
Standard
 70
               0
  3

 62
               0
 51
90.0
 52
90.0
 71
               2
 49
0.5
 62
             256
  6
ByLayer
 49
-0.5
 62
             256
  6
ByLayer
  0
XRECORD
  5
1C1
100
AcDbXrecord
  1
DWGPROPS COOKIE
  2

  3

  4

  6

  7

  0
ENDSEC
  0
EOF
