  0
SECTION
  2
HEADER
  9
$ACADVER
  1
AC1014
  9
$ACADMAINTVER
 70
               0
  9
$DWGCODEPAGE
  3
ANSI_932
  9
$INSBASE
 10
0.0
 20
0.0
 30
0.0
  9
$EXTMIN
 10
0.0
 20
0.0
 30
0.0
  9
$EXTMAX
 10
891.00000000000091
 20
630.00000000000068
 30
0.0
  9
$LIMMIN
 10
0.0
 20
0.0
  9
$LIMMAX
 10
891.00000000000091
 20
630.00000000000068
  9
$ORTHOMODE
 70
               0
  9
$REGENMODE
 70
               1
  9
$FILLMODE
 70
               1
  9
$QTEXTMODE
 70
               0
  9
$MIRRTEXT
 70
               1
  9
$DRAGMODE
 70
               2
  9
$LTSCALE
 40
3.0000000000000031
  9
$OSMODE
 70
               0
  9
$ATTMODE
 70
               1
  9
$TEXTSIZE
 40
0.2
  9
$TRACEWID
 40
0.05
  9
$TEXTSTYLE
  7
Standard
  9
$CLAYER
  8
0
  9
$CELTYPE
  6
Continuous
  9
$CECOLOR
 62
             256
  9
$CELTSCALE
 40
1.0
  9
$DELOBJ
 70
               1
  9
$DISPSILH
 70
               0
  9
$DIMSCALE
 40
1.0
  9
$DIMASZ
 40
0.18
  9
$DIMEXO
 40
0.0625
  9
$DIMDLI
 40
0.38
  9
$DIMRND
 40
0.0
  9
$DIMDLE
 40
0.0
  9
$DIMEXE
 40
0.18
  9
$DIMTP
 40
0.0
  9
$DIMTM
 40
0.0
  9
$DIMTXT
 40
0.18
  9
$DIMCEN
 40
0.09
  9
$DIMTSZ
 40
0.0
  9
$DIMTOL
 70
               0
  9
$DIMLIM
 70
               0
  9
$DIMTIH
 70
               1
  9
$DIMTOH
 70
               1
  9
$DIMSE1
 70
               0
  9
$DIMSE2
 70
               0
  9
$DIMTAD
 70
               0
  9
$DIMZIN
 70
               0
  9
$DIMBLK
  1

  9
$DIMASO
 70
               1
  9
$DIMSHO
 70
               1
  9
$DIMPOST
  1

  9
$DIMAPOST
  1

  9
$DIMALT
 70
               0
  9
$DIMALTD
 70
               2
  9
$DIMALTF
 40
25.399999999999999
  9
$DIMLFAC
 40
1.0
  9
$DIMTOFL
 70
               0
  9
$DIMTVP
 40
0.0
  9
$DIMTIX
 70
               0
  9
$DIMSOXD
 70
               0
  9
$DIMSAH
 70
               0
  9
$DIMBLK1
  1

  9
$DIMBLK2
  1

  9
$DIMSTYLE
  2
Standard
  9
$DIMCLRD
 70
               0
  9
$DIMCLRE
 70
               0
  9
$DIMCLRT
 70
               0
  9
$DIMTFAC
 40
1.0
  9
$DIMGAP
 40
0.09
  9
$DIMJUST
 70
               0
  9
$DIMSD1
 70
               0
  9
$DIMSD2
 70
               0
  9
$DIMTOLJ
 70
               1
  9
$DIMTZIN
 70
               0
  9
$DIMALTZ
 70
               0
  9
$DIMALTTZ
 70
               0
  9
$DIMFIT
 70
               3
  9
$DIMUPT
 70
               0
  9
$DIMUNIT
 70
               2
  9
$DIMDEC
 70
               4
  9
$DIMTDEC
 70
               4
  9
$DIMALTU
 70
               2
  9
$DIMALTTD
 70
               2
  9
$DIMTXSTY
  7
Standard
  9
$DIMAUNIT
 70
               0
  9
$LUNITS
 70
               2
  9
$LUPREC
 70
               4
  9
$SKETCHINC
 40
0.1
  9
$FILLETRAD
 40
0.0
  9
$AUNITS
 70
               0
  9
$AUPREC
 70
               0
  9
$MENU
  1
acad
  9
$ELEVATION
 40
0.0
  9
$PELEVATION
 40
0.0
  9
$THICKNESS
 40
0.0
  9
$LIMCHECK
 70
               0
  9
$BLIPMODE
 70
               1
  9
$CHAMFERA
 40
0.0
  9
$CHAMFERB
 40
0.0
  9
$CHAMFERC
 40
0.0
  9
$CHAMFERD
 40
0.0
  9
$SKPOLY
 70
               0
  9
$TDCREATE
 40
0.000000000
  9
$TDUPDATE
 40
0.000000000
  9
$TDINDWG
 40
0.0000000000
  9
$TDUSRTIMER
 40
0.0000000000
  9
$USRTIMER
 70
               1
  9
$ANGBASE
 50
0.0
  9
$ANGDIR
 70
               0
  9
$PDMODE
 70
               0
  9
$PDSIZE
 40
0.0
  9
$PLINEWID
 40
0.0
  9
$COORDS
 70
               0
  9
$SPLFRAME
 70
               0
  9
$SPLINETYPE
 70
               6
  9
$SPLINESEGS
 70
               8
  9
$ATTDIA
 70
               0
  9
$ATTREQ
 70
               1
  9
$HANDLING
 70
               1
  9
$HANDSEED
  5
2A9
  9
$SURFTAB1
 70
               6
  9
$SURFTAB2
 70
               6
  9
$SURFTYPE
 70
               6
  9
$SURFU
 70
               6
  9
$SURFV
 70
               6
  9
$UCSNAME
  2

  9
$UCSORG
 10
0.0
 20
0.0
 30
0.0
  9
$UCSXDIR
 10
1.0
 20
0.0
 30
0.0
  9
$UCSYDIR
 10
0.0
 20
1.0
 30
0.0
  9
$PUCSNAME
  2

  9
$PUCSORG
 10
0.0
 20
0.0
 30
0.0
  9
$PUCSXDIR
 10
1.0
 20
0.0
 30
0.0
  9
$PUCSYDIR
 10
0.0
 20
1.0
 30
0.0
  9
$USERI1
 70
               0
  9
$USERI2
 70
               0
  9
$USERI3
 70
               0
  9
$USERI4
 70
               0
  9
$USERI5
 70
               0
  9
$USERR1
 40
0.0
  9
$USERR2
 40
0.0
  9
$USERR3
 40
0.0
  9
$USERR4
 40
0.0
  9
$USERR5
 40
0.0
  9
$WORLDVIEW
 70
               1
  9
$SHADEDGE
 70
               3
  9
$SHADEDIF
 70
              70
  9
$TILEMODE
 70
               1
  9
$MAXACTVP
 70
              16
  9
$PINSBASE
 10
0.0
 20
0.0
 30
0.0
  9
$PLIMCHECK
 70
               0
  9
$PEXTMIN
 10
1.0000000000000000E+20
 20
1.0000000000000000E+20
 30
1.0000000000000000E+20
  9
$PEXTMAX
 10
-1.0000000000000000E+20
 20
-1.0000000000000000E+20
 30
-1.0000000000000000E+20
  9
$PLIMMIN
 10
0.0
 20
0.0
  9
$PLIMMAX
 10
12.0
 20
9.0
  9
$UNITMODE
 70
               0
  9
$VISRETAIN
 70
               0
  9
$PLINEGEN
 70
               1
  9
$PSLTSCALE
 70
               0
  9
$TREEDEPTH
 70
            3020
  9
$PICKSTYLE
 70
               1
  9
$CMLSTYLE
  2
Standard
  9
$CMLJUST
 70
               0
  9
$CMLSCALE
 40
1.0
  9
$PROXYGRAPHICS
 70
               0
  9
$MEASUREMENT
 70
               0
  0
ENDSEC
  0
SECTION
  2
CLASSES
  0
CLASS
  1
LWPOLYLINE
  2
AcDbPolyline
  3
"AutoCAD"
 90
        0
280
               0
281
               1
  0
CLASS
  1
IMAGE
  2
AcDbRasterImage
  3
ISM
 90
      127
280
               0
281
               1
  0
CLASS
  1
OLE2FRAME
  2
AcDbOle2Frame
  3
""
 90
        0
280
               0
281
               1
  0
CLASS
  1
HATCH
  2
AcDbHatch
  3
"ACAD_SEDONA"
 90
        0
280
               0
281
               1
  0
CLASS
  1
DICTIONARYVAR
  2
AcDbDictionaryVar
  3
"AutoCAD"
 90
        0
280
               0
281
               0
  0
CLASS
  1
RASTERVARIABLES
  2
AcDbRasterVariables
  3
ISM
 90
        0
280
               0
281
               0
  0
CLASS
  1
IMAGEDEF
  2
AcDbRasterImageDef
  3
ISM
 90
        0
280
               0
281
               0
  0
CLASS
  1
IMAGEDEF_REACTOR
  2
AcDbRasterImageDefReactor
  3
ISM
 90
        1
280
               0
281
               0
  0
CLASS
  1
IDBUFFER
  2
AcDbIdBuffer
  3
"Acad"
 90
        0
280
               0
281
               0
  0
CLASS
  1
SPATIAL_FILTER
  2
AcDbSpatialFilter
  3
"Acad"
 90
        0
280
               0
281
               0
  0
CLASS
  1
XRECORD
  2
AcDbXrecord
  3
"<Built In>"
 90
        0
280
               0
281
               0
  0
CLASS
  1
SORTENTSTABLE
  2
AcDbSortentsTable
  3
"AutoCAD"
 90
        0
280
               0
281
               0
  0
CLASS
  1
LAYER_INDEX
  2
AcDbLayerIndex
  3
"Acad"
 90
        0
280
               0
281
               0
  0
CLASS
  1
SPATIAL_INDEX
  2
AcDbSpatialIndex
  3
"Acad"
 90
        0
280
               0
281
               0
  0
CLASS
  1
OBJECT_PTR
  2
CAseDLPNTableRecord
  3
"ASE-LPNTableRecord"
 90
        1
280
               0
281
               0
  0
CLASS
  1
LAYOUT
  2
AcDbLayout
  3
"AutoCAD 2000"
 90
        0
280
               0
281
               0
  0
CLASS
  1
PLOTSETTINGS
  2
AcDbPlotSettings
  3
"AutoCAD 2000"
 90
        0
280
               0
281
               0
  0
CLASS
  1
ACDBDICTIONARYWDFLT
  2
AcDbDictionaryWithDefault
  3
"AutoCAD 2000"
 90
        0
280
               0
281
               0
  0
CLASS
  1
ACDBPLACEHOLDER
  2
AcDbPlaceHolder
  3
"AutoCAD 2000"
 90
        0
280
               0
281
               0
  0
CLASS
  1
VBA_PROJECT
  2
AcDbVbaProject
  3
"acadvba"
 90
        0
280
               0
281
               0
  0
CLASS
  1
WIPEOUT
  2
AcDbWipeout
  3
WipeOut|AutoCAD Express Tool|expresstools@autodesk.com
 90
      127
280
               0
281
               1
  0
CLASS
  1
WIPEOUTVARIABLES
  2
AcDbWipeoutVariables
  3
WipeOut|AutoCAD Express Tool|expresstools@autodesk.com
 90
        0
280
               0
281
               0
  0
CLASS
  1
RTEXT
  2
RText
  3
RText|AutoCAD Express Tool|expresstools@autodesk.com
 90
        0
280
               0
281
               1
  0
CLASS
  1
ARCALIGNEDTEXT
  2
AcDbArcAlignedText
  3
ATEXT|AutoCAD Express Tool|expresstools@autodesk.com
 90
        0
280
               0
281
               1
  0
ENDSEC
  0
SECTION
  2
TABLES
  0
TABLE
  2
VPORT
  5
7
100
AcDbSymbolTable
 70
               1
  0
VPORT
  5
15
100
AcDbSymbolTableRecord
100
AcDbViewportTableRecord
  2
*ACTIVE
 70
               0
 10
0.0
 20
0.0
 11
1.0
 21
1.0
 12
445.50000000000045
 22
315.00000000000034
 13
0.0
 23
0.0
 14
10.0
 24
10.0
 15
10.0
 25
10.0
 16
0.0
 26
0.0
 36
1.0
 17
0.0
 27
0.0
 37
0.0
 40
630.00000000000068
 41
1.4142857142857141
 42
50.0
 43
0.0
 44
0.0
 50
0.0
 51
0.0
 71
               0
 72
             100
 73
               1
 74
               1
 75
               0
 76
               0
 77
               0
 78
               0
  0
ENDTAB
  0
TABLE
  2
LTYPE
  5
4
100
AcDbSymbolTable
 70
              24
  0
LTYPE
  5
11
100
AcDbSymbolTableRecord
100
AcDbLinetypeTableRecord
  2
ByBlock
 70
              64
  3

 72
              65
 73
               0
 40
0.0
  0
LTYPE
  5
12
100
AcDbSymbolTableRecord
100
AcDbLinetypeTableRecord
  2
ByLayer
 70
              64
  3

 72
              65
 73
               0
 40
0.0
  0
LTYPE
  5
13
100
AcDbSymbolTableRecord
100
AcDbLinetypeTableRecord
  2
Continuous
 70
              64
  3
Solid line
 72
              65
 73
               0
 40
0.0
  0
LTYPE
  5
1D
100
AcDbSymbolTableRecord
100
AcDbLinetypeTableRecord
  2
DOT
 70
              64
  3
Dot . . . . . . . . . . . . . . . . . . . . . .
 72
              65
 73
               2
 40
6.3499999999999996
 49
0.35
 74
               0
 49
-6.0
 74
               0
  0
LTYPE
  5
1E
100
AcDbSymbolTableRecord
100
AcDbLinetypeTableRecord
  2
DASHED
 70
              64
  3
Dashed __ __ __ __ __ __ __ __ __ __ __ __ __ _
 72
              65
 73
               2
 40
12.699999999999999
 49
6.3499999999999996
 74
               0
 49
-6.3499999999999996
 74
               0
  0
LTYPE
  5
1F
100
AcDbSymbolTableRecord
100
AcDbLinetypeTableRecord
  2
DASHDOT
 70
              64
  3
Dash dot __ . __ . __ . __ . __ . __ . __ . __
 72
              65
 73
               4
 40
25.399999999999999
 49
12.699999999999999
 74
               0
 49
-6.0
 74
               0
 49
0.7
 74
               0
 49
-6.0
 74
               0
  0
LTYPE
  5
20
100
AcDbSymbolTableRecord
100
AcDbLinetypeTableRecord
  2
DIVIDE
 70
              64
  3
Divide ____ . . ____ . . ____ . . ____ . . ____
 72
              65
 73
               6
 40
31.75
 49
12.699999999999999
 74
               0
 49
-6.0
 74
               0
 49
0.875
 74
               0
 49
-6.0
 74
               0
 49
0.875
 74
               0
 49
-6.0
 74
               0
  0
LTYPE
  5
21
100
AcDbSymbolTableRecord
100
AcDbLinetypeTableRecord
  2
HIDDEN
 70
              64
  3
Hidden __ __ __ __ __ __ __ __ __ __ __ __ __ _
 72
              65
 73
               2
 40
9.5250000000000004
 49
6.3499999999999996
 74
               0
 49
-3.1749999999999998
 74
               0
  0
LTYPE
  5
22
100
AcDbSymbolTableRecord
100
AcDbLinetypeTableRecord
  2
CENTER
 70
              64
  3
Center ____ _ ____ _ ____ _ ____ _ ____ _ ____
 72
              65
 73
               4
 40
50.799999999999997
 49
31.75
 74
               0
 49
-6.3499999999999996
 74
               0
 49
6.3499999999999996
 74
               0
 49
-6.3499999999999996
 74
               0
  0
LTYPE
  5
23
100
AcDbSymbolTableRecord
100
AcDbLinetypeTableRecord
  2
PHANTOM
 70
              64
  3
Phantom ______  __  __  ______  __  __  ______
 72
              65
 73
               6
 40
63.5
 49
31.75
 74
               0
 49
-6.3499999999999996
 74
               0
 49
6.3499999999999996
 74
               0
 49
-6.3499999999999996
 74
               0
 49
6.3499999999999996
 74
               0
 49
-6.3499999999999996
 74
               0
  0
LTYPE
  5
24
100
AcDbSymbolTableRecord
100
AcDbLinetypeTableRecord
  2
ACAD_ISO02W100
 70
              64
  3
ISO dash __ __ __ __ __ __ __ __ __ __ __ __ __
 72
              65
 73
               2
 40
15.0
 49
12.0
 74
               0
 49
-3.0
 74
               0
  0
LTYPE
  5
25
100
AcDbSymbolTableRecord
100
AcDbLinetypeTableRecord
  2
ACAD_ISO03W100
 70
              64
  3
ISO dash space __ __ __ __ __ __ __ __ __ __ __ __ __ __
 72
              65
 73
               2
 40
30.0
 49
12.0
 74
               0
 49
-18.0
 74
               0
  0
LTYPE
  5
26
100
AcDbSymbolTableRecord
100
AcDbLinetypeTableRecord
  2
ACAD_ISO04W100
 70
              64
  3
ISO long-dash dot ____ . ____ . ____ . ____ . _
 72
              65
 73
               4
 40
30.0
 49
24.0
 74
               0
 49
-3.0
 74
               0
 49
0.0
 74
               0
 49
-3.0
 74
               0
  0
LTYPE
  5
27
100
AcDbSymbolTableRecord
100
AcDbLinetypeTableRecord
  2
ACAD_ISO05W100
 70
              64
  3
ISO long-dash double-dot ____ .. ____ .. ____ .
 72
              65
 73
               6
 40
33.0
 49
24.0
 74
               0
 49
-3.0
 74
               0
 49
0.0
 74
               0
 49
-3.0
 74
               0
 49
0.0
 74
               0
 49
-3.0
 74
               0
  0
LTYPE
  5
28
100
AcDbSymbolTableRecord
100
AcDbLinetypeTableRecord
  2
ACAD_ISO06W100
 70
              64
  3
ISO long-dash triple-dot ____ ... ____ ... ____
 72
              65
 73
               8
 40
36.0
 49
24.0
 74
               0
 49
-3.0
 74
               0
 49
0.0
 74
               0
 49
-3.0
 74
               0
 49
0.0
 74
               0
 49
-3.0
 74
               0
 49
0.0
 74
               0
 49
-3.0
 74
               0
  0
LTYPE
  5
29
100
AcDbSymbolTableRecord
100
AcDbLinetypeTableRecord
  2
ACAD_ISO07W100
 70
              64
  3
ISO dot . . . . . . . . . . . . . . . . . . . .
 72
              65
 73
               2
 40
3.0
 49
0.0
 74
               0
 49
-3.0
 74
               0
  0
LTYPE
  5
2A
100
AcDbSymbolTableRecord
100
AcDbLinetypeTableRecord
  2
ACAD_ISO08W100
 70
              64
  3
ISO long-dash short-dash ____ __ ____ __ ____ _
 72
              65
 73
               4
 40
36.0
 49
24.0
 74
               0
 49
-3.0
 74
               0
 49
6.0
 74
               0
 49
-3.0
 74
               0
  0
LTYPE
  5
2B
100
AcDbSymbolTableRecord
100
AcDbLinetypeTableRecord
  2
ACAD_ISO09W100
 70
              64
  3
ISO long-dash double-short-dash ____ __ __ ____
 72
              65
 73
               6
 40
45.0
 49
24.0
 74
               0
 49
-3.0
 74
               0
 49
6.0
 74
               0
 49
-3.0
 74
               0
 49
6.0
 74
               0
 49
-3.0
 74
               0
  0
LTYPE
  5
2C
100
AcDbSymbolTableRecord
100
AcDbLinetypeTableRecord
  2
ACAD_ISO10W100
 70
              64
  3
ISO dash dot __ . __ . __ . __ . __ . __ . __ .
 72
              65
 73
               4
 40
18.0
 49
12.0
 74
               0
 49
-3.0
 74
               0
 49
0.0
 74
               0
 49
-3.0
 74
               0
  0
LTYPE
  5
2D
100
AcDbSymbolTableRecord
100
AcDbLinetypeTableRecord
  2
ACAD_ISO11W100
 70
              64
  3
ISO double-dash dot __ __ . __ __ . __ __ . __ 
 72
              65
 73
               6
 40
33.0
 49
12.0
 74
               0
 49
-3.0
 74
               0
 49
12.0
 74
               0
 49
-3.0
 74
               0
 49
0.0
 74
               0
 49
-3.0
 74
               0
  0
LTYPE
  5
2E
100
AcDbSymbolTableRecord
100
AcDbLinetypeTableRecord
  2
ACAD_ISO12W100
 70
              64
  3
ISO dash double-dot __ . . __ . . __ . . __ . .
 72
              65
 73
               6
 40
21.0
 49
12.0
 74
               0
 49
-3.0
 74
               0
 49
0.0
 74
               0
 49
-3.0
 74
               0
 49
0.0
 74
               0
 49
-3.0
 74
               0
  0
LTYPE
  5
2F
100
AcDbSymbolTableRecord
100
AcDbLinetypeTableRecord
  2
ACAD_ISO13W100
 70
              64
  3
ISO double-dash double-dot __ __ . . __ __ . . 
 72
              65
 73
               8
 40
36.0
 49
12.0
 74
               0
 49
-3.0
 74
               0
 49
12.0
 74
               0
 49
-3.0
 74
               0
 49
0.0
 74
               0
 49
-3.0
 74
               0
 49
0.0
 74
               0
 49
-3.0
 74
               0
  0
LTYPE
  5
30
100
AcDbSymbolTableRecord
100
AcDbLinetypeTableRecord
  2
ACAD_ISO14W100
 70
              64
  3
ISO dash triple-dot __ . . . __ . . . __ . . . 
 72
              65
 73
               8
 40
24.0
 49
12.0
 74
               0
 49
-3.0
 74
               0
 49
0.0
 74
               0
 49
-3.0
 74
               0
 49
0.0
 74
               0
 49
-3.0
 74
               0
 49
0.0
 74
               0
 49
-3.0
 74
               0
  0
LTYPE
  5
31
100
AcDbSymbolTableRecord
100
AcDbLinetypeTableRecord
  2
ACAD_ISO15W100
 70
              64
  3
ISO double-dash double-dot __ __ . . __ __ . . 
 72
              65
 73
              10
 40
39.0
 49
12.0
 74
               0
 49
-3.0
 74
               0
 49
12.0
 74
               0
 49
-3.0
 74
               0
 49
0.0
 74
               0
 49
-3.0
 74
               0
 49
0.0
 74
               0
 49
-3.0
 74
               0
 49
0.0
 74
               0
 49
-3.0
 74
               0
  0
ENDTAB
  0
TABLE
  2
LAYER
  5
2
100
AcDbSymbolTable
 70
              16
  0
LAYER
  5
14
100
AcDbSymbolTableRecord
100
AcDbLayerTableRecord
  2
0
 70
               0
 62
               7
  6
Continuous
  0
LAYER
  5
35
100
AcDbSymbolTableRecord
100
AcDbLayerTableRecord
  2
Layer00001
 70
               0
 62
               7
  6
Continuous
  0
LAYER
  5
36
100
AcDbSymbolTableRecord
100
AcDbLayerTableRecord
  2
Layer00002
 70
               0
 62
               7
  6
Continuous
  0
LAYER
  5
37
100
AcDbSymbolTableRecord
100
AcDbLayerTableRecord
  2
Layer00003
 70
               0
 62
               7
  6
Continuous
  0
LAYER
  5
38
100
AcDbSymbolTableRecord
100
AcDbLayerTableRecord
  2
Layer00004
 70
               0
 62
               7
  6
Continuous
  0
LAYER
  5
39
100
AcDbSymbolTableRecord
100
AcDbLayerTableRecord
  2
Layer00005
 70
               0
 62
               7
  6
Continuous
  0
LAYER
  5
3A
100
AcDbSymbolTableRecord
100
AcDbLayerTableRecord
  2
Layer00006
 70
               0
 62
               7
  6
Continuous
  0
LAYER
  5
3B
100
AcDbSymbolTableRecord
100
AcDbLayerTableRecord
  2
Layer00007
 70
               0
 62
               7
  6
Continuous
  0
LAYER
  5
3C
100
AcDbSymbolTableRecord
100
AcDbLayerTableRecord
  2
Layer00008
 70
               0
 62
               7
  6
Continuous
  0
LAYER
  5
3D
100
AcDbSymbolTableRecord
100
AcDbLayerTableRecord
  2
Layer00009
 70
               0
 62
               7
  6
Continuous
  0
LAYER
  5
3E
100
AcDbSymbolTableRecord
100
AcDbLayerTableRecord
  2
Layer00010
 70
               0
 62
               7
  6
Continuous
  0
LAYER
  5
3F
100
AcDbSymbolTableRecord
100
AcDbLayerTableRecord
  2
Layer00011
 70
               0
 62
               7
  6
Continuous
  0
LAYER
  5
40
100
AcDbSymbolTableRecord
100
AcDbLayerTableRecord
  2
Layer00012
 70
               0
 62
               7
  6
Continuous
  0
LAYER
  5
41
100
AcDbSymbolTableRecord
100
AcDbLayerTableRecord
  2
Layer00013
 70
               0
 62
               7
  6
Continuous
  0
LAYER
  5
42
100
AcDbSymbolTableRecord
100
AcDbLayerTableRecord
  2
Layer00014
 70
               0
 62
               7
  6
Continuous
  0
LAYER
  5
43
100
AcDbSymbolTableRecord
100
AcDbLayerTableRecord
  2
Layer00015
 70
               0
 62
               7
  6
Continuous
  0
ENDTAB
  0
TABLE
  2
STYLE
  5
3
100
AcDbSymbolTable
 70
               4
  0
STYLE
  5
17
100
AcDbSymbolTableRecord
100
AcDbTextStyleTableRecord
  2
Standard
 70
               0
 40
0.0
 41
1.0
 50
0.0
 71
               0
 42
0.0
  3
txt.shx
  4
bigfont.shx
  0
STYLE
  5
32
100
AcDbSymbolTableRecord
100
AcDbTextStyleTableRecord
  2
STANDARD_T
 70
               4
 40
0.0
 41
1.0
 50
0.0
 71
               0
 42
0.0
  3
txt.shx
  4
bigfont.shx
  0
STYLE
  5
33
100
AcDbSymbolTableRecord
100
AcDbTextStyleTableRecord
  2
FontTableH_0
 70
               0
 40
0.0
 41
1.0
 50
0.0
 71
               0
 42
0.0
  3
MS Gothic.ttf
  4

1001
ACAD
1000
MS Gothic
1071
    32817
  0
STYLE
  5
34
100
AcDbSymbolTableRecord
100
AcDbTextStyleTableRecord
  2
FontTableV_0
 70
               0
 40
0.0
 41
1.0
 50
0.0
 71
               0
 42
0.0
  3
@MS Gothic.ttf
  4

1001
ACAD
1000
@MS Gothic
1071
    32817
  0
ENDTAB
  0
TABLE
  2
VIEW
  5
5
100
AcDbSymbolTable
 70
               0
  0
ENDTAB
  0
TABLE
  2
UCS
  5
6
100
AcDbSymbolTable
 70
               0
  0
ENDTAB
  0
TABLE
  2
APPID
  5
8
100
AcDbSymbolTable
 70
               1
  0
APPID
  5
16
100
AcDbSymbolTableRecord
100
AcDbRegAppTableRecord
  2
ACAD
 70
               0
  0
ENDTAB
  0
TABLE
  2
DIMSTYLE
  5
9
100
AcDbSymbolTable
 70
               1
  0
DIMSTYLE
105
18
100
AcDbSymbolTableRecord
100
AcDbDimStyleTableRecord
  2
Standard
 70
               0
  3

  4

  5

  6

  7

 40
1.0
 41
0.18
 42
0.0625
 43
0.38
 44
0.18
 45
0.0
 46
0.0
 47
0.0
 48
0.0
 71
               0
 72
               0
 73
               1
 74
               1
 75
               0
 76
               0
 77
               0
 78
               0
140
0.18
141
0.09
142
0.0
143
25.399999999999999
144
1.0
145
0.0
146
1.0
147
0.09
170
               0
171
               2
172
               0
173
               0
174
               0
175
               0
176
               0
177
               0
178
               0
270
               2
271
               4
272
               4
273
               2
274
               2
275
               0
280
               0
281
               0
282
               0
283
               1
284
               0
285
               0
286
               0
287
               0
288
               0
340
17
  0
ENDTAB
  0
TABLE
  2
BLOCK_RECORD
  5
1
100
AcDbSymbolTable
 70
               0
  0
BLOCK_RECORD
  5
A
100
AcDbSymbolTableRecord
100
AcDbBlockTableRecord
  2
*MODEL_SPACE
  0
BLOCK_RECORD
  5
B
100
AcDbSymbolTableRecord
100
AcDbBlockTableRecord
  2
*PAPER_SPACE
  0
ENDTAB
  0
ENDSEC
  0
SECTION
  2
BLOCKS
  0
BLOCK
  5
D
100
AcDbEntity
  8
0
100
AcDbBlockBegin
  2
*MODEL_SPACE
 70
               0
 10
0.0
 20
0.0
 30
0.0
  3
*MODEL_SPACE
  1

  0
ENDBLK
  5
E
100
AcDbEntity
  8
0
100
AcDbBlockEnd
  0
BLOCK
  5
F
100
AcDbEntity
 67
               1
  8
0
100
AcDbBlockBegin
  2
*PAPER_SPACE
 70
               0
 10
0.0
 20
0.0
 30
0.0
  3
*PAPER_SPACE
  1

  0
ENDBLK
  5
10
100
AcDbEntity
 67
               1
  8
0
100
AcDbBlockEnd
  0
ENDSEC
  0
SECTION
  2
ENTITIES
  0
LINE
  5
44
100
AcDbEntity
  8
0
  6
Continuous
 62
               4
100
AcDbLine
 10
669.08972742122182
 20
271.18777764674172
 30
0.0
 11
702.08972742124649
 21
271.18777764673877
 31
0.0
  0
LINE
  5
45
100
AcDbEntity
  8
0
  6
Continuous
 62
               4
100
AcDbLine
 10
699.08972742124877
 20
296.18777764674093
 30
0.0
 11
699.08972742124649
 21
271.18777764673899
 31
0.0
  0
LINE
  5
46
100
AcDbEntity
  8
0
  6
Continuous
 62
               4
100
AcDbLine
 10
669.08972742123774
 20
446.12734882674704
 30
0.0
 11
702.08972742126241
 21
446.12734882674408
 31
0.0
  0
LINE
  5
47
100
AcDbEntity
  8
0
  6
Continuous
 62
               4
100
AcDbLine
 10
699.08972742124877
 20
296.18777764674479
 30
0.0
 11
699.08972742126241
 21
446.12734882674431
 31
0.0
  0
LINE
  5
48
100
AcDbEntity
  8
0
  6
Continuous
 62
               4
100
AcDbLine
 10
669.08972742122182
 20
271.18777764674172
 30
0.0
 11
720.08972742124649
 21
271.18777764673712
 31
0.0
  0
LINE
  5
49
100
AcDbEntity
  8
0
  6
Continuous
 62
               4
100
AcDbLine
 10
669.08972742123774
 20
446.12734882674704
 30
0.0
 11
720.08972742126241
 21
446.12734882674238
 31
0.0
  0
LINE
  5
4A
100
AcDbEntity
  8
0
  6
Continuous
 62
               4
100
AcDbLine
 10
717.08972742124649
 20
271.1877776467374
 30
0.0
 11
717.08972742126241
 21
446.1273488267426
 31
0.0
  0
LINE
  5
4B
100
AcDbEntity
  8
0
  6
Continuous
 62
               4
100
AcDbLine
 10
198.11648118929762
 20
204.31658103802428
 30
0.0
 11
172.69961903197878
 21
160.2932844125734
 31
0.0
  0
LINE
  5
4C
100
AcDbEntity
  8
0
  6
Continuous
 62
               4
100
AcDbLine
 10
172.69961903197878
 20
160.2932844125734
 30
0.0
 11
121.85461175073657
 21
160.2932844125734
 31
0.0
  0
LINE
  5
4D
100
AcDbEntity
  8
0
  6
Continuous
 62
               4
100
AcDbLine
 10
198.11648118929762
 20
204.31658103802428
 30
0.0
 11
195.03829989936659
 21
195.85934745095108
 31
0.0
  0
LINE
  5
4E
100
AcDbEntity
  8
0
  6
Continuous
 62
               4
100
AcDbLine
 10
198.11648118929762
 20
204.31658103802428
 30
0.0
 11
192.33139270211876
 21
197.42218104995348
 31
0.0
  0
LINE
  5
4F
100
AcDbEntity
  8
0
  6
Continuous
 62
               4
100
AcDbLine
 10
202.40993759198614
 20
270.84287924191659
 30
0.0
 11
190.86886033284469
 21
282.38395650105804
 31
0.0
  0
LINE
  5
50
100
AcDbEntity
  8
0
  6
Continuous
 62
               4
100
AcDbLine
 10
190.86886033284469
 20
282.38395650105804
 30
0.0
 11
73.651638330058361
 21
282.38395650105804
 31
0.0
  0
LINE
  5
51
100
AcDbEntity
  8
0
  6
Continuous
 62
               4
100
AcDbLine
 10
202.40993759198614
 20
270.84287924191659
 30
0.0
 11
195.0375691933852
 21
276.00506716907597
 31
0.0
  0
LINE
  5
52
100
AcDbEntity
  8
0
  6
Continuous
 62
               4
100
AcDbLine
 10
202.40993759198614
 20
270.84287924191659
 30
0.0
 11
197.24774966482673
 21
278.21524764051753
 31
0.0
  0
LINE
  5
53
100
AcDbEntity
  8
0
  6
Continuous
 62
               4
100
AcDbLine
 10
284.44316839837262
 20
303.20393441974505
 30
0.0
 11
303.03006775535539
 21
271.01048037828139
 31
0.0
  0
LINE
  5
54
100
AcDbEntity
  8
0
  6
Continuous
 62
               4
100
AcDbLine
 10
303.03006775535539
 20
271.01048037828139
 30
0.0
 11
363.44673294236952
 21
271.01048037828139
 31
0.0
  0
LINE
  5
55
100
AcDbEntity
  8
0
  6
Continuous
 62
               4
100
AcDbLine
 10
284.44316839837262
 20
303.20393441974505
 30
0.0
 11
290.22825688555145
 21
296.30953443167425
 31
0.0
  0
LINE
  5
56
100
AcDbEntity
  8
0
  6
Continuous
 62
               4
100
AcDbLine
 10
284.44316839837262
 20
303.20393441974505
 30
0.0
 11
287.52134968830359
 21
294.74670083267188
 31
0.0
  0
LINE
  5
57
100
AcDbEntity
  8
0
  6
Continuous
 62
               4
100
AcDbLine
 10
457.08972742122029
 20
332.9475477120904
 30
0.0
 11
424.08972742122029
 21
332.9475477120904
 31
0.0
  0
LINE
  5
58
100
AcDbEntity
  8
0
  6
Continuous
 62
               4
100
AcDbLine
 10
457.08972742122029
 20
271.18777764676059
 30
0.0
 11
424.08972742122029
 21
271.18777764676059
 31
0.0
  0
LINE
  5
59
100
AcDbEntity
  8
0
  6
Continuous
 62
               4
100
AcDbLine
 10
427.08972742122029
 20
332.9475477120904
 30
0.0
 11
427.08972742122029
 21
271.18777764676059
 31
0.0
  0
LINE
  5
5A
100
AcDbEntity
  8
0
  6
Continuous
 62
               4
100
AcDbLine
 10
463.08972742121966
 20
265.18777764676059
 30
0.0
 11
463.08972742121671
 21
232.18777764671825
 31
0.0
  0
LINE
  5
5B
100
AcDbEntity
  8
0
  6
Continuous
 62
               4
100
AcDbLine
 10
443.08972742121978
 20
327.83766032850514
 30
0.0
 11
443.08972742121102
 21
232.18777764672006
 31
0.0
  0
LINE
  5
5C
100
AcDbEntity
  8
0
  6
Continuous
 62
               4
100
AcDbLine
 10
463.08972742121693
 20
235.18777764671825
 30
0.0
 11
443.08972742121125
 21
235.18777764672006
 31
0.0
  0
LINE
  5
5D
100
AcDbEntity
  8
0
  6
Continuous
 62
               4
100
AcDbLine
 10
663.08972742122126
 20
265.18777764674229
 30
0.0
 11
663.0897274212133
 21
178.18777764669991
 31
0.0
  0
LINE
  5
5E
100
AcDbEntity
  8
0
  6
Continuous
 62
               4
100
AcDbLine
 10
463.08972742121966
 20
265.18777764676059
 30
0.0
 11
463.08972742121176
 21
178.18777764671819
 31
0.0
  0
LINE
  5
5F
100
AcDbEntity
  8
0
  6
Continuous
 62
               4
100
AcDbLine
 10
663.08972742121352
 20
181.18777764669991
 30
0.0
 11
463.08972742121199
 21
181.18777764671819
 31
0.0
  0
LINE
  5
60
100
AcDbEntity
  8
0
  6
Continuous
 62
               4
100
AcDbLine
 10
463.08972742121199
 20
181.18777764671819
 30
0.0
 11
218.08972742123044
 21
181.18777764674061
 31
0.0
  0
LINE
  5
61
100
AcDbEntity
  8
0
  6
Continuous
 62
               4
100
AcDbLine
 10
663.08972742122126
 20
265.18777764674229
 30
0.0
 11
663.08972742121171
 21
160.18777764669991
 31
0.0
  0
LINE
  5
62
100
AcDbEntity
  8
0
  6
Continuous
 62
               4
100
AcDbLine
 10
218.08972742122879
 20
163.18777764674061
 30
0.0
 11
663.08972742121193
 21
163.18777764669991
 31
0.0
  0
LINE
  5
63
100
AcDbEntity
  8
0
  6
Continuous
 62
               4
100
AcDbLine
 10
547.59710809275555
 20
377.65897323667224
 30
0.0
 11
571.59590818274785
 21
377.41898523577231
 31
0.0
  0
LINE
  5
64
100
AcDbEntity
  8
0
  6
Continuous
 62
               4
100
AcDbLine
 10
547.40211418992931
 20
407.66215051570413
 30
0.0
 11
571.89589045792036
 21
407.41721275302416
 31
0.0
  0
LINE
  5
65
100
AcDbEntity
  8
0
  6
Continuous
 62
               4
100
AcDbLine
 10
568.59605817149884
 20
377.44898373588478
 30
0.0
 11
568.89604044667135
 21
407.44721125313669
 31
0.0
  0
LINE
  5
66
100
AcDbEntity
  8
0
  6
Continuous
 62
               4
100
AcDbLine
 10
632.08972742123615
 20
426.12734882675034
 30
0.0
 11
626.08972742127048
 21
426.12734882675085
 31
0.0
  0
LINE
  5
67
100
AcDbEntity
  8
0
  6
Continuous
 62
               4
100
AcDbLine
 10
632.08972742123774
 20
446.12734882675022
 30
0.0
 11
626.08972742127196
 21
446.12734882675073
 31
0.0
  0
LINE
  5
68
100
AcDbEntity
  8
0
  6
Continuous
 62
               4
100
AcDbLine
 10
629.08972742127048
 20
426.12734882675056
 30
0.0
 11
629.08972742127196
 21
446.12734882675045
 31
0.0
  0
LINE
  5
69
100
AcDbEntity
  8
0
  6
Continuous
 62
               4
100
AcDbLine
 10
540.78525818085541
 20
396.50898117171465
 30
0.0
 11
574.7731341711534
 21
455.37770922826087
 31
0.0
  0
LINE
  5
6A
100
AcDbEntity
  8
0
  6
Continuous
 62
               4
100
AcDbLine
 10
574.7731341711534
 20
455.37770922826087
 30
0.0
 11
659.84990591323321
 21
455.37770922826087
 31
0.0
  0
LINE
  5
6B
100
AcDbEntity
  8
0
  6
Continuous
 62
               4
100
AcDbLine
 10
540.78525818085541
 20
396.50898117171465
 30
0.0
 11
543.86343947078637
 21
404.96621475878783
 31
0.0
  0
LINE
  5
6C
100
AcDbEntity
  8
0
  6
Continuous
 62
               4
100
AcDbLine
 10
540.78525818085541
 20
396.50898117171465
 30
0.0
 11
546.57034666803429
 21
403.4033811597854
 31
0.0
  0
LINE
  5
6D
100
AcDbEntity
  8
0
  6
Continuous
 62
               4
100
AcDbLine
 10
638.67669943273449
 20
339.11840292873501
 30
0.0
 11
628.86113033634695
 21
356.1194673088811
 31
0.0
  0
LINE
  5
6E
100
AcDbEntity
  8
0
  6
Continuous
 62
               4
100
AcDbLine
 10
628.86113033634695
 20
356.1194673088811
 30
0.0
 11
555.07102160171371
 21
356.11946730887934
 31
0.0
  0
LINE
  5
6F
100
AcDbEntity
  8
0
  6
Continuous
 62
               4
100
AcDbLine
 10
638.67669943273449
 20
339.11840292873501
 30
0.0
 11
632.89161094555561
 21
346.01280291680581
 31
0.0
  0
LINE
  5
70
100
AcDbEntity
  8
0
  6
Continuous
 62
               4
100
AcDbLine
 10
638.67669943273449
 20
339.11840292873501
 30
0.0
 11
635.59851814280341
 21
347.57563651580818
 31
0.0
  0
LINE
  5
71
100
AcDbEntity
  8
0
  6
Continuous
 62
               4
100
AcDbLine
 10
663.08972742122182
 20
376.63046372782225
 30
0.0
 11
727.36749965521608
 21
440.9082359618165
 31
0.0
  0
LINE
  5
72
100
AcDbEntity
  8
0
  6
Continuous
 62
               4
100
AcDbLine
 10
727.36749965521608
 20
440.9082359618165
 30
0.0
 11
838.39796624341432
 21
440.9082359618165
 31
0.0
  0
LINE
  5
73
100
AcDbEntity
  8
0
  6
Continuous
 62
               4
100
AcDbLine
 10
663.08972742122182
 20
376.63046372782225
 30
0.0
 11
668.2519153483812
 21
384.00283212642313
 31
0.0
  0
LINE
  5
74
100
AcDbEntity
  8
0
  6
Continuous
 62
               4
100
AcDbLine
 10
663.08972742122182
 20
376.63046372782225
 30
0.0
 11
670.46209581982271
 21
381.79265165498168
 31
0.0
  0
LINE
  5
75
100
AcDbEntity
  8
0
  6
Continuous
 62
               4
100
AcDbLine
 10
644.58972742123774
 20
406.11178270234603
 30
0.0
 11
710.50347577424509
 21
472.02553105535299
 31
0.0
  0
LINE
  5
76
100
AcDbEntity
  8
0
  6
Continuous
 62
               4
100
AcDbLine
 10
710.50347577424509
 20
472.02553105535299
 30
0.0
 11
790.2867807815652
 21
472.02553105535299
 31
0.0
  0
LINE
  5
77
100
AcDbEntity
  8
0
  6
Continuous
 62
               4
100
AcDbLine
 10
644.58972742123774
 20
406.11178270234603
 30
0.0
 11
649.75191534839723
 21
413.48415110094697
 31
0.0
  0
LINE
  5
78
100
AcDbEntity
  8
0
  6
Continuous
 62
               4
100
AcDbLine
 10
644.58972742123774
 20
406.11178270234603
 30
0.0
 11
651.96209581983874
 21
411.27397062950541
 31
0.0
  0
LINE
  5
79
100
AcDbEntity
  8
0
  6
Continuous
 62
               4
100
AcDbLine
 10
452.88286990617968
 20
367.23970883398704
 30
0.0
 11
438.50695359587246
 21
342.33989137917678
 31
0.0
  0
LINE
  5
7A
100
AcDbEntity
  8
0
  6
Continuous
 62
               4
100
AcDbLine
 10
438.50695359587246
 20
342.33989137917678
 30
0.0
 11
401.15666940840475
 21
342.33989137917797
 31
0.0
  0
LINE
  5
7B
100
AcDbEntity
  8
0
  6
Continuous
 62
               4
100
AcDbLine
 10
452.88286990617968
 20
367.23970883398704
 30
0.0
 11
449.80468861624865
 21
358.7824752469138
 31
0.0
  0
LINE
  5
7C
100
AcDbEntity
  8
0
  6
Continuous
 62
               4
100
AcDbLine
 10
452.88286990617968
 20
367.23970883398704
 30
0.0
 11
447.09778141900085
 21
360.34530884591624
 31
0.0
  0
LINE
  5
7D
100
AcDbEntity
  8
0
  6
Continuous
 62
               4
100
AcDbLine
 10
542.01237073324012
 20
413.21604802465248
 30
0.0
 11
542.68215847611873
 21
446.70435152639573
 31
0.0
  0
LINE
  5
7E
100
AcDbEntity
  8
0
  6
Continuous
 62
               4
100
AcDbLine
 10
511.93262177551867
 20
409.77621734257491
 30
0.0
 11
512.68320871471826
 21
447.3043499362397
 31
0.0
  0
LINE
  5
7F
100
AcDbEntity
  8
0
  6
Continuous
 62
               4
100
AcDbLine
 10
542.62216853215477
 20
443.70495138526366
 30
0.0
 11
512.62321877075431
 21
444.30494979510758
 31
0.0
  0
LINE
  5
80
100
AcDbEntity
  8
0
  6
Continuous
 62
               4
100
AcDbLine
 10
412.01752068878164
 20
415.02095801782502
 30
0.0
 11
412.7032040103154
 21
449.30401473503952
 31
0.0
  0
LINE
  5
81
100
AcDbEntity
  8
0
  6
Continuous
 62
               4
100
AcDbLine
 10
512.62321877075431
 20
444.30494979510758
 30
0.0
 11
412.64321406635139
 21
446.30461459390744
 31
0.0
  0
LINE
  5
82
100
AcDbEntity
  8
0
  6
Continuous
 62
               4
100
AcDbLine
 10
431.99261063757001
 20
413.57550928511205
 30
0.0
 11
432.33926528741205
 21
430.9076809284868
 31
0.0
  0
LINE
  5
83
100
AcDbEntity
  8
0
  6
Continuous
 62
               4
100
AcDbLine
 10
512.26327910697034
 20
426.30854894831492
 30
0.0
 11
432.27927534344809
 21
427.90828078735473
 31
0.0
  0
LINE
  5
84
100
AcDbEntity
  8
0
  6
Continuous
 62
               4
100
AcDbLine
 10
663.08972742123831
 20
452.12734882674755
 30
0.0
 11
663.08972742124445
 21
521.12734882668883
 31
0.0
  0
LINE
  5
85
100
AcDbEntity
  8
0
  6
Continuous
 62
               4
100
AcDbLine
 10
638.08972742123819
 20
452.12734882674977
 30
0.0
 11
638.08972742124433
 21
521.1273488266911
 31
0.0
  0
LINE
  5
86
100
AcDbEntity
  8
0
  6
Continuous
 62
               4
100
AcDbLine
 10
663.08972742124411
 20
518.12734882668883
 30
0.0
 11
638.08972742124411
 21
518.1273488266911
 31
0.0
  0
LINE
  5
87
100
AcDbEntity
  8
0
  6
Continuous
 62
               4
100
AcDbLine
 10
511.81264188759121
 20
409.77741706031071
 30
0.0
 11
511.8126418876011
 21
521.12734882664358
 31
0.0
  0
LINE
  5
88
100
AcDbEntity
  8
0
  6
Continuous
 62
               4
100
AcDbLine
 10
638.08972742124411
 20
518.12734882663244
 30
0.0
 11
511.81264188760088
 21
518.12734882664358
 31
0.0
  0
LINE
  5
89
100
AcDbEntity
  8
0
  6
Continuous
 62
               4
100
AcDbLine
 10
663.08972742123831
 20
452.12734882674755
 30
0.0
 11
663.08972742124604
 21
539.12734882663005
 31
0.0
  0
LINE
  5
8A
100
AcDbEntity
  8
0
  6
Continuous
 62
               4
100
AcDbLine
 10
511.81264188759121
 20
409.77741706031071
 30
0.0
 11
511.81264188760269
 21
539.12734882664358
 31
0.0
  0
LINE
  5
8B
100
AcDbEntity
  8
0
  6
Continuous
 62
               4
100
AcDbLine
 10
663.08972742124581
 20
536.12734882663005
 30
0.0
 11
511.81264188760247
 21
536.12734882664358
 31
0.0
  0
LINE
  5
8C
100
AcDbEntity
  8
0
  6
Continuous
 62
               4
100
AcDbLine
 10
511.81264188760247
 20
536.12734882664358
 30
0.0
 11
218.08972742121702
 21
536.12734882666962
 31
0.0
  0
LINE
  5
8D
100
AcDbEntity
  8
0
  6
Continuous
 62
               4
100
AcDbLine
 10
663.08972742123831
 20
452.12734882674755
 30
0.0
 11
663.08972742124752
 21
557.12734882663005
 31
0.0
  0
LINE
  5
8E
100
AcDbEntity
  8
0
  6
Continuous
 62
               4
100
AcDbLine
 10
663.08972742124729
 20
554.12734882663005
 30
0.0
 11
218.08972742121864
 21
554.1273488266695
 31
0.0
  0
LINE
  5
8F
100
AcDbEntity
  8
0
  6
Continuous
 62
               4
100
AcDbLine
 10
338.24308611770493
 20
337.13490100039428
 30
0.0
 11
328.26494133359682
 21
319.85224726904062
 31
0.0
  0
LINE
  5
90
100
AcDbEntity
  8
0
  6
Continuous
 62
               4
100
AcDbLine
 10
328.26494133359682
 20
319.85224726904062
 30
0.0
 11
218.16044456723239
 21
319.85224726904062
 31
0.0
  0
LINE
  5
91
100
AcDbEntity
  8
0
  6
Continuous
 62
               4
100
AcDbLine
 10
338.24308611770493
 20
337.13490100039428
 30
0.0
 11
335.16490482777391
 21
328.6776674133211
 31
0.0
  0
LINE
  5
92
100
AcDbEntity
  8
0
  6
Continuous
 62
               4
100
AcDbLine
 10
338.24308611770493
 20
337.13490100039428
 30
0.0
 11
332.45799763052605
 21
330.24050101232348
 31
0.0
  0
LINE
  5
93
100
AcDbEntity
  8
0
  6
Continuous
 62
               4
100
AcDbLine
 10
714.78679656440374
 20
21.213203435596483
 30
0.0
 11
714.78679656440374
 21
41.213203435596483
 31
0.0
  0
LINE
  5
94
100
AcDbEntity
  8
0
  6
Continuous
 62
               4
100
AcDbLine
 10
864.78679656440374
 20
21.213203435596483
 30
0.0
 11
714.78679656440374
 21
21.213203435596483
 31
0.0
  0
LINE
  5
95
100
AcDbEntity
  8
0
  6
Continuous
 62
               4
100
AcDbLine
 10
864.78679656440374
 20
41.213203435596483
 30
0.0
 11
864.78679656440374
 21
21.213203435596483
 31
0.0
  0
LINE
  5
96
100
AcDbEntity
  8
0
  6
Continuous
 62
               4
100
AcDbLine
 10
864.78679656440374
 20
41.213203435596483
 30
0.0
 11
714.78679656440374
 21
41.213203435596483
 31
0.0
  0
LINE
  5
97
100
AcDbEntity
  8
0
  6
Continuous
 62
               4
100
AcDbLine
 10
14.142135623730949
 20
595.85786437626905
 30
0.0
 11
14.142135623730949
 21
615.85786437626905
 31
0.0
  0
LINE
  5
98
100
AcDbEntity
  8
0
  6
Continuous
 62
               4
100
AcDbLine
 10
164.14213562373095
 20
595.85786437626905
 30
0.0
 11
14.142135623730949
 21
595.85786437626905
 31
0.0
  0
LINE
  5
99
100
AcDbEntity
  8
0
  6
Continuous
 62
               4
100
AcDbLine
 10
164.14213562373095
 20
615.85786437626905
 30
0.0
 11
164.14213562373095
 21
595.85786437626905
 31
0.0
  0
LINE
  5
9A
100
AcDbEntity
  8
0
  6
Continuous
 62
               4
100
AcDbLine
 10
164.14213562373095
 20
615.85786437626905
 30
0.0
 11
14.142135623730949
 21
615.85786437626905
 31
0.0
  0
LINE
  5
9B
100
AcDbEntity
  8
0
  6
Continuous
 62
               7
100
AcDbLine
 10
200.58972742122211
 20
264.03218620116428
 30
0.0
 11
235.58972742122234
 21
264.03218620116428
 31
0.0
  0
LINE
  5
9C
100
AcDbEntity
  8
0
  6
Continuous
 62
               3
100
AcDbLine
 10
183.15573621478524
 20
340.23674836734432
 30
0.0
 11
117.96416332667519
 21
341.54062201556195
 31
0.0
  0
LINE
  5
9D
100
AcDbEntity
  8
0
  6
Continuous
 62
               3
100
AcDbLine
 10
117.96416332667519
 20
342.54082200850718
 30
0.0
 11
183.17573286277315
 21
341.23654841438844
 31
0.0
  0
LINE
  5
9E
100
AcDbEntity
  8
0
  6
Continuous
 62
               7
100
AcDbLine
 10
208.08972742122222
 20
289.03216699452975
 30
0.0
 11
228.08972742122222
 21
287.9346938499985
 31
0.0
  0
LINE
  5
9F
100
AcDbEntity
  8
0
  6
Continuous
 62
               7
100
AcDbLine
 10
208.08972742122222
 20
287.9346938499985
 30
0.0
 11
228.08972742122222
 21
286.83720149883317
 31
0.0
  0
LINE
  5
A0
100
AcDbEntity
  8
0
  6
Continuous
 62
               7
100
AcDbLine
 10
208.08972742122222
 20
286.83720149883317
 30
0.0
 11
228.08972742122222
 21
285.73970914766738
 31
0.0
  0
LINE
  5
A1
100
AcDbEntity
  8
0
  6
Continuous
 62
               7
100
AcDbLine
 10
208.08972742122222
 20
285.73970914766738
 30
0.0
 11
228.08972742122222
 21
284.64221679650205
 31
0.0
  0
LINE
  5
A2
100
AcDbEntity
  8
0
  6
Continuous
 62
               7
100
AcDbLine
 10
208.08972742122222
 20
284.64221679650205
 30
0.0
 11
228.08972742122222
 21
283.54472444533627
 31
0.0
  0
LINE
  5
A3
100
AcDbEntity
  8
0
  6
Continuous
 62
               7
100
AcDbLine
 10
208.08972742122222
 20
283.54472444533627
 30
0.0
 11
228.08972742122222
 21
282.44723209417094
 31
0.0
  0
LINE
  5
A4
100
AcDbEntity
  8
0
  6
Continuous
 62
               7
100
AcDbLine
 10
208.08972742122222
 20
282.44723209417094
 30
0.0
 11
228.08972742122222
 21
281.34973974300516
 31
0.0
  0
LINE
  5
A5
100
AcDbEntity
  8
0
  6
Continuous
 62
               7
100
AcDbLine
 10
208.08972742122222
 20
281.34973974300516
 30
0.0
 11
228.08972742122222
 21
280.25224739183983
 31
0.0
  0
LINE
  5
A6
100
AcDbEntity
  8
0
  6
Continuous
 62
               7
100
AcDbLine
 10
208.08972742122222
 20
280.25224739183983
 30
0.0
 11
228.08972742122222
 21
279.15475504067405
 31
0.0
  0
LINE
  5
A7
100
AcDbEntity
  8
0
  6
Continuous
 62
               7
100
AcDbLine
 10
208.08972742122222
 20
279.15475504067405
 30
0.0
 11
210.3233437080209
 21
279.03218620116428
 31
0.0
  0
LINE
  5
A8
100
AcDbEntity
  8
0
  6
Continuous
 62
               7
100
AcDbLine
 10
201.58972742122222
 20
279.03218620116428
 30
0.0
 11
234.58972742122234
 21
279.03218620116428
 31
0.0
  0
LINE
  5
A9
100
AcDbEntity
  8
0
  6
Continuous
 62
               7
100
AcDbLine
 10
200.58972742122211
 20
278.03218620116428
 30
0.0
 11
200.58972742122211
 21
264.03218620116428
 31
0.0
  0
LINE
  5
AA
100
AcDbEntity
  8
0
  6
Continuous
 62
               7
100
AcDbLine
 10
235.58972742122234
 20
278.03218620116428
 30
0.0
 11
235.58972742122234
 21
264.03218620116428
 31
0.0
  0
LINE
  5
AB
100
AcDbEntity
  8
0
  6
Continuous
 62
               7
100
AcDbLine
 10
235.58972742122234
 20
278.03218620116428
 30
0.0
 11
234.58972742122234
 21
279.03218620116428
 31
0.0
  0
LINE
  5
AC
100
AcDbEntity
  8
0
  6
Continuous
 62
               7
100
AcDbLine
 10
201.58972742122222
 20
279.03218620116428
 30
0.0
 11
200.58972742122211
 21
278.03218620116428
 31
0.0
  0
LINE
  5
AD
100
AcDbEntity
  8
0
  6
Continuous
 62
               7
100
AcDbLine
 10
226.83972742122222
 20
278.03218620116428
 30
0.0
 11
226.83972742122222
 21
264.03218620116428
 31
0.0
  0
LINE
  5
AE
100
AcDbEntity
  8
0
  6
Continuous
 62
               7
100
AcDbLine
 10
226.83972742122222
 20
278.03218620116428
 30
0.0
 11
225.83972742122222
 21
279.03218620116428
 31
0.0
  0
LINE
  5
AF
100
AcDbEntity
  8
0
  6
Continuous
 62
               7
100
AcDbLine
 10
209.33972742122222
 20
278.03218620116428
 30
0.0
 11
209.33972742122222
 21
264.03218620116428
 31
0.0
  0
LINE
  5
B0
100
AcDbEntity
  8
0
  6
Continuous
 62
               7
100
AcDbLine
 10
209.33972742122222
 20
278.03218620116428
 30
0.0
 11
208.33972742122222
 21
279.03218620116428
 31
0.0
  0
LINE
  5
B1
100
AcDbEntity
  8
0
  6
Continuous
 62
               7
100
AcDbLine
 10
209.33972742122222
 20
278.03218620116428
 30
0.0
 11
210.33972742122222
 21
279.03218620116428
 31
0.0
  0
LINE
  5
B2
100
AcDbEntity
  8
0
  6
Continuous
 62
               7
100
AcDbLine
 10
226.83972742122222
 20
278.03218620116428
 30
0.0
 11
227.83972742122234
 21
279.03218620116428
 31
0.0
  0
LINE
  5
B3
100
AcDbEntity
  8
0
  6
Continuous
 62
               7
100
AcDbLine
 10
201.58972742122222
 20
289.03218620116428
 30
0.0
 11
234.58972742122234
 21
289.03218620116428
 31
0.0
  0
LINE
  5
B4
100
AcDbEntity
  8
0
  6
Continuous
 62
               7
100
AcDbLine
 10
200.58972742122211
 20
290.03218620116428
 30
0.0
 11
200.58972742122211
 21
304.74420200846401
 31
0.0
  0
LINE
  5
B5
100
AcDbEntity
  8
0
  6
Continuous
 62
               7
100
AcDbLine
 10
235.58972742122234
 20
290.03218620116428
 30
0.0
 11
235.58972742122234
 21
303.53724905943062
 31
0.0
  0
LINE
  5
B6
100
AcDbEntity
  8
0
  6
Continuous
 62
               7
100
AcDbLine
 10
235.58972742122234
 20
290.03218620116428
 30
0.0
 11
234.58972742122234
 21
289.03218620116428
 31
0.0
  0
LINE
  5
B7
100
AcDbEntity
  8
0
  6
Continuous
 62
               7
100
AcDbLine
 10
201.58972742122222
 20
289.03218620116428
 30
0.0
 11
200.58972742122211
 21
290.03218620116428
 31
0.0
  0
LINE
  5
B8
100
AcDbEntity
  8
0
  6
Continuous
 62
               7
100
AcDbLine
 10
226.83972742122222
 20
290.03218620116428
 30
0.0
 11
226.83972742122222
 21
303.83898729668891
 31
0.0
  0
LINE
  5
B9
100
AcDbEntity
  8
0
  6
Continuous
 62
               7
100
AcDbLine
 10
226.83972742122222
 20
290.03218620116428
 30
0.0
 11
225.83972742122222
 21
289.03218620116428
 31
0.0
  0
LINE
  5
BA
100
AcDbEntity
  8
0
  6
Continuous
 62
               7
100
AcDbLine
 10
209.33972742122222
 20
290.03218620116428
 30
0.0
 11
209.33972742122222
 21
304.44246377120572
 31
0.0
  0
LINE
  5
BB
100
AcDbEntity
  8
0
  6
Continuous
 62
               7
100
AcDbLine
 10
209.33972742122222
 20
290.03218620116428
 30
0.0
 11
208.33972742122222
 21
289.03218620116428
 31
0.0
  0
LINE
  5
BC
100
AcDbEntity
  8
0
  6
Continuous
 62
               7
100
AcDbLine
 10
209.33972742122222
 20
290.03218620116428
 30
0.0
 11
210.33972742122222
 21
289.03218620116428
 31
0.0
  0
LINE
  5
BD
100
AcDbEntity
  8
0
  6
Continuous
 62
               7
100
AcDbLine
 10
226.83972742122222
 20
290.03218620116428
 30
0.0
 11
227.83972742122234
 21
289.03218620116428
 31
0.0
  0
LINE
  5
BE
100
AcDbEntity
  8
0
  6
Continuous
 62
               7
100
AcDbLine
 10
208.08972742122222
 20
289.03218620116428
 30
0.0
 11
208.08972742122222
 21
279.03218620116428
 31
0.0
  0
LINE
  5
BF
100
AcDbEntity
  8
0
  6
Continuous
 62
               7
100
AcDbLine
 10
228.08972742122234
 20
289.03218620116428
 30
0.0
 11
228.08972742122234
 21
279.03218620116428
 31
0.0
  0
LINE
  5
C0
100
AcDbEntity
  8
0
  6
Continuous
 62
               7
100
AcDbLine
 10
117.96416332667519
 20
396.55162162754601
 30
0.0
 11
143.66535232793893
 21
396.03758121431468
 31
0.0
  0
LINE
  5
C1
100
AcDbEntity
  8
0
  6
DASHED
 62
               6
100
AcDbLine
 10
117.96416332667519
 20
412.65484151396259
 30
0.0
 11
511.83263853557861
 21
404.77721710735608
 31
0.0
  0
LINE
  5
C2
100
AcDbEntity
  8
0
  6
Continuous
 62
               3
100
AcDbLine
 10
117.96416332667519
 20
411.6546415210176
 30
0.0
 11
511.8126418875907
 21
403.77741706031162
 31
0.0
  0
LINE
  5
C3
100
AcDbEntity
  8
0
  6
Continuous
 62
               3
100
AcDbLine
 10
117.96416332667519
 20
399.65224160567556
 30
0.0
 11
511.57268211173465
 21
391.77981649578345
 31
0.0
  0
LINE
  5
C4
100
AcDbEntity
  8
0
  6
DOT
 62
               6
100
AcDbLine
 10
491.51772518299464
 20
391.68551824290893
 30
0.0
 11
490.89677928078237
 21
351.69033820597775
 31
0.0
  0
LINE
  5
C5
100
AcDbEntity
  8
0
  6
Continuous
 62
               6
100
AcDbLine
 10
493.66955085804722
 20
388.5655287055144
 30
0.0
 11
493.09651418281402
 21
351.65618618135608
 31
0.0
  0
LINE
  5
C6
100
AcDbEntity
  8
0
  6
Continuous
 62
               6
100
AcDbLine
 10
442.86380655471982
 20
352.74595875870961
 30
0.0
 11
492.85380890692142
 21
351.7461263593097
 31
0.0
  0
LINE
  5
C7
100
AcDbEntity
  8
0
  6
Continuous
 62
               6
100
AcDbLine
 10
443.66367247423983
 20
392.73796064047093
 30
0.0
 11
442.86380655471982
 21
352.74595875870961
 31
0.0
  0
LINE
  5
C8
100
AcDbEntity
  8
0
  6
Continuous
 62
               6
100
AcDbLine
 10
491.46913291552329
 20
388.55568603209457
 30
0.0
 11
493.66955085804722
 21
388.5655287055144
 31
0.0
  0
LINE
  5
C9
100
AcDbEntity
  8
0
  6
DOT
 62
               6
100
AcDbLine
 10
490.978205455607
 20
356.93500526992244
 30
0.0
 11
493.19904848048651
 21
358.26042928975545
 31
0.0
  0
LINE
  5
CA
100
AcDbEntity
  8
0
  6
DOT
 62
               6
100
AcDbLine
 10
491.0147042231161
 20
359.28589408722058
 30
0.0
 11
493.23554724799584
 21
360.61131810705348
 31
0.0
  0
LINE
  5
CB
100
AcDbEntity
  8
0
  6
DOT
 62
               6
100
AcDbLine
 10
491.33576665017023
 20
379.96555318050747
 30
0.0
 11
493.55614059241117
 21
381.26076354644164
 31
0.0
  0
LINE
  5
CC
100
AcDbEntity
  8
0
  6
DOT
 62
               6
100
AcDbLine
 10
491.37204303146865
 20
382.30211808245718
 30
0.0
 11
493.59241697370982
 21
383.59732844839147
 31
0.0
  0
LINE
  5
CD
100
AcDbEntity
  8
0
  6
Continuous
 62
               3
100
AcDbLine
 10
494.74436639253378
 20
386.9348565516371
 30
0.0
 11
494.09269632428214
 21
344.96073028480856
 31
0.0
  0
LINE
  5
CE
100
AcDbEntity
  8
0
  6
Continuous
 62
               3
100
AcDbLine
 10
483.29385892939337
 20
334.52674346609712
 30
0.0
 11
493.51305323363869
 21
344.34517233892149
 31
0.0
  0
LINE
  5
CF
100
AcDbEntity
  8
0
  6
Continuous
 62
               3
100
AcDbLine
 10
494.09269632428214
 20
344.96073028480856
 30
0.0
 11
494.75423307733655
 21
387.57037058539441
 31
0.0
  0
LINE
  5
D0
100
AcDbEntity
  8
0
  6
Continuous
 62
               3
100
AcDbLine
 10
494.74976002939121
 20
388.57036058126556
 30
0.0
 11
512.15319152014058
 21
388.64820774349749
 31
0.0
  0
LINE
  5
D1
100
AcDbEntity
  8
0
  6
Continuous
 62
               3
100
AcDbLine
 10
513.15765456395502
 20
387.65269079556964
 30
0.0
 11
513.19464667044758
 21
379.38277352971596
 31
0.0
  0
LINE
  5
D2
100
AcDbEntity
  8
0
  6
DOT
 62
               6
100
AcDbLine
 10
486.6035522269961
 20
375.62672198498245
 30
0.0
 11
490.80257243967873
 21
375.53600675207571
 31
0.0
  0
LINE
  5
D3
100
AcDbEntity
  8
0
  6
DOT
 62
               6
100
AcDbLine
 10
490.80257243967873
 20
375.53600675207571
 30
0.0
 11
490.56390498167394
 21
364.48858452585063
 31
0.0
  0
LINE
  5
D4
100
AcDbEntity
  8
0
  6
DOT
 62
               6
100
AcDbLine
 10
486.36488476899132
 20
364.57929975875737
 30
0.0
 11
490.56390498167394
 21
364.48858452585063
 31
0.0
  0
LINE
  5
D5
100
AcDbEntity
  8
0
  6
DOT
 62
               6
100
AcDbLine
 10
485.38671691666383
 20
365.60066534104072
 30
0.0
 11
485.58218664471298
 21
374.64855413265497
 31
0.0
  0
LINE
  5
D6
100
AcDbEntity
  8
0
  6
DOT
 62
               6
100
AcDbLine
 10
491.28646811017353
 20
374.78517035359613
 30
0.0
 11
491.18312206932893
 21
370.0014962064742
 31
0.0
  0
LINE
  5
D7
100
AcDbEntity
  8
0
  6
DOT
 62
               6
100
AcDbLine
 10
491.28646811017353
 20
374.78517035359613
 30
0.0
 11
490.78658475152071
 21
374.7959697860851
 31
0.0
  0
LINE
  5
D8
100
AcDbEntity
  8
0
  6
DOT
 62
               6
100
AcDbLine
 10
491.07977602848456
 20
365.21782205935239
 30
0.0
 11
491.18312206932893
 21
370.0014962064742
 31
0.0
  0
LINE
  5
D9
100
AcDbEntity
  8
0
  6
DOT
 62
               6
100
AcDbLine
 10
491.07977602848456
 20
365.21782205935239
 30
0.0
 11
490.57989266983196
 21
365.22862149184124
 31
0.0
  0
LINE
  5
DA
100
AcDbEntity
  8
0
  6
DOT
 62
               6
100
AcDbLine
 10
486.6035522269961
 20
375.62672198498245
 30
0.0
 11
485.58218664471298
 21
374.64855413265497
 31
0.0
  0
LINE
  5
DB
100
AcDbEntity
  8
0
  6
DOT
 62
               6
100
AcDbLine
 10
486.5438853624949
 20
372.86486642842596
 30
0.0
 11
490.74290557517753
 21
372.77415119551921
 31
0.0
  0
LINE
  5
DC
100
AcDbEntity
  8
0
  6
DOT
 62
               6
100
AcDbLine
 10
486.5438853624949
 20
372.86486642842596
 30
0.0
 11
485.52251978021178
 21
371.88669857609835
 31
0.0
  0
LINE
  5
DD
100
AcDbEntity
  8
0
  6
DOT
 62
               6
100
AcDbLine
 10
486.5438853624949
 20
372.86486642842596
 30
0.0
 11
485.56571751016742
 21
373.88623201070931
 31
0.0
  0
LINE
  5
DE
100
AcDbEntity
  8
0
  6
DOT
 62
               6
100
AcDbLine
 10
486.42455163349274
 20
367.34115531531398
 30
0.0
 11
490.62357184617514
 21
367.25044008240712
 31
0.0
  0
LINE
  5
DF
100
AcDbEntity
  8
0
  6
DOT
 62
               6
100
AcDbLine
 10
486.42455163349274
 20
367.34115531531398
 30
0.0
 11
485.40318605120939
 21
366.36298746298627
 31
0.0
  0
LINE
  5
E0
100
AcDbEntity
  8
0
  6
DOT
 62
               6
100
AcDbLine
 10
486.42455163349274
 20
367.34115531531398
 30
0.0
 11
485.4463837811648
 21
368.36252089759711
 31
0.0
  0
LINE
  5
E1
100
AcDbEntity
  8
0
  6
DOT
 62
               6
100
AcDbLine
 10
486.36488476899132
 20
364.57929975875737
 30
0.0
 11
485.38671691666383
 21
365.60066534104072
 31
0.0
  0
LINE
  5
E2
100
AcDbEntity
  8
0
  6
DOT
 62
               6
100
AcDbLine
 10
503.51636687778461
 20
375.27778112966217
 30
0.0
 11
499.31734666510198
 21
375.36849636256892
 31
0.0
  0
LINE
  5
E3
100
AcDbEntity
  8
0
  6
DOT
 62
               6
100
AcDbLine
 10
503.27769941977959
 20
364.23035890343743
 30
0.0
 11
499.07867920709697
 21
364.32107413634429
 31
0.0
  0
LINE
  5
E4
100
AcDbEntity
  8
0
  6
DOT
 62
               6
100
AcDbLine
 10
504.29906500206317
 20
365.20852675576515
 30
0.0
 11
504.49453473011209
 21
374.25641554737894
 31
0.0
  0
LINE
  5
E5
100
AcDbEntity
  8
0
  6
DOT
 62
               6
100
AcDbLine
 10
503.51636687778461
 20
375.27778112966217
 30
0.0
 11
504.49453473011209
 21
374.25641554737894
 31
0.0
  0
LINE
  5
E6
100
AcDbEntity
  8
0
  6
DOT
 62
               6
100
AcDbLine
 10
503.45670001328341
 20
372.51592557310613
 30
0.0
 11
499.25767980060078
 21
372.60664080601288
 31
0.0
  0
LINE
  5
E7
100
AcDbEntity
  8
0
  6
DOT
 62
               6
100
AcDbLine
 10
503.45670001328341
 20
372.51592557310613
 30
0.0
 11
504.4348678656109
 21
371.49455999082289
 31
0.0
  0
LINE
  5
E8
100
AcDbEntity
  8
0
  6
DOT
 62
               6
100
AcDbLine
 10
503.45670001328341
 20
372.51592557310613
 30
0.0
 11
504.47806559556653
 21
373.49409342543373
 31
0.0
  0
LINE
  5
E9
100
AcDbEntity
  8
0
  6
DOT
 62
               6
100
AcDbLine
 10
503.33736628428102
 20
366.99221445999348
 30
0.0
 11
499.13834607159839
 21
367.08292969290034
 31
0.0
  0
LINE
  5
EA
100
AcDbEntity
  8
0
  6
DOT
 62
               6
100
AcDbLine
 10
503.33736628428102
 20
366.99221445999348
 30
0.0
 11
504.31553413660851
 21
365.97084887771024
 31
0.0
  0
LINE
  5
EB
100
AcDbEntity
  8
0
  6
DOT
 62
               6
100
AcDbLine
 10
503.33736628428102
 20
366.99221445999348
 30
0.0
 11
504.35873186656414
 21
367.97038231232119
 31
0.0
  0
LINE
  5
EC
100
AcDbEntity
  8
0
  6
DOT
 62
               6
100
AcDbLine
 10
503.27769941977959
 20
364.23035890343743
 30
0.0
 11
504.29906500206317
 21
365.20852675576515
 31
0.0
  0
LINE
  5
ED
100
AcDbEntity
  8
0
  6
DOT
 62
               6
100
AcDbLine
 10
481.53938207391121
 20
372.71042199002267
 30
0.0
 11
481.48538491146661
 21
370.211005196759
 31
0.0
  0
LINE
  5
EE
100
AcDbEntity
  8
0
  6
DOT
 62
               6
100
AcDbLine
 10
482.05006486505278
 20
373.19950591618641
 30
0.0
 11
485.54924837562186
 21
373.12390988876399
 31
0.0
  0
LINE
  5
EF
100
AcDbEntity
  8
0
  6
DOT
 62
               6
100
AcDbLine
 10
482.05006486505278
 20
373.19950591618641
 30
0.0
 11
481.53938207391121
 21
372.71042199002267
 31
0.0
  0
LINE
  5
F0
100
AcDbEntity
  8
0
  6
DOT
 62
               6
100
AcDbLine
 10
481.43138774902201
 20
367.71158840349545
 30
0.0
 11
481.52155137691904
 21
370.20996197848461
 31
0.0
  0
LINE
  5
F1
100
AcDbEntity
  8
0
  6
DOT
 62
               6
100
AcDbLine
 10
481.92047167518587
 20
367.20090561235378
 30
0.0
 11
485.41965518575472
 21
367.12530958493147
 31
0.0
  0
LINE
  5
F2
100
AcDbEntity
  8
0
  6
DOT
 62
               6
100
AcDbLine
 10
481.92047167518587
 20
367.20090561235378
 30
0.0
 11
481.43138774902201
 21
367.71158840349545
 31
0.0
  0
LINE
  5
F3
100
AcDbEntity
  8
0
  6
DOT
 62
               6
100
AcDbLine
 10
481.53938207391121
 20
372.71042199002267
 30
0.0
 11
481.92047167518587
 21
367.20090561235378
 31
0.0
  0
LINE
  5
F4
100
AcDbEntity
  8
0
  6
DOT
 62
               6
100
AcDbLine
 10
482.00750796579115
 20
373.1587489223395
 30
0.0
 11
482.42035503383869
 21
367.19010617986481
 31
0.0
  0
LINE
  5
F5
100
AcDbEntity
  8
0
  6
DOT
 62
               6
100
AcDbLine
 10
482.50450428200958
 20
373.18968825028736
 30
0.0
 11
482.92023839249129
 21
367.17930674737596
 31
0.0
  0
LINE
  5
F6
100
AcDbEntity
  8
0
  6
DOT
 62
               6
100
AcDbLine
 10
483.0043876406624
 20
373.17888881779839
 30
0.0
 11
483.42012175114411
 21
367.16850731488711
 31
0.0
  0
LINE
  5
F7
100
AcDbEntity
  8
0
  6
DOT
 62
               6
100
AcDbLine
 10
483.50427099931522
 20
373.16808938530954
 30
0.0
 11
483.9200051097967
 21
367.15770788239826
 31
0.0
  0
LINE
  5
F8
100
AcDbEntity
  8
0
  6
DOT
 62
               6
100
AcDbLine
 10
484.00415435796805
 20
373.15728995282058
 30
0.0
 11
484.4198884684493
 21
367.14690844990929
 31
0.0
  0
LINE
  5
F9
100
AcDbEntity
  8
0
  6
DOT
 62
               6
100
AcDbLine
 10
484.50403771662064
 20
373.14649052033172
 30
0.0
 11
484.91977182710212
 21
367.13610901742044
 31
0.0
  0
LINE
  5
FA
100
AcDbEntity
  8
0
  6
DOT
 62
               6
100
AcDbLine
 10
485.00392107527347
 20
373.13569108784287
 30
0.0
 11
485.41965518575472
 21
367.12530958493147
 31
0.0
  0
LINE
  5
FB
100
AcDbEntity
  8
0
  6
Continuous
 62
               3
100
AcDbLine
 10
512.19465667457644
 20
379.37830048177256
 30
0.0
 11
512.1576645680841
 21
387.64821774762623
 31
0.0
  0
LINE
  5
FC
100
AcDbEntity
  8
0
  6
Continuous
 62
               3
100
AcDbLine
 10
512.1576645680841
 20
387.64821774762623
 30
0.0
 11
494.75423307733655
 21
387.57037058539441
 31
0.0
  0
LINE
  5
FD
100
AcDbEntity
  8
0
  6
Continuous
 62
               3
100
AcDbLine
 10
493.75435357641123
 20
387.58589423294978
 30
0.0
 11
493.09281682335865
 21
344.97625393236382
 31
0.0
  0
LINE
  5
FE
100
AcDbEntity
  8
0
  6
Continuous
 62
               3
100
AcDbLine
 10
492.82022760593628
 20
345.06627749741034
 30
0.0
 11
482.60103330169119
 21
335.24784862458552
 31
0.0
  0
LINE
  5
FF
100
AcDbEntity
  8
0
  6
Continuous
 62
               3
100
AcDbLine
 10
512.19465667457644
 20
379.37830048177256
 30
0.0
 11
513.19464667044758
 21
379.38277352971596
 31
0.0
  0
LINE
  5
100
100
AcDbEntity
  8
0
  6
Continuous
 62
               7
100
AcDbLine
 10
512.29333997321396
 20
298.64678352896664
 30
0.0
 11
511.89523355902344
 21
387.64704386939724
 31
0.0
  0
LINE
  5
101
100
AcDbEntity
  8
0
  6
DOT
 62
               6
100
AcDbLine
 10
443.60968152467223
 20
390.03850051345222
 30
0.0
 11
491.40012377337649
 21
389.08266073962596
 31
0.0
  0
LINE
  5
102
100
AcDbEntity
  8
0
  6
DOT
 62
               6
100
AcDbLine
 10
443.36972174881618
 20
378.04089994892325
 30
0.0
 11
491.16016399752044
 21
377.085060175097
 31
0.0
  0
LINE
  5
103
100
AcDbEntity
  8
0
  6
Continuous
 62
               7
100
AcDbLine
 10
235.58972742122211
 20
265.23218620116432
 30
0.0
 11
235.58972742122211
 21
264.03218620116428
 31
0.0
  0
LINE
  5
104
100
AcDbEntity
  8
0
  6
Continuous
 62
               3
100
AcDbLine
 10
511.57268211173465
 20
391.77981649578345
 30
0.0
 11
511.8126418875907
 21
403.77741706031071
 31
0.0
  0
LINE
  5
105
100
AcDbEntity
  8
0
  6
Continuous
 62
               3
100
AcDbLine
 10
513.10500438774739
 20
405.95200895840168
 30
0.0
 11
431.87263074964204
 21
407.57670900284785
 31
0.0
  0
LINE
  5
106
100
AcDbEntity
  8
0
  6
Continuous
 62
               7
100
AcDbLine
 10
523.91168654929766
 20
392.01980883491302
 30
0.0
 11
524.03168054974753
 21
404.01920887990929
 31
0.0
  0
LINE
  5
107
100
AcDbEntity
  8
0
  6
Continuous
 62
               7
100
AcDbLine
 10
513.08563849206553
 20
403.75252972909294
 30
0.0
 11
524.08751754290415
 21
403.8017421538828
 31
0.0
  0
LINE
  5
108
100
AcDbEntity
  8
0
  6
Continuous
 62
               7
100
AcDbLine
 10
512.91024749134249
 20
392.12982322549266
 30
0.0
 11
523.91168654929766
 21
392.01980883491302
 31
0.0
  0
LINE
  5
109
100
AcDbEntity
  8
0
  6
Continuous
 62
               2
100
AcDbLine
 10
541.89239084531209
 20
407.21724774238834
 30
0.0
 11
541.59740807025719
 21
377.71897023689729
 31
0.0
  0
LINE
  5
10A
100
AcDbEntity
  8
0
  6
Continuous
 62
               6
100
AcDbLine
 10
540.39320997557547
 20
407.0324696634745
 30
0.0
 11
411.89754080085373
 21
409.02215773556082
 31
0.0
  0
LINE
  5
10B
100
AcDbEntity
  8
0
  6
Continuous
 62
               6
100
AcDbLine
 10
540.88544366758742
 20
406.52752984492594
 30
0.0
 11
540.59745806650767
 21
377.72896973693474
 31
0.0
  0
LINE
  5
10C
100
AcDbEntity
  8
0
  6
Continuous
 62
               2
100
AcDbLine
 10
539.59750806275792
 20
377.73896923697231
 30
0.0
 11
539.71721785357545
 21
389.70994831872025
 31
0.0
  0
LINE
  5
10D
100
AcDbEntity
  8
0
  6
Continuous
 62
               3
100
AcDbLine
 10
463.08972742122029
 20
332.9475477120904
 30
0.0
 11
463.08972742122029
 21
271.18777764676059
 31
0.0
  0
LINE
  5
10E
100
AcDbEntity
  8
0
  6
Continuous
 62
               3
100
AcDbLine
 10
513.10500438774739
 20
405.95200895840168
 30
0.0
 11
517.55611508667789
 21
296.18777764674422
 31
0.0
  0
LINE
  5
10F
100
AcDbEntity
  8
0
  6
Continuous
 62
               3
100
AcDbLine
 10
463.08972742122029
 20
271.18777764676059
 30
0.0
 11
663.08972742122182
 21
271.18777764674229
 31
0.0
  0
LINE
  5
110
100
AcDbEntity
  8
0
  6
Continuous
 62
               3
100
AcDbLine
 10
663.08972742122182
 20
271.18777764674229
 30
0.0
 11
663.08972742123774
 21
446.12734882674755
 31
0.0
  0
LINE
  5
111
100
AcDbEntity
  8
0
  6
Continuous
 62
               3
100
AcDbLine
 10
663.08972742123774
 20
446.12734882674755
 30
0.0
 11
638.08972742123774
 21
446.12734882674982
 31
0.0
  0
LINE
  5
112
100
AcDbEntity
  8
0
  6
Continuous
 62
               6
100
AcDbLine
 10
494.81313468574632
 20
294.73745331892127
 30
0.0
 11
496.17688427827608
 21
382.57668421494037
 31
0.0
  0
LINE
  5
113
100
AcDbEntity
  8
0
  6
Continuous
 62
               6
100
AcDbLine
 10
499.37749219467406
 20
382.59100083082393
 30
0.0
 11
498.01274908870079
 21
294.68777764674411
 31
0.0
  0
LINE
  5
114
100
AcDbEntity
  8
0
  6
Continuous
 62
               6
100
AcDbLine
 10
499.37749219467406
 20
382.59100083082393
 30
0.0
 11
496.17688427827608
 21
382.57668421494037
 31
0.0
  0
LINE
  5
115
100
AcDbEntity
  8
0
  6
DOT
 62
               6
100
AcDbLine
 10
496.04429351140476
 20
374.03650128862893
 30
0.0
 11
493.44485205943744
 21
374.09265937427716
 31
0.0
  0
LINE
  5
116
100
AcDbEntity
  8
0
  6
DOT
 62
               6
100
AcDbLine
 10
495.93346722084112
 20
366.89817019069272
 30
0.0
 11
493.33402576887426
 21
366.95432827634096
 31
0.0
  0
LINE
  5
117
100
AcDbEntity
  8
0
  6
Continuous
 62
               3
100
AcDbLine
 10
517.55611508667789
 20
296.18777764674422
 30
0.0
 11
638.08972742123774
 21
296.18777764674422
 31
0.0
  0
LINE
  5
118
100
AcDbEntity
  8
0
  6
Continuous
 62
               6
100
AcDbLine
 10
498.01274908870079
 20
294.68777764674411
 30
0.0
 11
641.38972742123769
 21
294.68777764674422
 31
0.0
  0
LINE
  5
119
100
AcDbEntity
  8
0
  6
Continuous
 62
               6
100
AcDbLine
 10
498.01274908870079
 20
291.48777764674406
 30
0.0
 11
641.58972742123774
 21
291.48777764674418
 31
0.0
  0
LINE
  5
11A
100
AcDbEntity
  8
0
  6
Continuous
 62
               3
100
AcDbLine
 10
638.08972742123774
 20
446.12734882674982
 30
0.0
 11
638.08972742123615
 21
426.12734882674994
 31
0.0
  0
LINE
  5
11B
100
AcDbEntity
  8
0
  6
Continuous
 62
               6
100
AcDbLine
 10
644.58972742123774
 20
294.48777764674418
 30
0.0
 11
644.58972742123774
 21
444.12734882674926
 31
0.0
  0
LINE
  5
11C
100
AcDbEntity
  8
0
  6
Continuous
 62
               6
100
AcDbLine
 10
641.38972742123769
 20
444.12734882674948
 30
0.0
 11
641.38972742123769
 21
294.68777764674422
 31
0.0
  0
LINE
  5
11D
100
AcDbEntity
  8
0
  6
Continuous
 62
               3
100
AcDbLine
 10
638.08972742123774
 20
296.18777764674422
 30
0.0
 11
640.11679028203298
 21
444.44540219334334
 31
0.0
  0
LINE
  5
11E
100
AcDbEntity
  8
0
  6
Continuous
 62
               6
100
AcDbLine
 10
644.58972742123774
 20
444.12734882674926
 30
0.0
 11
641.38972742123769
 21
444.12734882674948
 31
0.0
  0
LINE
  5
11F
100
AcDbEntity
  8
0
  6
Continuous
 62
               7
100
AcDbLine
 10
638.08972742123706
 20
438.12734882674982
 30
0.0
 11
644.58972742123706
 21
438.12734882674982
 31
0.0
  0
LINE
  5
120
100
AcDbEntity
  8
0
  6
Continuous
 62
               7
100
AcDbLine
 10
647.08972742123706
 20
439.12734882674982
 30
0.0
 11
645.08972742123706
 21
439.12734882674982
 31
0.0
  0
LINE
  5
121
100
AcDbEntity
  8
0
  6
Continuous
 62
               7
100
AcDbLine
 10
644.58972742123706
 20
438.62734882674982
 30
0.0
 11
644.58972742123706
 21
438.12734882674982
 31
0.0
  0
LINE
  5
122
100
AcDbEntity
  8
0
  6
Continuous
 62
               7
100
AcDbLine
 10
638.08972742123706
 20
436.12734882674982
 30
0.0
 11
638.08972742123706
 21
439.12734882674982
 31
0.0
  0
LINE
  5
123
100
AcDbEntity
  8
0
  6
Continuous
 62
               7
100
AcDbLine
 10
637.08891967264276
 20
437.27871042455507
 30
0.0
 11
637.08891967265981
 21
437.27871139827988
 31
0.0
  0
LINE
  5
124
100
AcDbEntity
  8
0
  6
Continuous
 62
               7
100
AcDbLine
 10
647.58972742123706
 20
438.62734882674982
 30
0.0
 11
647.58972742123706
 21
436.12734882674982
 31
0.0
  0
LINE
  5
125
100
AcDbEntity
  8
0
  6
Continuous
 62
               7
100
AcDbLine
 10
637.08891967264276
 20
437.27871042455507
 30
0.0
 11
637.08891967264276
 21
436.12734882674982
 31
0.0
  0
LINE
  5
126
100
AcDbEntity
  8
0
  6
Continuous
 62
               7
100
AcDbLine
 10
638.08972742123706
 20
434.12734882674982
 30
0.0
 11
644.58972742123706
 21
434.12734882674982
 31
0.0
  0
LINE
  5
127
100
AcDbEntity
  8
0
  6
Continuous
 62
               7
100
AcDbLine
 10
647.08972742123706
 20
433.12734882674982
 30
0.0
 11
645.08972742123706
 21
433.12734882674982
 31
0.0
  0
LINE
  5
128
100
AcDbEntity
  8
0
  6
Continuous
 62
               7
100
AcDbLine
 10
644.58972742123706
 20
433.62734882674982
 30
0.0
 11
644.58972742123706
 21
434.12734882674982
 31
0.0
  0
LINE
  5
129
100
AcDbEntity
  8
0
  6
Continuous
 62
               7
100
AcDbLine
 10
638.08972742123706
 20
436.12734882674982
 30
0.0
 11
638.08972742123706
 21
433.12734882674982
 31
0.0
  0
LINE
  5
12A
100
AcDbEntity
  8
0
  6
Continuous
 62
               7
100
AcDbLine
 10
637.08891967264276
 20
434.97598722894469
 30
0.0
 11
637.08891967265981
 21
434.97598625521988
 31
0.0
  0
LINE
  5
12B
100
AcDbEntity
  8
0
  6
Continuous
 62
               7
100
AcDbLine
 10
647.58972742123706
 20
433.62734882674982
 30
0.0
 11
647.58972742123706
 21
436.12734882674982
 31
0.0
  0
LINE
  5
12C
100
AcDbEntity
  8
0
  6
Continuous
 62
               7
100
AcDbLine
 10
637.08891967264276
 20
434.97598722894469
 30
0.0
 11
637.08891967264276
 21
436.12734882674982
 31
0.0
  0
LINE
  5
12D
100
AcDbEntity
  8
0
  6
Continuous
 62
               7
100
AcDbLine
 10
644.58972742123706
 20
438.12734882674982
 30
0.0
 11
644.58972742123706
 21
433.62734882674982
 31
0.0
  0
LINE
  5
12E
100
AcDbEntity
  8
0
  6
Continuous
 62
               2
100
AcDbLine
 10
541.40241416743129
 20
407.72214751592907
 30
0.0
 11
117.96416332667519
 21
416.1911865720387
 31
0.0
  0
LINE
  5
12F
100
AcDbEntity
  8
0
  6
Continuous
 62
               7
100
AcDbLine
 10
627.8229212539577
 20
298.68777764674422
 30
0.0
 11
627.8229212539577
 21
296.68777764674422
 31
0.0
  0
LINE
  5
130
100
AcDbEntity
  8
0
  6
Continuous
 62
               7
100
AcDbLine
 10
527.82292125395793
 20
298.68777764674422
 30
0.0
 11
527.82292125395793
 21
296.68777764674422
 31
0.0
  0
LINE
  5
131
100
AcDbEntity
  8
0
  6
Continuous
 62
               7
100
AcDbLine
 10
622.8229212539577
 20
303.05880907895784
 30
0.0
 11
622.8229212539577
 21
316.87404731271312
 31
0.0
  0
LINE
  5
132
100
AcDbEntity
  8
0
  6
Continuous
 62
               7
100
AcDbLine
 10
532.82292125395793
 20
303.05880907895784
 30
0.0
 11
532.82292125395793
 21
316.87404731271312
 31
0.0
  0
LINE
  5
133
100
AcDbEntity
  8
0
  6
Continuous
 62
               7
100
AcDbLine
 10
627.8229212539577
 20
298.68777764674422
 30
0.0
 11
527.82292125395793
 21
298.68777764674422
 31
0.0
  0
LINE
  5
134
100
AcDbEntity
  8
0
  6
Continuous
 62
               7
100
AcDbLine
 10
535.82292125395793
 20
303.88010837322514
 30
0.0
 11
535.82292125395793
 21
315.72347538273965
 31
0.0
  0
LINE
  5
135
100
AcDbEntity
  8
0
  6
Continuous
 62
               7
100
AcDbLine
 10
619.8229212539577
 20
303.88010837322514
 30
0.0
 11
619.8229212539577
 21
315.72347538273954
 31
0.0
  0
LINE
  5
136
100
AcDbEntity
  8
0
  6
Continuous
 62
               7
100
AcDbLine
 10
576.32305110722291
 20
334.16804080463891
 30
0.0
 11
576.32305110722291
 21
298.68777764674422
 31
0.0
  0
LINE
  5
137
100
AcDbEntity
  8
0
  6
Continuous
 62
               7
100
AcDbLine
 10
579.32279140069181
 20
334.16804080463891
 30
0.0
 11
579.32279140069181
 21
298.68777764674422
 31
0.0
  0
LINE
  5
138
100
AcDbEntity
  8
0
  6
Continuous
 62
               7
100
AcDbLine
 10
616.01755645541766
 20
299.24648384837309
 30
0.0
 11
620.40601079672297
 21
300.11602016618855
 31
0.0
  0
LINE
  5
139
100
AcDbEntity
  8
0
  6
Continuous
 62
               7
100
AcDbLine
 10
619.01728443487946
 20
302.8991787356353
 30
0.0
 11
615.03164850311327
 21
302.10945758948111
 31
0.0
  0
LINE
  5
13A
100
AcDbEntity
  8
0
  6
Continuous
 62
               7
100
AcDbLine
 10
612.61473804587854
 20
299.16666867671182
 30
0.0
 11
612.61473804587854
 21
298.68777764674422
 31
0.0
  0
LINE
  5
13B
100
AcDbEntity
  8
0
  6
Continuous
 62
               7
100
AcDbLine
 10
615.61473804587854
 20
298.75601902957823
 30
0.0
 11
615.61473804587854
 21
298.68777764674422
 31
0.0
  0
LINE
  5
13C
100
AcDbEntity
  8
0
  6
Continuous
 62
               7
100
AcDbLine
 10
539.62828605249797
 20
299.24648384837309
 30
0.0
 11
535.23983171119266
 21
300.11602016618855
 31
0.0
  0
LINE
  5
13D
100
AcDbEntity
  8
0
  6
Continuous
 62
               7
100
AcDbLine
 10
536.62855807303617
 20
302.8991787356353
 30
0.0
 11
540.61419400480236
 21
302.10945758948111
 31
0.0
  0
LINE
  5
13E
100
AcDbEntity
  8
0
  6
Continuous
 62
               7
100
AcDbLine
 10
543.03110446203709
 20
299.16666867671182
 30
0.0
 11
543.03110446203709
 21
298.68777764674422
 31
0.0
  0
LINE
  5
13F
100
AcDbEntity
  8
0
  6
Continuous
 62
               7
100
AcDbLine
 10
540.03110446203709
 20
298.75601902957823
 30
0.0
 11
540.03110446203709
 21
298.68777764674422
 31
0.0
  0
LINE
  5
140
100
AcDbEntity
  8
0
  6
Continuous
 62
               7
100
AcDbLine
 10
627.8229212539577
 20
294.68777764674422
 30
0.0
 11
527.82292125395793
 21
294.68777764674422
 31
0.0
  0
LINE
  5
141
100
AcDbEntity
  8
0
  6
Continuous
 62
               7
100
AcDbLine
 10
624.8229212539577
 20
286.68777764674422
 30
0.0
 11
530.82292125395793
 21
286.68777764674422
 31
0.0
  0
LINE
  5
142
100
AcDbEntity
  8
0
  6
Continuous
 62
               7
100
AcDbLine
 10
530.82292125395793
 20
294.68777764674422
 30
0.0
 11
530.82292125395793
 21
286.68777764674422
 31
0.0
  0
LINE
  5
143
100
AcDbEntity
  8
0
  6
Continuous
 62
               7
100
AcDbLine
 10
624.8229212539577
 20
294.68777764674422
 30
0.0
 11
624.8229212539577
 21
286.68777764674422
 31
0.0
  0
LINE
  5
144
100
AcDbEntity
  8
0
  6
DASHED
 62
               7
100
AcDbLine
 10
618.42292125395784
 20
286.68777764674422
 30
0.0
 11
618.42292125395784
 21
249.68777764674422
 31
0.0
  0
LINE
  5
145
100
AcDbEntity
  8
0
  6
DASHED
 62
               7
100
AcDbLine
 10
537.22292125395802
 20
286.68777764674422
 30
0.0
 11
537.22292125395802
 21
249.68777764674422
 31
0.0
  0
LINE
  5
146
100
AcDbEntity
  8
0
  6
DASHED
 62
               7
100
AcDbLine
 10
618.42292125395784
 20
269.68777764674638
 30
0.0
 11
635.42292125395784
 21
269.68777764674479
 31
0.0
  0
LINE
  5
147
100
AcDbEntity
  8
0
  6
DASHED
 62
               7
100
AcDbLine
 10
618.42292125395784
 20
268.18777764674638
 30
0.0
 11
635.42292125395784
 21
268.18777764674479
 31
0.0
  0
LINE
  5
148
100
AcDbEntity
  8
0
  6
DASHED
 62
               7
100
AcDbLine
 10
620.42292125395784
 20
269.68777764674627
 30
0.0
 11
620.42292125395784
 21
268.18777764674616
 31
0.0
  0
LINE
  5
149
100
AcDbEntity
  8
0
  6
DASHED
 62
               7
100
AcDbLine
 10
635.42292125395784
 20
269.68777764674479
 30
0.0
 11
635.42292125395784
 21
268.18777764674479
 31
0.0
  0
LINE
  5
14A
100
AcDbEntity
  8
0
  6
DASHED
 62
               7
100
AcDbLine
 10
537.22292125395802
 20
269.68777764674638
 30
0.0
 11
520.22292125395802
 21
269.68777764674479
 31
0.0
  0
LINE
  5
14B
100
AcDbEntity
  8
0
  6
DASHED
 62
               7
100
AcDbLine
 10
537.22292125395802
 20
268.18777764674638
 30
0.0
 11
520.22292125395802
 21
268.18777764674479
 31
0.0
  0
LINE
  5
14C
100
AcDbEntity
  8
0
  6
DASHED
 62
               7
100
AcDbLine
 10
535.22292125395802
 20
269.68777764674627
 30
0.0
 11
535.22292125395802
 21
268.18777764674616
 31
0.0
  0
LINE
  5
14D
100
AcDbEntity
  8
0
  6
DASHED
 62
               7
100
AcDbLine
 10
520.22292125395802
 20
269.68777764674479
 30
0.0
 11
520.22292125395802
 21
268.18777764674479
 31
0.0
  0
LINE
  5
14E
100
AcDbEntity
  8
0
  6
Continuous
 62
               7
100
AcDbLine
 10
179.08972742122199
 20
208.14284044710865
 30
0.0
 11
179.08972742122211
 21
241.9215319552174
 31
0.0
  0
LINE
  5
14F
100
AcDbEntity
  8
0
  6
Continuous
 62
               7
100
AcDbLine
 10
234.97907317527773
 20
186.03218620116428
 30
0.0
 11
201.20038166716898
 21
186.03218620116439
 31
0.0
  0
LINE
  5
150
100
AcDbEntity
  8
0
  6
Continuous
 62
               7
100
AcDbLine
 10
257.08972742122211
 20
241.9215319552199
 30
0.0
 11
257.08972742122199
 21
208.14284044711115
 31
0.0
  0
LINE
  5
151
100
AcDbEntity
  8
0
  6
Continuous
 62
               6
100
AcDbLine
 10
511.69236645681332
 20
397.76384011374131
 30
0.0
 11
505.9876114221243
 21
391.8915215241023
 31
0.0
  0
LINE
  5
152
100
AcDbEntity
  8
0
  6
Continuous
 62
               6
100
AcDbLine
 10
510.58724525427516
 20
403.80192578602583
 30
0.0
 11
499.14956108149141
 21
392.02828695634054
 31
0.0
  0
LINE
  5
153
100
AcDbEntity
  8
0
  6
Continuous
 62
               6
100
AcDbLine
 10
503.74919491364227
 20
403.93869121826407
 30
0.0
 11
492.31151074085875
 21
392.16505238857877
 31
0.0
  0
LINE
  5
154
100
AcDbEntity
  8
0
  6
Continuous
 62
               6
100
AcDbLine
 10
496.91114457300938
 20
404.0754566505023
 30
0.0
 11
485.47346040022586
 21
392.30181782081712
 31
0.0
  0
LINE
  5
155
100
AcDbEntity
  8
0
  6
Continuous
 62
               6
100
AcDbLine
 10
490.07309423237672
 20
404.21222208274065
 30
0.0
 11
478.63541005959297
 21
392.43858325305536
 31
0.0
  0
LINE
  5
156
100
AcDbEntity
  8
0
  6
Continuous
 62
               6
100
AcDbLine
 10
483.23504389174383
 20
404.34898751497889
 30
0.0
 11
471.79735971896031
 21
392.57534868529359
 31
0.0
  0
LINE
  5
157
100
AcDbEntity
  8
0
  6
Continuous
 62
               6
100
AcDbLine
 10
476.39699355111094
 20
404.48575294721724
 30
0.0
 11
464.95930937832742
 21
392.71211411753183
 31
0.0
  0
LINE
  5
158
100
AcDbEntity
  8
0
  6
Continuous
 62
               6
100
AcDbLine
 10
469.55894321047828
 20
404.62251837945547
 30
0.0
 11
458.12125903769453
 21
392.84887954977017
 31
0.0
  0
LINE
  5
159
100
AcDbEntity
  8
0
  6
Continuous
 62
               6
100
AcDbLine
 10
462.72089286984539
 20
404.75928381169371
 30
0.0
 11
451.28320869706164
 21
392.98564498200841
 31
0.0
  0
LINE
  5
15A
100
AcDbEntity
  8
0
  6
Continuous
 62
               6
100
AcDbLine
 10
455.8828425292125
 20
404.89604924393205
 30
0.0
 11
444.44515835642875
 21
393.12241041424676
 31
0.0
  0
LINE
  5
15B
100
AcDbEntity
  8
0
  6
Continuous
 62
               6
100
AcDbLine
 10
449.04479218857961
 20
405.03281467617029
 30
0.0
 11
437.60710801579609
 21
393.25917584648499
 31
0.0
  0
LINE
  5
15C
100
AcDbEntity
  8
0
  6
Continuous
 62
               6
100
AcDbLine
 10
442.20674184794694
 20
405.16958010840864
 30
0.0
 11
430.7690576751632
 21
393.39594127872323
 31
0.0
  0
LINE
  5
15D
100
AcDbEntity
  8
0
  6
Continuous
 62
               6
100
AcDbLine
 10
435.36869150731405
 20
405.30634554064687
 30
0.0
 11
423.93100733453031
 21
393.53270671096146
 31
0.0
  0
LINE
  5
15E
100
AcDbEntity
  8
0
  6
Continuous
 62
               6
100
AcDbLine
 10
428.53064116668139
 20
405.44311097288511
 30
0.0
 11
417.09295699389764
 21
393.66947214319981
 31
0.0
  0
LINE
  5
15F
100
AcDbEntity
  8
0
  6
Continuous
 62
               6
100
AcDbLine
 10
421.6925908260485
 20
405.57987640512346
 30
0.0
 11
410.25490665326475
 21
393.80623757543805
 31
0.0
  0
LINE
  5
160
100
AcDbEntity
  8
0
  6
Continuous
 62
               6
100
AcDbLine
 10
414.85454048541561
 20
405.71664183736169
 30
0.0
 11
403.41685631263186
 21
393.94300300767628
 31
0.0
  0
LINE
  5
161
100
AcDbEntity
  8
0
  6
Continuous
 62
               6
100
AcDbLine
 10
408.01649014478295
 20
405.85340726959993
 30
0.0
 11
396.5788059719992
 21
394.07976843991463
 31
0.0
  0
LINE
  5
162
100
AcDbEntity
  8
0
  6
Continuous
 62
               6
100
AcDbLine
 10
401.17843980415006
 20
405.99017270183828
 30
0.0
 11
389.74075563136631
 21
394.21653387215287
 31
0.0
  0
LINE
  5
163
100
AcDbEntity
  8
0
  6
Continuous
 62
               6
100
AcDbLine
 10
394.34038946351717
 20
406.12693813407651
 30
0.0
 11
382.90270529073342
 21
394.35329930439121
 31
0.0
  0
LINE
  5
164
100
AcDbEntity
  8
0
  6
Continuous
 62
               6
100
AcDbLine
 10
387.50233912288451
 20
406.26370356631475
 30
0.0
 11
376.06465495010076
 21
394.49006473662945
 31
0.0
  0
LINE
  5
165
100
AcDbEntity
  8
0
  6
Continuous
 62
               6
100
AcDbLine
 10
380.66428878225162
 20
406.40046899855309
 30
0.0
 11
369.22660460946787
 21
394.62683016886768
 31
0.0
  0
LINE
  5
166
100
AcDbEntity
  8
0
  6
Continuous
 62
               6
100
AcDbLine
 10
373.82623844161873
 20
406.53723443079133
 30
0.0
 11
362.38855426883498
 21
394.76359560110592
 31
0.0
  0
LINE
  5
167
100
AcDbEntity
  8
0
  6
Continuous
 62
               6
100
AcDbLine
 10
366.98818810098606
 20
406.67399986302968
 30
0.0
 11
355.55050392820209
 21
394.90036103334427
 31
0.0
  0
LINE
  5
168
100
AcDbEntity
  8
0
  6
Continuous
 62
               6
100
AcDbLine
 10
360.15013776035318
 20
406.81076529526791
 30
0.0
 11
348.71245358756943
 21
395.0371264655825
 31
0.0
  0
LINE
  5
169
100
AcDbEntity
  8
0
  6
Continuous
 62
               6
100
AcDbLine
 10
353.31208741972029
 20
406.94753072750626
 30
0.0
 11
341.87440324693654
 21
395.17389189782074
 31
0.0
  0
LINE
  5
16A
100
AcDbEntity
  8
0
  6
Continuous
 62
               6
100
AcDbLine
 10
346.4740370790874
 20
407.0842961597445
 30
0.0
 11
335.03635290630376
 21
395.31065733005909
 31
0.0
  0
LINE
  5
16B
100
AcDbEntity
  8
0
  6
Continuous
 62
               6
100
AcDbLine
 10
339.63598673845451
 20
407.22106159198273
 30
0.0
 11
328.19830256567087
 21
395.44742276229732
 31
0.0
  0
LINE
  5
16C
100
AcDbEntity
  8
0
  6
Continuous
 62
               6
100
AcDbLine
 10
332.79793639782184
 20
407.35782702422097
 30
0.0
 11
321.36025222503821
 21
395.58418819453556
 31
0.0
  0
LINE
  5
16D
100
AcDbEntity
  8
0
  6
Continuous
 62
               6
100
AcDbLine
 10
325.95988605718907
 20
407.49459245645932
 30
0.0
 11
314.52220188440521
 21
395.72095362677391
 31
0.0
  0
LINE
  5
16E
100
AcDbEntity
  8
0
  6
Continuous
 62
               6
100
AcDbLine
 10
319.12183571655618
 20
407.63135788869766
 30
0.0
 11
307.68415154377243
 21
395.85771905901214
 31
0.0
  0
LINE
  5
16F
100
AcDbEntity
  8
0
  6
Continuous
 62
               6
100
AcDbLine
 10
312.2837853759234
 20
407.7681233209359
 30
0.0
 11
300.84610120313954
 21
395.99448449125049
 31
0.0
  0
LINE
  5
170
100
AcDbEntity
  8
0
  6
Continuous
 62
               6
100
AcDbLine
 10
305.44573503529051
 20
407.90488875317413
 30
0.0
 11
294.00805086250676
 21
396.13124992348872
 31
0.0
  0
LINE
  5
171
100
AcDbEntity
  8
0
  6
Continuous
 62
               6
100
AcDbLine
 10
298.60768469465773
 20
408.04165418541237
 30
0.0
 11
287.17000052187387
 21
396.26801535572707
 31
0.0
  0
LINE
  5
172
100
AcDbEntity
  8
0
  6
Continuous
 62
               6
100
AcDbLine
 10
291.76963435402484
 20
408.17841961765072
 30
0.0
 11
280.33195018124121
 21
396.40478078796519
 31
0.0
  0
LINE
  5
173
100
AcDbEntity
  8
0
  6
Continuous
 62
               4
100
AcDbLine
 10
635.42292125395784
 20
268.18777764674479
 30
0.0
 11
666.33894412390305
 21
237.2717547767997
 31
0.0
  0
LINE
  5
174
100
AcDbEntity
  8
0
  6
Continuous
 62
               4
100
AcDbLine
 10
635.42292125395784
 20
268.18777764674479
 30
0.0
 11
640.33783351969169
 21
264.74631902863854
 31
0.0
  0
LINE
  5
175
100
AcDbEntity
  8
0
  6
Continuous
 62
               4
100
AcDbLine
 10
635.42292125395784
 20
268.18777764674479
 30
0.0
 11
638.86437987206409
 21
263.27286538101083
 31
0.0
  0
LINE
  5
176
100
AcDbEntity
  8
0
  6
Continuous
 62
               4
100
AcDbLine
 10
666.33894412390305
 20
237.2717547767997
 30
0.0
 11
722.31922431374164
 21
237.2717547767997
 31
0.0
  0
LINE
  5
177
100
AcDbEntity
  8
0
  6
Continuous
 62
               6
100
AcDbLine
 10
284.93158401339218
 20
408.31518504988907
 30
0.0
 11
273.49389984060832
 21
396.54154622020343
 31
0.0
  0
LINE
  5
178
100
AcDbEntity
  8
0
  6
Continuous
 62
               6
100
AcDbLine
 10
278.09353367275929
 20
408.4519504821273
 30
0.0
 11
266.65584949997555
 21
396.67831165244178
 31
0.0
  0
LINE
  5
179
100
AcDbEntity
  8
0
  6
Continuous
 62
               6
100
AcDbLine
 10
271.25548333212652
 20
408.58871591436554
 30
0.0
 11
259.81779915934277
 21
396.81507708468001
 31
0.0
  0
LINE
  5
17A
100
AcDbEntity
  8
0
  6
Continuous
 62
               6
100
AcDbLine
 10
264.41743299149374
 20
408.72548134660389
 30
0.0
 11
252.97974881871011
 21
396.95184251691825
 31
0.0
  0
LINE
  5
17B
100
AcDbEntity
  8
0
  6
Continuous
 62
               6
100
AcDbLine
 10
257.57938265086096
 20
408.86224677884212
 30
0.0
 11
246.14169847807722
 21
397.0886079491566
 31
0.0
  0
LINE
  5
17C
100
AcDbEntity
  8
0
  6
Continuous
 62
               6
100
AcDbLine
 10
250.74133231022819
 20
408.99901221108036
 30
0.0
 11
239.30364813744444
 21
397.22537338139483
 31
0.0
  0
LINE
  5
17D
100
AcDbEntity
  8
0
  6
Continuous
 62
               6
100
AcDbLine
 10
243.90328196959541
 20
409.1357776433187
 30
0.0
 11
232.46559779681166
 21
397.36213881363307
 31
0.0
  0
LINE
  5
17E
100
AcDbEntity
  8
0
  6
Continuous
 62
               6
100
AcDbLine
 10
237.06523162896264
 20
409.27254307555694
 30
0.0
 11
225.62754745617877
 21
397.49890424587142
 31
0.0
  0
LINE
  5
17F
100
AcDbEntity
  8
0
  6
Continuous
 62
               6
100
AcDbLine
 10
230.22718128832986
 20
409.40930850779529
 30
0.0
 11
218.789497115546
 21
397.63566967810965
 31
0.0
  0
LINE
  5
180
100
AcDbEntity
  8
0
  6
Continuous
 62
               6
100
AcDbLine
 10
223.38913094769708
 20
409.54607394003352
 30
0.0
 11
211.95144677491322
 21
397.77243511034789
 31
0.0
  0
LINE
  5
181
100
AcDbEntity
  8
0
  6
Continuous
 62
               6
100
AcDbLine
 10
216.55108060706431
 20
409.68283937227176
 30
0.0
 11
205.11339643428056
 21
397.90920054258612
 31
0.0
  0
LINE
  5
182
100
AcDbEntity
  8
0
  6
Continuous
 62
               6
100
AcDbLine
 10
209.71303026643153
 20
409.81960480451011
 30
0.0
 11
198.27534609364778
 21
398.04596597482447
 31
0.0
  0
LINE
  5
183
100
AcDbEntity
  8
0
  6
Continuous
 62
               6
100
AcDbLine
 10
202.87497992579875
 20
409.95637023674834
 30
0.0
 11
191.43729575301501
 21
398.1827314070627
 31
0.0
  0
LINE
  5
184
100
AcDbEntity
  8
0
  6
Continuous
 62
               6
100
AcDbLine
 10
196.03692958516598
 20
410.09313566898658
 30
0.0
 11
184.59924541238223
 21
398.31949683930094
 31
0.0
  0
LINE
  5
185
100
AcDbEntity
  8
0
  6
Continuous
 62
               6
100
AcDbLine
 10
189.1988792445332
 20
410.22990110122493
 30
0.0
 11
177.76119507174934
 21
398.45626227153929
 31
0.0
  0
LINE
  5
186
100
AcDbEntity
  8
0
  6
Continuous
 62
               6
100
AcDbLine
 10
182.36082890390031
 20
410.36666653346316
 30
0.0
 11
170.92314473111657
 21
398.59302770377752
 31
0.0
  0
LINE
  5
187
100
AcDbEntity
  8
0
  6
Continuous
 62
               6
100
AcDbLine
 10
175.52277856326754
 20
410.50343196570151
 30
0.0
 11
164.08509439048368
 21
398.72979313601576
 31
0.0
  0
LINE
  5
188
100
AcDbEntity
  8
0
  6
Continuous
 62
               6
100
AcDbLine
 10
168.68472822263476
 20
410.64019739793974
 30
0.0
 11
157.2470440498509
 21
398.86655856825411
 31
0.0
  0
LINE
  5
189
100
AcDbEntity
  8
0
  6
Continuous
 62
               6
100
AcDbLine
 10
161.8466778820021
 20
410.77696283017798
 30
0.0
 11
150.40899370921835
 21
399.00332400049234
 31
0.0
  0
LINE
  5
18A
100
AcDbEntity
  8
0
  6
Continuous
 62
               6
100
AcDbLine
 10
155.00862754136932
 20
410.91372826241633
 30
0.0
 11
143.57094336858557
 21
399.14008943273058
 31
0.0
  0
LINE
  5
18B
100
AcDbEntity
  8
0
  6
Continuous
 62
               6
100
AcDbLine
 10
148.17057720073666
 20
411.05049369465456
 30
0.0
 11
136.7328930279528
 21
399.27685486496893
 31
0.0
  0
LINE
  5
18C
100
AcDbEntity
  8
0
  6
Continuous
 62
               6
100
AcDbLine
 10
141.33252686010377
 20
411.1872591268928
 30
0.0
 11
129.89484268732002
 21
399.41362029720716
 31
0.0
  0
LINE
  5
18D
100
AcDbEntity
  8
0
  6
Continuous
 62
               7
100
AcDbLine
 10
186.64636828583872
 20
383.01357566916175
 30
0.0
 11
190.84586218971634
 21
382.94837634942911
 31
0.0
  0
LINE
  5
18E
100
AcDbEntity
  8
0
  6
Continuous
 62
               7
100
AcDbLine
 10
190.84586218971634
 20
382.94837634942911
 30
0.0
 11
190.67432588422975
 21
371.89970786422708
 31
0.0
  0
LINE
  5
18F
100
AcDbEntity
  8
0
  6
Continuous
 62
               7
100
AcDbLine
 10
186.47483198035189
 20
371.9649071839595
 30
0.0
 11
190.67432588422975
 21
371.89970786422708
 31
0.0
  0
LINE
  5
190
100
AcDbEntity
  8
0
  6
Continuous
 62
               7
100
AcDbLine
 10
185.49047612698399
 20
372.98031033243814
 30
0.0
 11
185.63096513735996
 21
382.02921981579385
 31
0.0
  0
LINE
  5
191
100
AcDbEntity
  8
0
  6
Continuous
 62
               7
100
AcDbLine
 10
191.33431118654613
 20
382.20049407613936
 30
0.0
 11
191.26003378743479
 21
377.41628028305041
 31
0.0
  0
LINE
  5
192
100
AcDbEntity
  8
0
  6
Continuous
 62
               7
100
AcDbLine
 10
191.33431118654613
 20
382.20049407613936
 30
0.0
 11
190.8343714360845
 21
382.20825589991711
 31
0.0
  0
LINE
  5
193
100
AcDbEntity
  8
0
  6
Continuous
 62
               7
100
AcDbLine
 10
191.18575638832323
 20
372.6320664899618
 30
0.0
 11
191.26003378743479
 21
377.41628028305041
 31
0.0
  0
LINE
  5
194
100
AcDbEntity
  8
0
  6
Continuous
 62
               7
100
AcDbLine
 10
191.18575638832323
 20
372.6320664899618
 30
0.0
 11
190.68581663786136
 21
372.6398283137392
 31
0.0
  0
LINE
  5
195
100
AcDbEntity
  8
0
  6
Continuous
 62
               7
100
AcDbLine
 10
186.64636828583872
 20
383.01357566916175
 30
0.0
 11
185.63096513735996
 21
382.02921981579385
 31
0.0
  0
LINE
  5
196
100
AcDbEntity
  8
0
  6
Continuous
 62
               7
100
AcDbLine
 10
186.60348420946713
 20
380.25140854786133
 30
0.0
 11
190.80297811334475
 21
380.18620922812858
 31
0.0
  0
LINE
  5
197
100
AcDbEntity
  8
0
  6
Continuous
 62
               7
100
AcDbLine
 10
186.60348420946713
 20
380.25140854786133
 30
0.0
 11
185.58808106098826
 21
379.26705269449332
 31
0.0
  0
LINE
  5
198
100
AcDbEntity
  8
0
  6
Continuous
 62
               7
100
AcDbLine
 10
186.60348420946713
 20
380.25140854786133
 30
0.0
 11
185.619128356099
 21
381.26681169633986
 31
0.0
  0
LINE
  5
199
100
AcDbEntity
  8
0
  6
Continuous
 62
               7
100
AcDbLine
 10
186.51771605672371
 20
374.72707430525992
 30
0.0
 11
190.71720996060134
 21
374.66187498552773
 31
0.0
  0
LINE
  5
19A
100
AcDbEntity
  8
0
  6
Continuous
 62
               7
100
AcDbLine
 10
186.51771605672371
 20
374.72707430525992
 30
0.0
 11
185.50231290824507
 21
373.74271845189224
 31
0.0
  0
LINE
  5
19B
100
AcDbEntity
  8
0
  6
Continuous
 62
               7
100
AcDbLine
 10
186.51771605672371
 20
374.72707430525992
 30
0.0
 11
185.5333602033557
 21
375.74247745373879
 31
0.0
  0
LINE
  5
19C
100
AcDbEntity
  8
0
  6
Continuous
 62
               7
100
AcDbLine
 10
186.47483198035189
 20
371.9649071839595
 30
0.0
 11
185.49047612698399
 21
372.98031033243814
 31
0.0
  0
LINE
  5
19D
100
AcDbEntity
  8
0
  6
Continuous
 62
               7
100
AcDbLine
 10
200.34497262848123
 20
382.81733786345211
 30
0.0
 11
196.14547872460338
 21
382.88253718318452
 31
0.0
  0
LINE
  5
19E
100
AcDbEntity
  8
0
  6
Continuous
 62
               7
100
AcDbLine
 10
196.14547872460338
 20
382.88253718318452
 30
0.0
 11
195.97394241911667
 21
371.83386869798227
 31
0.0
  0
LINE
  5
19F
100
AcDbEntity
  8
0
  6
Continuous
 62
               7
100
AcDbLine
 10
200.17343632299463
 20
371.76866937824997
 30
0.0
 11
195.97394241911667
 21
371.83386869798227
 31
0.0
  0
LINE
  5
1A0
100
AcDbEntity
  8
0
  6
Continuous
 62
               7
100
AcDbLine
 10
201.18883947147327
 20
372.75302523161787
 30
0.0
 11
201.32932848184925
 21
381.80193471497358
 31
0.0
  0
LINE
  5
1A1
100
AcDbEntity
  8
0
  6
Continuous
 62
               7
100
AcDbLine
 10
195.63404822050978
 20
382.15017855745003
 30
0.0
 11
195.55977082139833
 21
377.36596476436119
 31
0.0
  0
LINE
  5
1A2
100
AcDbEntity
  8
0
  6
Continuous
 62
               7
100
AcDbLine
 10
195.63404822050978
 20
382.15017855745003
 30
0.0
 11
196.13398797097142
 21
382.14241673367252
 31
0.0
  0
LINE
  5
1A3
100
AcDbEntity
  8
0
  6
Continuous
 62
               7
100
AcDbLine
 10
195.48549342228699
 20
372.58175097127236
 30
0.0
 11
195.55977082139833
 21
377.36596476436119
 31
0.0
  0
LINE
  5
1A4
100
AcDbEntity
  8
0
  6
Continuous
 62
               7
100
AcDbLine
 10
195.48549342228699
 20
372.58175097127236
 30
0.0
 11
195.98543317274874
 21
372.57398914749473
 31
0.0
  0
LINE
  5
1A5
100
AcDbEntity
  8
0
  6
Continuous
 62
               7
100
AcDbLine
 10
200.34497262848123
 20
382.81733786345211
 30
0.0
 11
201.32932848184925
 21
381.80193471497358
 31
0.0
  0
LINE
  5
1A6
100
AcDbEntity
  8
0
  6
Continuous
 62
               7
100
AcDbLine
 10
200.30208855210952
 20
380.05517074215157
 30
0.0
 11
196.10259464823167
 21
380.12037006188399
 31
0.0
  0
LINE
  5
1A7
100
AcDbEntity
  8
0
  6
Continuous
 62
               7
100
AcDbLine
 10
200.30208855210952
 20
380.05517074215157
 30
0.0
 11
201.28644440547731
 21
379.03976759367305
 31
0.0
  0
LINE
  5
1A8
100
AcDbEntity
  8
0
  6
Continuous
 62
               7
100
AcDbLine
 10
200.30208855210952
 20
380.05517074215157
 30
0.0
 11
201.31749170058828
 21
381.03952659551959
 31
0.0
  0
LINE
  5
1A9
100
AcDbEntity
  8
0
  6
Continuous
 62
               7
100
AcDbLine
 10
200.21632039936634
 20
374.5308364995505
 30
0.0
 11
196.01682649548826
 21
374.59603581928303
 31
0.0
  0
LINE
  5
1AA
100
AcDbEntity
  8
0
  6
Continuous
 62
               7
100
AcDbLine
 10
200.21632039936634
 20
374.5308364995505
 30
0.0
 11
201.20067625273401
 21
373.51543335107186
 31
0.0
  0
LINE
  5
1AB
100
AcDbEntity
  8
0
  6
Continuous
 62
               7
100
AcDbLine
 10
200.21632039936634
 20
374.5308364995505
 30
0.0
 11
201.23172354784487
 21
375.51519235291829
 31
0.0
  0
LINE
  5
1AC
100
AcDbEntity
  8
0
  6
Continuous
 62
               7
100
AcDbLine
 10
200.17343632299463
 20
371.76866937824997
 30
0.0
 11
201.18883947147327
 21
372.75302523161787
 31
0.0
  0
LINE
  5
1AD
100
AcDbEntity
  8
0
  6
Continuous
 62
               7
100
AcDbLine
 10
180.60013224644382
 20
380.08208206420073
 30
0.0
 11
180.56132312755534
 21
377.58238331189256
 31
0.0
  0
LINE
  5
1AE
100
AcDbEntity
  8
0
  6
Continuous
 62
               7
100
AcDbLine
 10
181.10783382068365
 20
380.57425999088508
 30
0.0
 11
185.60729157483803
 21
380.50440357688598
 31
0.0
  0
LINE
  5
1AF
100
AcDbEntity
  8
0
  6
Continuous
 62
               7
100
AcDbLine
 10
181.10783382068308
 20
380.57425999088451
 30
0.0
 11
180.60013224644382
 21
380.08208206420073
 31
0.0
  0
LINE
  5
1B0
100
AcDbEntity
  8
0
  6
Continuous
 62
               7
100
AcDbLine
 10
180.52251400866697
 20
375.08268455958438
 30
0.0
 11
180.56132312755534
 21
377.58238331189256
 31
0.0
  0
LINE
  5
1B1
100
AcDbEntity
  8
0
  6
Continuous
 62
               7
100
AcDbLine
 10
181.01469193534996
 20
374.57498298534591
 30
0.0
 11
185.51414968950593
 21
374.50512657134635
 31
0.0
  0
LINE
  5
1B2
100
AcDbEntity
  8
0
  6
Continuous
 62
               7
100
AcDbLine
 10
181.01469193535075
 20
374.57498298534512
 30
0.0
 11
180.52251400866697
 21
375.08268455958438
 31
0.0
  0
LINE
  5
1B3
100
AcDbEntity
  8
0
  6
Continuous
 62
               7
100
AcDbLine
 10
183.8620473550439
 20
380.53149939807355
 30
0.0
 11
184.31429428839698
 21
374.52375494841311
 31
0.0
  0
LINE
  5
1B4
100
AcDbEntity
  8
0
  6
Continuous
 62
               7
100
AcDbLine
 10
184.36198710550565
 20
380.52373757429592
 30
0.0
 11
184.81423403885884
 21
374.51599312463537
 31
0.0
  0
LINE
  5
1B5
100
AcDbEntity
  8
0
  6
Continuous
 62
               7
100
AcDbLine
 10
184.86192685596717
 20
380.51597575051818
 30
0.0
 11
185.31417378932048
 21
374.50823130085774
 31
0.0
  0
LINE
  5
1B6
100
AcDbEntity
  8
0
  6
Continuous
 62
               7
100
AcDbLine
 10
185.36186660642869
 20
380.50821392674078
 30
0.0
 11
185.5653777264385
 21
377.80472892438405
 31
0.0
  0
LINE
  5
1B7
100
AcDbEntity
  8
0
  6
Continuous
 62
               3
100
AcDbLine
 10
204.19423748992159
 20
340.10575958643523
 30
0.0
 11
194.43046365840831
 21
350.17748990188096
 31
0.0
  0
LINE
  5
1B8
100
AcDbEntity
  8
0
  6
Continuous
 62
               3
100
AcDbLine
 10
195.81565582614297
 20
393.84754036865041
 30
0.0
 11
209.81396883906876
 21
393.63020930287536
 31
0.0
  0
LINE
  5
1B9
100
AcDbEntity
  8
0
  6
Continuous
 62
               3
100
AcDbLine
 10
194.80025267766422
 20
392.86318451528251
 30
0.0
 11
194.14858260941236
 21
350.88905824845375
 31
0.0
  0
LINE
  5
1BA
100
AcDbEntity
  8
0
  6
Continuous
 62
               3
100
AcDbLine
 10
183.87177756179045
 20
340.51854996246101
 30
0.0
 11
193.84474780750605
 21
350.18658344408158
 31
0.0
  0
LINE
  5
1BB
100
AcDbEntity
  8
0
  6
Continuous
 62
               3
100
AcDbLine
 10
194.14858260941247
 20
350.88905824845375
 30
0.0
 11
194.81577632521959
 21
393.86306401620578
 31
0.0
  0
LINE
  5
1BC
100
AcDbEntity
  8
0
  6
Continuous
 62
               3
100
AcDbLine
 10
194.83129997277496
 20
394.86294351712917
 30
0.0
 11
211.82925148847079
 21
394.599041508688
 31
0.0
  0
LINE
  5
1BD
100
AcDbEntity
  8
0
  6
Continuous
 62
               3
100
AcDbLine
 10
212.81360734183869
 20
393.58363836020948
 30
0.0
 11
212.66970312900054
 21
384.31475538665001
 31
0.0
  0
LINE
  5
1BE
100
AcDbEntity
  8
0
  6
Continuous
 62
               3
100
AcDbLine
 10
204.91223594184913
 20
340.80180428545253
 30
0.0
 11
195.14846211033552
 21
350.87353460089838
 31
0.0
  0
LINE
  5
1BF
100
AcDbEntity
  8
0
  6
Continuous
 62
               3
100
AcDbLine
 10
195.14846211033552
 20
350.87353460089838
 30
0.0
 11
195.80013217858749
 21
392.84766086772703
 31
0.0
  0
LINE
  5
1C0
100
AcDbEntity
  8
0
  6
Continuous
 62
               3
100
AcDbLine
 10
195.80013217858749
 20
392.84766086772703
 30
0.0
 11
209.79844519151351
 21
392.6303298019522
 31
0.0
  0
LINE
  5
1C1
100
AcDbEntity
  8
0
  6
Continuous
 62
               3
100
AcDbLine
 10
211.66982362807727
 20
384.3302790342056
 30
0.0
 11
211.81372784091542
 21
393.59916200776451
 31
0.0
  0
LINE
  5
1C2
100
AcDbEntity
  8
0
  6
Continuous
 62
               3
100
AcDbLine
 10
211.81372784091542
 20
393.59916200776451
 30
0.0
 11
194.81577632521959
 21
393.86306401620578
 31
0.0
  0
LINE
  5
1C3
100
AcDbEntity
  8
0
  6
Continuous
 62
               3
100
AcDbLine
 10
193.8158968242962
 20
393.87858766376115
 30
0.0
 11
193.14870310848909
 21
350.90458189600889
 31
0.0
  0
LINE
  5
1C4
100
AcDbEntity
  8
0
  6
Continuous
 62
               3
100
AcDbLine
 10
193.14870310848909
 20
350.90458189600889
 30
0.0
 11
183.17573286277315
 21
341.23654841438844
 31
0.0
  0
LINE
  5
1C5
100
AcDbEntity
  8
0
  6
Continuous
 62
               3
100
AcDbLine
 10
209.79844519151351
 20
392.6303298019522
 30
0.0
 11
209.81396883906876
 21
393.63020930287536
 31
0.0
  0
LINE
  5
1C6
100
AcDbEntity
  8
0
  6
Continuous
 62
               3
100
AcDbLine
 10
212.66970312900054
 20
384.31475538665001
 30
0.0
 11
211.66982362807727
 21
384.3302790342056
 31
0.0
  0
LINE
  5
1C7
100
AcDbEntity
  8
0
  6
DASHDOT
 62
               7
100
AcDbLine
 10
200.85887699630069
 20
377.26725326652007
 30
0.0
 11
180.56132312755534
 21
377.58238331189017
 31
0.0
  0
LINE
  5
1C8
100
AcDbEntity
  8
0
  6
Continuous
 62
               3
100
AcDbLine
 10
204.91223594184913
 20
340.80180428545253
 30
0.0
 11
482.60103330169142
 21
335.24784862458552
 31
0.0
  0
LINE
  5
1C9
100
AcDbEntity
  8
0
  6
Continuous
 62
               3
100
AcDbLine
 10
204.89223929386088
 20
339.80200423840841
 30
0.0
 11
483.28800204679857
 21
334.23390881214817
 31
0.0
  0
LINE
  5
1CA
100
AcDbEntity
  8
0
  6
Continuous
 62
               7
100
AcDbLine
 10
183.36004598861751
 20
380.53929322950779
 30
0.0
 11
183.81229292197048
 21
374.53154877984736
 31
0.0
  0
LINE
  5
1CB
100
AcDbEntity
  8
0
  6
Continuous
 62
               7
100
AcDbLine
 10
182.85804462219102
 20
380.54708706094192
 30
0.0
 11
183.31029155554398
 21
374.5393426112816
 31
0.0
  0
LINE
  5
1CC
100
AcDbEntity
  8
0
  6
Continuous
 62
               7
100
AcDbLine
 10
182.35604325576452
 20
380.55488089237616
 30
0.0
 11
182.80829018911749
 21
374.54713644271573
 31
0.0
  0
LINE
  5
1CD
100
AcDbEntity
  8
0
  6
Continuous
 62
               7
100
AcDbLine
 10
181.85404188933802
 20
380.5626747238104
 30
0.0
 11
182.30628882269099
 21
374.55493027414997
 31
0.0
  0
LINE
  5
1CE
100
AcDbEntity
  8
0
  6
Continuous
 62
               7
100
AcDbLine
 10
181.35204052291152
 20
380.57046855524453
 30
0.0
 11
181.80428745626449
 21
374.56272410558421
 31
0.0
  0
LINE
  5
1CF
100
AcDbEntity
  8
0
  6
Continuous
 62
               7
100
AcDbLine
 10
180.86785318235746
 20
380.3416170781806
 30
0.0
 11
181.30228608983811
 21
374.57051793701845
 31
0.0
  0
LINE
  5
1D0
100
AcDbEntity
  8
0
  6
Continuous
 62
               7
100
AcDbLine
 10
180.56351563226946
 20
377.7236027328708
 30
0.0
 11
180.78250566363516
 21
374.81449257989567
 31
0.0
  0
LINE
  5
1D1
100
AcDbEntity
  8
0
  6
DOT
 62
               6
100
AcDbLine
 10
191.57926843087961
 20
397.9782116737203
 30
0.0
 11
190.95832252866745
 21
357.98303163678912
 31
0.0
  0
LINE
  5
1D2
100
AcDbEntity
  8
0
  6
Continuous
 62
               6
100
AcDbLine
 10
193.7310941059323
 20
394.85822213632576
 30
0.0
 11
193.15805743069899
 21
357.94887961216745
 31
0.0
  0
LINE
  5
1D3
100
AcDbEntity
  8
0
  6
Continuous
 62
               6
100
AcDbLine
 10
142.9253498026049
 20
359.03865218952097
 30
0.0
 11
192.91535215480638
 21
358.03881979012107
 31
0.0
  0
LINE
  5
1D4
100
AcDbEntity
  8
0
  6
Continuous
 62
               6
100
AcDbLine
 10
143.7252157221248
 20
399.0306540712823
 30
0.0
 11
142.9253498026049
 21
359.03865218952097
 31
0.0
  0
LINE
  5
1D5
100
AcDbEntity
  8
0
  6
Continuous
 62
               6
100
AcDbLine
 10
191.53067616340837
 20
394.84837946290594
 30
0.0
 11
193.7310941059323
 21
394.85822213632576
 31
0.0
  0
LINE
  5
1D6
100
AcDbEntity
  8
0
  6
DOT
 62
               6
100
AcDbLine
 10
191.03974870349197
 20
363.22769870073381
 30
0.0
 11
193.26059172837148
 21
364.55312272056682
 31
0.0
  0
LINE
  5
1D7
100
AcDbEntity
  8
0
  6
DOT
 62
               6
100
AcDbLine
 10
191.07624747100118
 20
365.57858751803195
 30
0.0
 11
193.29709049588081
 21
366.90401153786485
 31
0.0
  0
LINE
  5
1D8
100
AcDbEntity
  8
0
  6
DOT
 62
               6
100
AcDbLine
 10
191.3973098980552
 20
386.25824661131884
 30
0.0
 11
193.61768384029625
 21
387.55345697725301
 31
0.0
  0
LINE
  5
1D9
100
AcDbEntity
  8
0
  6
DOT
 62
               6
100
AcDbLine
 10
191.43358627935373
 20
388.59481151326855
 30
0.0
 11
193.65396022159479
 21
389.89002187920283
 31
0.0
  0
LINE
  5
1DA
100
AcDbEntity
  8
0
  6
Continuous
 62
               7
100
AcDbLine
 10
191.45579457664331
 20
395.08174144048843
 30
0.0
 11
443.60968152467223
 21
390.03850051345222
 31
0.0
  0
LINE
  5
1DB
100
AcDbEntity
  8
0
  6
DOT
 62
               6
100
AcDbLine
 10
143.66535232793893
 20
396.03758121431468
 30
0.0
 11
191.45579457664331
 21
395.08174144048843
 31
0.0
  0
LINE
  5
1DC
100
AcDbEntity
  8
0
  6
DOT
 62
               6
100
AcDbLine
 10
143.42539255208288
 20
384.03998064978583
 30
0.0
 11
191.34798922451893
 21
383.08149770195763
 31
0.0
  0
LINE
  5
1DD
100
AcDbEntity
  8
0
  6
Continuous
 62
               6
100
AcDbLine
 10
134.49447651947111
 20
411.32402455913115
 30
0.0
 11
123.05679234668725
 21
399.5503857294454
 31
0.0
  0
LINE
  5
1DE
100
AcDbEntity
  8
0
  6
Continuous
 62
               7
100
AcDbLine
 10
512.29333997321396
 20
298.64678352896664
 30
0.0
 11
501.57796384787304
 21
298.86109798621322
 31
0.0
  0
LINE
  5
1DF
100
AcDbEntity
  8
0
  6
DOT
 62
               7
100
AcDbLine
 10
512.27991680866285
 20
301.64765238476497
 30
0.0
 11
501.62453617507055
 21
301.86082566677322
 31
0.0
  0
LINE
  5
1E0
100
AcDbEntity
  8
0
  6
DOT
 62
               7
100
AcDbLine
 10
512.24188450910151
 20
310.15011414285067
 30
0.0
 11
501.75648850299768
 21
310.35988668469025
 31
0.0
  0
LINE
  5
1E1
100
AcDbEntity
  8
0
  6
Continuous
 62
               7
100
AcDbLine
 10
512.23424604259003
 20
311.85776185687968
 30
0.0
 11
501.7829899999968
 21
312.06685043137298
 31
0.0
  0
LINE
  5
1E2
100
AcDbEntity
  8
0
  6
Continuous
 62
               7
100
AcDbLine
 10
195.64719969038134
 20
382.99726588567131
 30
0.0
 11
443.36972952148636
 21
378.0412885698542
 31
0.0
  0
LINE
  5
1E3
100
AcDbEntity
  8
0
  6
Continuous
 62
               7
100
AcDbLine
 10
117.96416332667519
 20
384.54922171220375
 30
0.0
 11
143.42539255208288
 21
384.03998064978583
 31
0.0
  0
LINE
  5
1E4
100
AcDbEntity
  8
0
  6
Continuous
 62
               3
100
AcDbLine
 10
462.59972574521436
 20
333.44744773561234
 30
0.0
 11
443.08972742122029
 21
333.83766032850514
 31
0.0
  0
LINE
  5
1E5
100
AcDbEntity
  8
0
  6
Continuous
 62
               7
100
AcDbLine
 10
451.10148941406879
 20
333.53752976504614
 30
0.0
 11
451.10148941406879
 21
336.03752976504614
 31
0.0
  0
LINE
  5
1E6
100
AcDbEntity
  8
0
  6
Continuous
 62
               7
100
AcDbLine
 10
450.10148941406879
 20
338.53752976504614
 30
0.0
 11
450.10148941406879
 21
336.53752976504614
 31
0.0
  0
LINE
  5
1E7
100
AcDbEntity
  8
0
  6
Continuous
 62
               7
100
AcDbLine
 10
450.60148941406879
 20
336.03752976504614
 30
0.0
 11
451.10148941406879
 21
336.03752976504614
 31
0.0
  0
LINE
  5
1E8
100
AcDbEntity
  8
0
  6
Continuous
 62
               7
100
AcDbLine
 10
453.10148941406879
 20
333.53752976504614
 30
0.0
 11
450.10148941406879
 21
333.53752976504614
 31
0.0
  0
LINE
  5
1E9
100
AcDbEntity
  8
0
  6
Continuous
 62
               7
100
AcDbLine
 10
451.95012781626366
 20
332.53672201645185
 30
0.0
 11
451.95012684253885
 21
332.53672201646901
 31
0.0
  0
LINE
  5
1EA
100
AcDbEntity
  8
0
  6
Continuous
 62
               7
100
AcDbLine
 10
450.60148941406879
 20
339.03752976504614
 30
0.0
 11
453.10148941406879
 21
339.03752976504614
 31
0.0
  0
LINE
  5
1EB
100
AcDbEntity
  8
0
  6
Continuous
 62
               7
100
AcDbLine
 10
451.95012781626366
 20
332.53672201645185
 30
0.0
 11
453.10148941406879
 21
332.53672201645185
 31
0.0
  0
LINE
  5
1EC
100
AcDbEntity
  8
0
  6
Continuous
 62
               7
100
AcDbLine
 10
455.10148941406879
 20
333.53752976504614
 30
0.0
 11
455.10148941406879
 21
336.03752976504614
 31
0.0
  0
LINE
  5
1ED
100
AcDbEntity
  8
0
  6
Continuous
 62
               7
100
AcDbLine
 10
456.10148941406879
 20
338.53752976504614
 30
0.0
 11
456.10148941406879
 21
336.53752976504614
 31
0.0
  0
LINE
  5
1EE
100
AcDbEntity
  8
0
  6
Continuous
 62
               7
100
AcDbLine
 10
455.60148941406879
 20
336.03752976504614
 30
0.0
 11
455.10148941406879
 21
336.03752976504614
 31
0.0
  0
LINE
  5
1EF
100
AcDbEntity
  8
0
  6
Continuous
 62
               7
100
AcDbLine
 10
453.10148941406879
 20
333.53752976504614
 30
0.0
 11
456.10148941406879
 21
333.53752976504614
 31
0.0
  0
LINE
  5
1F0
100
AcDbEntity
  8
0
  6
Continuous
 62
               7
100
AcDbLine
 10
454.25285101187393
 20
332.53672201645185
 30
0.0
 11
454.25285198559874
 21
332.53672201646901
 31
0.0
  0
LINE
  5
1F1
100
AcDbEntity
  8
0
  6
Continuous
 62
               7
100
AcDbLine
 10
455.60148941406879
 20
339.03752976504614
 30
0.0
 11
453.10148941406879
 21
339.03752976504614
 31
0.0
  0
LINE
  5
1F2
100
AcDbEntity
  8
0
  6
Continuous
 62
               7
100
AcDbLine
 10
454.25285101187393
 20
332.53672201645185
 30
0.0
 11
453.10148941406879
 21
332.53672201645185
 31
0.0
  0
LINE
  5
1F3
100
AcDbEntity
  8
0
  6
Continuous
 62
               7
100
AcDbLine
 10
451.10148941406879
 20
336.03752976504614
 30
0.0
 11
455.60148941406879
 21
336.03752976504614
 31
0.0
  0
LINE
  5
1F4
100
AcDbEntity
  8
0
  6
Continuous
 62
               7
100
AcDbLine
 10
177.54469081454971
 20
243.34781326499848
 30
0.0
 11
142.47979397789396
 21
244.04809530176664
 31
0.0
  0
LINE
  5
1F5
100
AcDbEntity
  8
0
  6
Continuous
 62
               7
100
AcDbLine
 10
176.84456925444653
 20
208.35235881075613
 30
0.0
 11
141.77972156474476
 21
209.05509744947705
 31
0.0
  0
LINE
  5
1F6
100
AcDbEntity
  8
0
  6
Continuous
 62
               7
100
AcDbLine
 10
135.1313099554323
 20
251.69661035788698
 30
0.0
 11
117.96416332667519
 21
252.04005751888798
 31
0.0
  0
LINE
  5
1F7
100
AcDbEntity
  8
0
  6
Continuous
 62
               7
100
AcDbLine
 10
142.12975777131936
 20
226.55159637562195
 30
0.0
 11
142.47979397788339
 21
244.04809530123822
 31
0.0
  0
LINE
  5
1F8
100
AcDbEntity
  8
0
  6
Continuous
 62
               7
100
AcDbLine
 10
142.47979397788339
 20
244.04809530123822
 30
0.0
 11
135.1313099554323
 21
251.69661035788698
 31
0.0
  0
LINE
  5
1F9
100
AcDbEntity
  8
0
  6
Continuous
 62
               7
100
AcDbLine
 10
135.1313099554323
 20
251.69661035788698
 30
0.0
 11
134.63125823176944
 21
226.70161189272079
 31
0.0
  0
LINE
  5
1FA
100
AcDbEntity
  8
0
  6
Continuous
 62
               7
100
AcDbLine
 10
134.13120650810657
 20
201.70661342755437
 30
0.0
 11
117.96416332667519
 21
202.03005244759169
 31
0.0
  0
LINE
  5
1FB
100
AcDbEntity
  8
0
  6
Continuous
 62
               7
100
AcDbLine
 10
142.12975777131936
 20
226.55159637562195
 30
0.0
 11
141.77972156475533
 21
209.05509745000535
 31
0.0
  0
LINE
  5
1FC
100
AcDbEntity
  8
0
  6
Continuous
 62
               7
100
AcDbLine
 10
141.77972156475533
 20
209.05509745000535
 30
0.0
 11
134.13120650810657
 21
201.70661342755437
 31
0.0
  0
LINE
  5
1FD
100
AcDbEntity
  8
0
  6
Continuous
 62
               7
100
AcDbLine
 10
134.13120650810657
 20
201.70661342755437
 30
0.0
 11
134.63125823176944
 21
226.70161189272079
 31
0.0
  0
LINE
  5
1FE
100
AcDbEntity
  8
0
  6
Continuous
 62
               6
100
AcDbLine
 10
127.65642617883833
 20
411.46078999136938
 30
0.0
 11
117.96416332667519
 21
401.48384006515249
 31
0.0
  0
LINE
  5
1FF
100
AcDbEntity
  8
0
  6
Continuous
 62
               6
100
AcDbLine
 10
120.81837583820555
 20
411.59755542360773
 30
0.0
 11
117.96416332667519
 21
408.65950723603038
 31
0.0
  0
LINE
  5
200
100
AcDbEntity
  8
0
  6
DASHDOT
 62
               4
100
AcDbLine
 10
577.82292125395793
 20
78.223768287777204
 30
0.0
 11
577.82292125395793
 21
348.48763768165969
 31
0.0
  0
LINE
  5
201
100
AcDbEntity
  8
0
  6
DASHED
 62
               7
100
AcDbLine
 10
618.42292125395784
 20
249.68777764674422
 30
0.0
 11
537.22292125395802
 21
249.68777764674422
 31
0.0
  0
LINE
  5
202
100
AcDbEntity
  8
0
  6
Continuous
 62
               6
100
AcDbLine
 10
618.67292125395784
 20
286.68777764674422
 30
0.0
 11
618.67292125395784
 21
226.68777764674422
 31
0.0
  0
LINE
  5
203
100
AcDbEntity
  8
0
  6
Continuous
 62
               6
100
AcDbLine
 10
536.97292125395779
 20
286.68777764674422
 30
0.0
 11
536.97292125395779
 21
226.68777764674422
 31
0.0
  0
LINE
  5
204
100
AcDbEntity
  8
0
  6
Continuous
 62
               6
100
AcDbLine
 10
618.67292125395784
 20
226.68777764674422
 30
0.0
 11
536.97292125395779
 21
226.68777764674422
 31
0.0
  0
LINE
  5
205
100
AcDbEntity
  8
0
  6
DASHDOT
 62
               4
100
AcDbLine
 10
470.17457382775939
 20
74.539430220545512
 30
0.0
 11
596.30900805556939
 21
200.67386444835557
 31
0.0
  0
LINE
  5
206
100
AcDbEntity
  8
0
  6
Continuous
 62
               6
100
AcDbLine
 10
594.63999188630555
 20
141.5877776467442
 30
0.0
 11
578.95429210385646
 21
125.90207786429499
 31
0.0
  0
LINE
  5
207
100
AcDbEntity
  8
0
  6
Continuous
 62
               6
100
AcDbLine
 10
618.42292125395784
 20
199.00484827909185
 30
0.0
 11
618.42292125395784
 21
226.68777764674422
 31
0.0
  0
LINE
  5
208
100
AcDbEntity
  8
0
  6
Continuous
 62
               6
100
AcDbLine
 10
537.22292125395779
 20
215.82191891143947
 30
0.0
 11
537.22292125395779
 21
226.68777764674422
 31
0.0
  0
LINE
  5
209
100
AcDbEntity
  8
0
  6
Continuous
 62
               4
100
AcDbLine
 10
478.93403790501935
 20
141.06951832074645
 30
0.0
 11
536.70466192796016
 21
83.298894297805475
 31
0.0
  0
LINE
  5
20A
100
AcDbEntity
  8
0
  6
Continuous
 62
               4
100
AcDbLine
 10
521.36044477621203
 20
183.49592519193931
 30
0.0
 11
579.1310687991529
 21
125.72530116899833
 31
0.0
  0
LINE
  5
20B
100
AcDbEntity
  8
0
  6
Continuous
 62
               4
100
AcDbLine
 10
536.52788523266349
 20
83.475670993102256
 30
0.0
 11
498.88310914393315
 21
45.830894904371632
 31
0.0
  0
LINE
  5
20C
100
AcDbEntity
  8
0
  6
Continuous
 62
               4
100
AcDbLine
 10
479.11081460031602
 20
140.8927416254499
 30
0.0
 11
441.4660385115854
 21
103.24796553671939
 31
0.0
  0
LINE
  5
20D
100
AcDbEntity
  8
0
  6
Continuous
 62
               4
100
AcDbLine
 10
579.1310687991529
 20
125.72530116899833
 30
0.0
 11
536.70466192796016
 21
83.298894297805475
 31
0.0
  0
LINE
  5
20E
100
AcDbEntity
  8
0
  6
Continuous
 62
               4
100
AcDbLine
 10
521.36044477621203
 20
183.49592519193931
 30
0.0
 11
478.93403790501935
 21
141.06951832074645
 31
0.0
  0
LINE
  5
20F
100
AcDbEntity
  8
0
  6
DASHED
 62
               7
100
AcDbLine
 10
521.5372214715087
 20
183.31914849664264
 30
0.0
 11
479.11081460031579
 21
140.89274162544979
 31
0.0
  0
LINE
  5
210
100
AcDbEntity
  8
0
  6
DASHED
 62
               7
100
AcDbLine
 10
578.95429210385646
 20
125.90207786429499
 30
0.0
 11
536.52788523266349
 21
83.475670993102142
 31
0.0
  0
LINE
  5
211
100
AcDbEntity
  8
0
  6
Continuous
 62
               7
100
AcDbLine
 10
498.21587829509355
 20
294.88777764674404
 30
0.0
 11
501.21623983588921
 21
294.88777764674404
 31
0.0
  0
LINE
  5
212
100
AcDbEntity
  8
0
  6
Continuous
 62
               7
100
AcDbLine
 10
498.71269488280501
 20
326.88777764674404
 30
0.0
 11
501.71305642360045
 21
326.88777764674404
 31
0.0
  0
LINE
  5
213
100
AcDbEntity
  8
0
  6
DOT
 62
               7
100
AcDbLine
 10
494.92580939903388
 20
301.99484148668881
 30
0.0
 11
117.96416332667519
 21
309.53639763073846
 31
0.0
  0
LINE
  5
214
100
AcDbEntity
  8
0
  6
Continuous
 62
               7
100
AcDbLine
 10
494.87923649836017
 20
298.9950768684626
 30
0.0
 11
117.96416332667519
 21
306.53362226248254
 31
0.0
  0
LINE
  5
215
100
AcDbEntity
  8
0
  6
Continuous
 62
               7
100
AcDbLine
 10
495.08426321443363
 20
312.20086563766068
 30
0.0
 11
117.96416332667519
 21
319.74555727825867
 31
0.0
  0
LINE
  5
216
100
AcDbEntity
  8
0
  6
DOT
 62
               7
100
AcDbLine
 10
495.05776172696125
 20
310.49390250460584
 30
0.0
 11
117.96416332667519
 21
318.03809850843794
 31
0.0
  0
LINE
  5
217
100
AcDbEntity
  8
0
  6
Continuous
 62
               7
100
AcDbLine
 10
498.71269488280501
 20
326.88777764674404
 30
0.0
 11
498.21587829509355
 21
294.88777764674404
 31
0.0
  0
LINE
  5
218
100
AcDbEntity
  8
0
  6
Continuous
 62
               7
100
AcDbLine
 10
501.71305642360045
 20
326.88777764674404
 30
0.0
 11
501.21623983588921
 21
294.88777764674404
 31
0.0
  0
LINE
  5
219
100
AcDbEntity
  8
0
  6
DASHDOT
 62
               4
100
AcDbLine
 10
638.08972742123774
 20
296.18777764674422
 30
0.0
 11
702.08972742125343
 21
296.18777764674422
 31
0.0
  0
LINE
  5
21A
100
AcDbEntity
  8
0
  6
Continuous
 62
               6
100
AcDbLine
 10
525.33145657013165
 20
187.1133835952657
 30
0.0
 11
521.5372214715087
 21
183.31914849664264
 31
0.0
  0
LINE
  5
21B
100
AcDbEntity
  8
0
  6
DASHDOT
 62
               4
100
AcDbLine
 10
218.08972742122199
 20
557.12734882663005
 30
0.0
 11
218.08972742122199
 21
88.921194130422705
 31
0.0
  0
LINE
  5
21C
100
AcDbEntity
  8
0
  6
Continuous
 62
               4
100
AcDbLine
 10
397.79555648851976
 20
399.12282282275794
 30
0.0
 11
377.79427797488171
 21
486.63682991025615
 31
0.0
  0
LINE
  5
21D
100
AcDbEntity
  8
0
  6
Continuous
 62
               4
100
AcDbLine
 10
377.79427797488171
 20
486.6368299102561
 30
0.0
 11
193.46609054166905
 21
486.63682991025615
 31
0.0
  0
LINE
  5
21E
100
AcDbEntity
  8
0
  6
Continuous
 62
               4
100
AcDbLine
 10
381.45106923457394
 20
470.63682991025621
 30
0.0
 11
193.46609054166905
 21
470.63682991025621
 31
0.0
  0
LINE
  5
21F
100
AcDbEntity
  8
0
  6
Continuous
 62
               4
100
AcDbLine
 10
385.10786049426622
 20
454.6368299102561
 30
0.0
 11
193.46609054166905
 21
454.6368299102561
 31
0.0
  0
CIRCLE
  5
220
100
AcDbEntity
  8
0
  6
Continuous
 62
               4
100
AcDbCircle
 10
699.08972742124877
 20
296.18777764674093
 30
0.0
 40
1.5
  0
CIRCLE
  5
221
100
AcDbEntity
  8
0
  6
Continuous
 62
               4
100
AcDbCircle
 10
699.08972742124649
 20
271.18777764673899
 30
0.0
 40
1.5
  0
CIRCLE
  5
222
100
AcDbEntity
  8
0
  6
Continuous
 62
               4
100
AcDbCircle
 10
699.08972742124877
 20
296.18777764674479
 30
0.0
 40
1.5
  0
CIRCLE
  5
223
100
AcDbEntity
  8
0
  6
Continuous
 62
               4
100
AcDbCircle
 10
699.08972742126241
 20
446.12734882674431
 30
0.0
 40
1.5
  0
CIRCLE
  5
224
100
AcDbEntity
  8
0
  6
Continuous
 62
               4
100
AcDbCircle
 10
717.08972742124649
 20
271.1877776467374
 30
0.0
 40
1.5
  0
CIRCLE
  5
225
100
AcDbEntity
  8
0
  6
Continuous
 62
               4
100
AcDbCircle
 10
717.08972742126241
 20
446.1273488267426
 30
0.0
 40
1.5
  0
CIRCLE
  5
226
100
AcDbEntity
  8
0
  6
Continuous
 62
               4
100
AcDbCircle
 10
427.08972742122029
 20
332.9475477120904
 30
0.0
 40
1.5
  0
CIRCLE
  5
227
100
AcDbEntity
  8
0
  6
Continuous
 62
               4
100
AcDbCircle
 10
427.08972742122029
 20
271.18777764676059
 30
0.0
 40
1.5
  0
CIRCLE
  5
228
100
AcDbEntity
  8
0
  6
Continuous
 62
               4
100
AcDbCircle
 10
463.08972742121693
 20
235.18777764671825
 30
0.0
 40
1.5
  0
CIRCLE
  5
229
100
AcDbEntity
  8
0
  6
Continuous
 62
               4
100
AcDbCircle
 10
443.08972742121125
 20
235.18777764672006
 30
0.0
 40
1.5
  0
CIRCLE
  5
22A
100
AcDbEntity
  8
0
  6
Continuous
 62
               4
100
AcDbCircle
 10
663.08972742121352
 20
181.18777764669991
 30
0.0
 40
1.5
  0
CIRCLE
  5
22B
100
AcDbEntity
  8
0
  6
Continuous
 62
               4
100
AcDbCircle
 10
463.08972742121199
 20
181.18777764671819
 30
0.0
 40
1.5
  0
CIRCLE
  5
22C
100
AcDbEntity
  8
0
  6
Continuous
 62
               4
100
AcDbCircle
 10
463.08972742121199
 20
181.18777764671819
 30
0.0
 40
1.5
  0
CIRCLE
  5
22D
100
AcDbEntity
  8
0
  6
Continuous
 62
               4
100
AcDbCircle
 10
218.08972742123044
 20
181.18777764674061
 30
0.0
 40
1.5
  0
CIRCLE
  5
22E
100
AcDbEntity
  8
0
  6
Continuous
 62
               4
100
AcDbCircle
 10
218.08972742122879
 20
163.18777764674061
 30
0.0
 40
1.5
  0
CIRCLE
  5
22F
100
AcDbEntity
  8
0
  6
Continuous
 62
               4
100
AcDbCircle
 10
663.08972742121193
 20
163.18777764669991
 30
0.0
 40
1.5
  0
CIRCLE
  5
230
100
AcDbEntity
  8
0
  6
Continuous
 62
               4
100
AcDbCircle
 10
568.59605817149884
 20
377.44898373588478
 30
0.0
 40
1.5
  0
CIRCLE
  5
231
100
AcDbEntity
  8
0
  6
Continuous
 62
               4
100
AcDbCircle
 10
568.89604044667135
 20
407.44721125313669
 30
0.0
 40
1.5
  0
CIRCLE
  5
232
100
AcDbEntity
  8
0
  6
Continuous
 62
               4
100
AcDbCircle
 10
629.08972742127048
 20
426.12734882675056
 30
0.0
 40
1.5
  0
CIRCLE
  5
233
100
AcDbEntity
  8
0
  6
Continuous
 62
               4
100
AcDbCircle
 10
629.08972742127196
 20
446.12734882675045
 30
0.0
 40
1.5
  0
CIRCLE
  5
234
100
AcDbEntity
  8
0
  6
Continuous
 62
               4
100
AcDbCircle
 10
542.62216853215477
 20
443.70495138526366
 30
0.0
 40
1.5
  0
CIRCLE
  5
235
100
AcDbEntity
  8
0
  6
Continuous
 62
               4
100
AcDbCircle
 10
512.62321877075431
 20
444.30494979510758
 30
0.0
 40
1.5
  0
CIRCLE
  5
236
100
AcDbEntity
  8
0
  6
Continuous
 62
               4
100
AcDbCircle
 10
512.62321877075431
 20
444.30494979510758
 30
0.0
 40
1.5
  0
CIRCLE
  5
237
100
AcDbEntity
  8
0
  6
Continuous
 62
               4
100
AcDbCircle
 10
412.64321406635139
 20
446.30461459390744
 30
0.0
 40
1.5
  0
CIRCLE
  5
238
100
AcDbEntity
  8
0
  6
Continuous
 62
               4
100
AcDbCircle
 10
512.26327910697034
 20
426.30854894831492
 30
0.0
 40
1.5
  0
CIRCLE
  5
239
100
AcDbEntity
  8
0
  6
Continuous
 62
               4
100
AcDbCircle
 10
432.27927534344809
 20
427.90828078735473
 30
0.0
 40
1.5
  0
CIRCLE
  5
23A
100
AcDbEntity
  8
0
  6
Continuous
 62
               4
100
AcDbCircle
 10
663.08972742124411
 20
518.12734882668883
 30
0.0
 40
1.5
  0
CIRCLE
  5
23B
100
AcDbEntity
  8
0
  6
Continuous
 62
               4
100
AcDbCircle
 10
638.08972742124411
 20
518.1273488266911
 30
0.0
 40
1.5
  0
CIRCLE
  5
23C
100
AcDbEntity
  8
0
  6
Continuous
 62
               4
100
AcDbCircle
 10
638.08972742124411
 20
518.12734882663244
 30
0.0
 40
1.5
  0
CIRCLE
  5
23D
100
AcDbEntity
  8
0
  6
Continuous
 62
               4
100
AcDbCircle
 10
511.81264188760088
 20
518.12734882664358
 30
0.0
 40
1.5
  0
CIRCLE
  5
23E
100
AcDbEntity
  8
0
  6
Continuous
 62
               4
100
AcDbCircle
 10
663.08972742124581
 20
536.12734882663005
 30
0.0
 40
1.5
  0
CIRCLE
  5
23F
100
AcDbEntity
  8
0
  6
Continuous
 62
               4
100
AcDbCircle
 10
511.81264188760247
 20
536.12734882664358
 30
0.0
 40
1.5
  0
CIRCLE
  5
240
100
AcDbEntity
  8
0
  6
Continuous
 62
               4
100
AcDbCircle
 10
511.81264188760247
 20
536.12734882664358
 30
0.0
 40
1.5
  0
CIRCLE
  5
241
100
AcDbEntity
  8
0
  6
Continuous
 62
               4
100
AcDbCircle
 10
218.08972742121702
 20
536.12734882666962
 30
0.0
 40
1.5
  0
CIRCLE
  5
242
100
AcDbEntity
  8
0
  6
Continuous
 62
               4
100
AcDbCircle
 10
663.08972742124729
 20
554.12734882663005
 30
0.0
 40
1.5
  0
CIRCLE
  5
243
100
AcDbEntity
  8
0
  6
Continuous
 62
               4
100
AcDbCircle
 10
218.08972742121864
 20
554.1273488266695
 30
0.0
 40
1.5
  0
CIRCLE
  5
244
100
AcDbEntity
  8
0
  6
Continuous
 62
               4
100
AcDbCircle
 10
397.79555648851976
 20
399.12282282275794
 30
0.0
 40
1.5
  0
CIRCLE
  5
245
100
AcDbEntity
  8
0
  6
Continuous
 62
               4
100
AcDbCircle
 10
395.97364041206049
 20
407.09447205104937
 30
0.0
 40
1.5
  0
CIRCLE
  5
246
100
AcDbEntity
  8
0
  6
Continuous
 62
               4
100
AcDbCircle
 10
395.16169918626593
 20
410.64705645910976
 30
0.0
 40
1.5
  0
ARC
  5
247
100
AcDbEntity
  8
0
  6
Continuous
 62
               7
100
AcDbCircle
 10
208.08972742122222
 20
279.03218620116428
 30
0.0
 40
1.0
100
AcDbArc
 50
0.0
 51
180.0
  0
ARC
  5
248
100
AcDbEntity
  8
0
  6
Continuous
 62
               7
100
AcDbCircle
 10
210.08972742122222
 20
279.03218620116428
 30
0.0
 40
1.0
100
AcDbArc
 50
0.0
 51
180.0
  0
ARC
  5
249
100
AcDbEntity
  8
0
  6
Continuous
 62
               7
100
AcDbCircle
 10
212.08972742122222
 20
279.03218620116428
 30
0.0
 40
1.0
100
AcDbArc
 50
0.0
 51
180.0
  0
ARC
  5
24A
100
AcDbEntity
  8
0
  6
Continuous
 62
               7
100
AcDbCircle
 10
214.08972742122222
 20
279.03218620116428
 30
0.0
 40
1.0
100
AcDbArc
 50
0.0
 51
180.0
  0
ARC
  5
24B
100
AcDbEntity
  8
0
  6
Continuous
 62
               7
100
AcDbCircle
 10
216.08972742122222
 20
279.03218620116428
 30
0.0
 40
1.0
100
AcDbArc
 50
0.0
 51
180.0
  0
ARC
  5
24C
100
AcDbEntity
  8
0
  6
Continuous
 62
               7
100
AcDbCircle
 10
218.08972742122222
 20
279.03218620116428
 30
0.0
 40
1.0
100
AcDbArc
 50
0.0
 51
180.0
  0
ARC
  5
24D
100
AcDbEntity
  8
0
  6
Continuous
 62
               7
100
AcDbCircle
 10
220.08972742122222
 20
279.03218620116428
 30
0.0
 40
1.0
100
AcDbArc
 50
0.0
 51
180.0
  0
ARC
  5
24E
100
AcDbEntity
  8
0
  6
Continuous
 62
               7
100
AcDbCircle
 10
222.08972742122222
 20
279.03218620116428
 30
0.0
 40
1.0
100
AcDbArc
 50
0.0
 51
180.0
  0
ARC
  5
24F
100
AcDbEntity
  8
0
  6
Continuous
 62
               7
100
AcDbCircle
 10
224.08972742122222
 20
279.03218620116428
 30
0.0
 40
1.0
100
AcDbArc
 50
0.0
 51
180.0
  0
ARC
  5
250
100
AcDbEntity
  8
0
  6
Continuous
 62
               7
100
AcDbCircle
 10
226.08972742122222
 20
279.03218620116428
 30
0.0
 40
1.0
100
AcDbArc
 50
0.0
 51
180.0
  0
ARC
  5
251
100
AcDbEntity
  8
0
  6
Continuous
 62
               7
100
AcDbCircle
 10
228.08972742122234
 20
279.03218620116428
 30
0.0
 40
1.0
100
AcDbArc
 50
0.0
 51
180.0
  0
ARC
  5
252
100
AcDbEntity
  8
0
  6
Continuous
 62
               3
100
AcDbCircle
 10
493.09281682335865
 20
344.97625393236382
 30
0.0
 40
1.0
100
AcDbArc
 50
314.1105247851653
 51
359.11052478516535
  0
ARC
  5
253
100
AcDbEntity
  8
0
  6
Continuous
 62
               3
100
AcDbCircle
 10
512.1576645680841
 20
387.64821774762623
 30
0.0
 40
1.0
100
AcDbArc
 50
0.2562876233653782
 51
90.256287623365225
  0
ARC
  5
254
100
AcDbEntity
  8
0
  6
Continuous
 62
               2
100
AcDbCircle
 10
540.59745806650767
 20
377.72896973693474
 30
0.0
 40
1.0
100
AcDbArc
 50
179.42706130231653
 51
359.42706130231647
  0
ARC
  5
255
100
AcDbEntity
  8
0
  6
Continuous
 62
               6
100
AcDbCircle
 10
540.38546866571255
 20
406.53252959494461
 30
0.0
 40
0.5
100
AcDbArc
 50
89.11287578895309
 51
89.427061302316503
  0
ARC
  5
256
100
AcDbEntity
  8
0
  6
Continuous
 62
               6
100
AcDbCircle
 10
641.58972742123774
 20
294.48777764674418
 30
0.0
 40
3.0
100
AcDbArc
 50
270.0
 51
0.0
  0
ARC
  5
257
100
AcDbEntity
  8
0
  6
Continuous
 62
               7
100
AcDbCircle
 10
639.29674724792312
 20
437.27867207252103
 30
0.0
 40
2.2078275756135288
100
AcDbArc
 50
123.14092762816746
 51
179.99897944928469
  0
ARC
  5
258
100
AcDbEntity
  8
0
  6
Continuous
 62
               7
100
AcDbCircle
 10
645.08972742123706
 20
438.62734882674982
 30
0.0
 40
0.5
100
AcDbArc
 50
89.999999999999957
 51
180.0
  0
ARC
  5
259
100
AcDbEntity
  8
0
  6
Continuous
 62
               7
100
AcDbCircle
 10
639.29674724792312
 20
434.97602558097873
 30
0.0
 40
2.2078275756135288
100
AcDbArc
 50
180.00102055071528
 51
236.85907237183247
  0
ARC
  5
25A
100
AcDbEntity
  8
0
  6
Continuous
 62
               7
100
AcDbCircle
 10
645.08972742123706
 20
433.62734882674982
 30
0.0
 40
0.5
100
AcDbArc
 50
180.0
 51
269.99999999999994
  0
ARC
  5
25B
100
AcDbEntity
  8
0
  6
Continuous
 62
               7
100
AcDbCircle
 10
647.08972742123706
 20
438.62734882674982
 30
0.0
 40
0.5
100
AcDbArc
 50
0.0
 51
89.999999999999957
  0
ARC
  5
25C
100
AcDbEntity
  8
0
  6
Continuous
 62
               7
100
AcDbCircle
 10
647.08972742123706
 20
433.62734882674982
 30
0.0
 40
0.5
100
AcDbArc
 50
269.99999999999994
 51
0.0
  0
ARC
  5
25D
100
AcDbEntity
  8
0
  6
Continuous
 62
               7
100
AcDbCircle
 10
577.8229212539577
 20
277.18777764674422
 30
0.0
 40
60.0
100
AcDbArc
 50
41.409622109270828
 51
86.713411104338491
  0
ARC
  5
25E
100
AcDbEntity
  8
0
  6
Continuous
 62
               7
100
AcDbCircle
 10
577.8229212539577
 20
277.18777764674422
 30
0.0
 40
57.0
100
AcDbArc
 50
42.536898362986186
 51
88.492172818066592
  0
ARC
  5
25F
100
AcDbEntity
  8
0
  6
Continuous
 62
               7
100
AcDbCircle
 10
577.8229212539577
 20
334.18777764674422
 30
0.0
 40
1.5
100
AcDbArc
 50
359.24608640903364
 51
180.75391359096719
  0
ARC
  5
260
100
AcDbEntity
  8
0
  6
Continuous
 62
               7
100
AcDbCircle
 10
577.8229212539577
 20
334.18777764674422
 30
0.0
 40
4.5
100
AcDbArc
 50
40.1459476621243
 51
139.85405233787139
  0
ARC
  5
261
100
AcDbEntity
  8
0
  6
Continuous
 62
               7
100
AcDbCircle
 10
577.8229212539577
 20
277.18777764674422
 30
0.0
 40
60.0
100
AcDbArc
 50
93.286588895661268
 51
138.59037789072912
  0
ARC
  5
262
100
AcDbEntity
  8
0
  6
Continuous
 62
               7
100
AcDbCircle
 10
577.8229212539577
 20
277.18777764674422
 30
0.0
 40
57.0
100
AcDbArc
 50
91.507827181933408
 51
137.46310163701375
  0
ARC
  5
263
100
AcDbEntity
  8
0
  6
Continuous
 62
               7
100
AcDbCircle
 10
615.61473804587854
 20
299.16666867671182
 30
0.0
 40
3.0
100
AcDbArc
 50
101.2075248028862
 51
180.0
  0
ARC
  5
264
100
AcDbEntity
  8
0
  6
Continuous
 62
               7
100
AcDbCircle
 10
619.8229212539577
 20
303.05880907895784
 30
0.0
 40
3.0
100
AcDbArc
 50
281.20752480288621
 51
0.0
  0
ARC
  5
265
100
AcDbEntity
  8
0
  6
Continuous
 62
               7
100
AcDbCircle
 10
616.11473804587854
 20
298.75601902957823
 30
0.0
 40
0.5
100
AcDbArc
 50
101.2075248028862
 51
180.0
  0
ARC
  5
266
100
AcDbEntity
  8
0
  6
Continuous
 62
               7
100
AcDbCircle
 10
618.8229212539577
 20
303.88010837322514
 30
0.0
 40
1.0
100
AcDbArc
 50
281.20752480288616
 51
0.0
  0
ARC
  5
267
100
AcDbEntity
  8
0
  6
Continuous
 62
               7
100
AcDbCircle
 10
540.03110446203709
 20
299.16666867671182
 30
0.0
 40
3.0
100
AcDbArc
 50
0.0
 51
78.792475197113802
  0
ARC
  5
268
100
AcDbEntity
  8
0
  6
Continuous
 62
               7
100
AcDbCircle
 10
535.82292125395793
 20
303.05880907895784
 30
0.0
 40
3.0
100
AcDbArc
 50
180.0
 51
258.79247519711373
  0
ARC
  5
269
100
AcDbEntity
  8
0
  6
Continuous
 62
               7
100
AcDbCircle
 10
539.53110446203709
 20
298.75601902957823
 30
0.0
 40
0.5
100
AcDbArc
 50
0.0
 51
78.792475197113802
  0
ARC
  5
26A
100
AcDbEntity
  8
0
  6
Continuous
 62
               7
100
AcDbCircle
 10
536.82292125395793
 20
303.88010837322514
 30
0.0
 40
1.0
100
AcDbArc
 50
180.0
 51
258.79247519711379
  0
ARC
  5
26B
100
AcDbEntity
  8
0
  6
Continuous
 62
               7
100
AcDbCircle
 10
218.0897274212204
 20
225.03218620116428
 30
0.0
 40
42.5
100
AcDbArc
 50
113.41551361549438
 51
156.58448638450008
  0
ARC
  5
26C
100
AcDbEntity
  8
0
  6
Continuous
 62
               7
100
AcDbCircle
 10
218.08972742122199
 20
225.03218620116269
 30
0.0
 40
42.5
100
AcDbArc
 50
203.41551361549435
 51
246.58448638450005
  0
ARC
  5
26D
100
AcDbEntity
  8
0
  6
Continuous
 62
               7
100
AcDbCircle
 10
218.08972742122359
 20
225.03218620116428
 30
0.0
 40
42.5
100
AcDbArc
 50
293.41551361549432
 51
336.58448638450011
  0
ARC
  5
26E
100
AcDbEntity
  8
0
  6
Continuous
 62
               7
100
AcDbCircle
 10
218.08972742122199
 20
225.03218620116587
 30
0.0
 40
42.5
100
AcDbArc
 50
23.415513615494355
 51
66.58448638450011
  0
ARC
  5
26F
100
AcDbEntity
  8
0
  6
Continuous
 62
               3
100
AcDbCircle
 10
494.7542330773345
 20
387.57037058539453
 30
0.0
 40
1.0
100
AcDbArc
 50
90.256287623365409
 51
179.11052478516461
  0
ARC
  5
270
100
AcDbEntity
  8
0
  6
Continuous
 62
               6
100
AcDbCircle
 10
498.01274908870079
 20
294.68777764674411
 30
0.0
 40
3.2000000000000002
100
AcDbArc
 50
179.11052478516206
 51
270.0
  0
ARC
  5
271
100
AcDbEntity
  8
0
  6
Continuous
 62
               3
100
AcDbCircle
 10
195.14846211033552
 20
350.87353460089838
 30
0.0
 40
1.0
100
AcDbArc
 50
179.11052478516771
 51
224.11052478515785
  0
ARC
  5
272
100
AcDbEntity
  8
0
  6
Continuous
 62
               3
100
AcDbCircle
 10
195.80013217858749
 20
392.84766086772703
 30
0.0
 40
1.0
100
AcDbArc
 50
89.110524785158063
 51
179.11052478515802
  0
ARC
  5
273
100
AcDbEntity
  8
0
  6
Continuous
 62
               3
100
AcDbCircle
 10
193.14870310848909
 20
350.90458189600889
 30
0.0
 40
1.0
100
AcDbArc
 50
314.11052478515785
 51
359.11052478515785
  0
ARC
  5
274
100
AcDbEntity
  8
0
  6
Continuous
 62
               3
100
AcDbCircle
 10
211.81372784091542
 20
393.59916200776451
 30
0.0
 40
1.0
100
AcDbArc
 50
359.11052478515785
 51
89.110524785158034
  0
ARC
  5
275
100
AcDbEntity
  8
0
  6
Continuous
 62
               3
100
AcDbCircle
 10
194.81577632521959
 20
393.86306401620578
 30
0.0
 40
1.0
100
AcDbArc
 50
89.11052478515802
 51
179.11052478515802
  0
ARC
  5
276
100
AcDbEntity
  8
0
  6
Continuous
 62
               3
100
AcDbCircle
 10
183.17573286277326
 20
341.23654841438832
 30
0.0
 40
1.0
100
AcDbArc
 50
268.85420009616831
 51
314.11052478516223
  0
ARC
  5
277
100
AcDbEntity
  8
0
  6
Continuous
 62
               3
100
AcDbCircle
 10
204.91223594184891
 20
340.80180428545242
 30
0.0
 40
1.0
100
AcDbArc
 50
224.11052478516083
 51
268.85420009616831
  0
ARC
  5
278
100
AcDbEntity
  8
0
  6
Continuous
 62
               7
100
AcDbCircle
 10
451.95016616829759
 20
334.74454959173232
 30
0.0
 40
2.2078275756135288
100
AcDbArc
 50
213.14092762816745
 51
269.99897944928466
  0
ARC
  5
279
100
AcDbEntity
  8
0
  6
Continuous
 62
               7
100
AcDbCircle
 10
450.60148941406879
 20
336.53752976504614
 30
0.0
 40
0.5
100
AcDbArc
 50
180.00000000000006
 51
269.99999999999994
  0
ARC
  5
27A
100
AcDbEntity
  8
0
  6
Continuous
 62
               7
100
AcDbCircle
 10
454.25281265984
 20
334.74454959173232
 30
0.0
 40
2.2078275756135288
100
AcDbArc
 50
270.00102055071522
 51
326.85907237183244
  0
ARC
  5
27B
100
AcDbEntity
  8
0
  6
Continuous
 62
               7
100
AcDbCircle
 10
455.60148941406879
 20
336.53752976504614
 30
0.0
 40
0.5
100
AcDbArc
 50
269.99999999999994
 51
0.0
  0
ARC
  5
27C
100
AcDbEntity
  8
0
  6
Continuous
 62
               7
100
AcDbCircle
 10
450.60148941406879
 20
338.53752976504614
 30
0.0
 40
0.5
100
AcDbArc
 50
90.000000000000028
 51
180.00000000000006
  0
ARC
  5
27D
100
AcDbEntity
  8
0
  6
Continuous
 62
               7
100
AcDbCircle
 10
455.60148941406879
 20
338.53752976504614
 30
0.0
 40
0.5
100
AcDbArc
 50
0.0
 51
89.999999999999957
  0
ARC
  5
27E
100
AcDbEntity
  8
0
  6
Continuous
 62
               3
100
AcDbCircle
 10
462.58972742122029
 20
332.9475477120904
 30
0.0
 40
0.5
100
AcDbArc
 50
0.0
 51
88.854200096168299
  0
ARC
  5
27F
100
AcDbEntity
  8
0
  6
Continuous
 62
               7
100
AcDbCircle
 10
177.50257796010834
 20
241.23911588848119
 30
0.0
 40
2.109117853093986
100
AcDbArc
 50
32.30137213311604
 51
88.855896469902149
  0
ARC
  5
280
100
AcDbEntity
  8
0
  6
Continuous
 62
               7
100
AcDbCircle
 10
176.88682984138114
 20
210.46105323172645
 30
0.0
 40
2.109117853093986
100
AcDbArc
 50
268.85188240207771
 51
359.06192684281461
  0
ARC
  5
281
100
AcDbEntity
  8
0
  6
Continuous
 62
               6
100
AcDbCircle
 10
540.38546866571255
 20
406.53252959494461
 30
0.0
 40
0.5
100
AcDbArc
 50
359.42706130231653
 51
89.112875789192614
  0
ARC
  5
282
100
AcDbEntity
  8
0
  6
Continuous
 62
               2
100
AcDbCircle
 10
541.39241584343722
 20
407.22224749240712
 30
0.0
 40
0.5
100
AcDbArc
 50
359.42706130231653
 51
88.854200096168313
  0
ARC
  5
283
100
AcDbEntity
  8
0
  6
Continuous
 62
               6
100
AcDbCircle
 10
537.22292125395779
 20
199.00484827909185
 30
0.0
 40
81.199999999999989
100
AcDbArc
 50
314.99999999999994
 51
0.0
  0
ARC
  5
284
100
AcDbEntity
  8
0
  6
Continuous
 62
               6
100
AcDbCircle
 10
496.62292125395794
 20
215.82191891143947
 30
0.0
 40
40.599999999999994
100
AcDbArc
 50
314.99999999999994
 51
0.0
  0
ARC
  5
285
100
AcDbEntity
  8
0
  6
Continuous
 62
               7
100
AcDbCircle
 10
498.57680557373652
 20
325.99726301093909
 30
0.0
 40
3.2602278616464391
100
AcDbArc
 50
15.851493184591446
 51
90.480580783107612
  0
ARC
  5
286
100
AcDbEntity
  8
0
  6
Continuous
 62
               7
100
AcDbCircle
 10
500.7531355705533
 20
293.582040931687
 30
0.0
 40
3.791953523574668
100
AcDbArc
 50
16.953818449634703
 51
82.404916172826489
  0
TEXT
  5
287
100
AcDbEntity
  8
0
 62
               7
100
AcDbText
 10
699.08972742124695
 20
277.68777764673996
 30
0.0
 40
12.000000000000012
  1
25
 50
89.999999999994699
 41
0.7695
  7
FontTableH_0
 72
               5
 11
699.08972742124809
 21
289.68777764673996
 31
0.0
100
AcDbText
  0
TEXT
  5
288
100
AcDbEntity
  8
0
 62
               7
100
AcDbText
 10
699.08972742125479
 20
362.15756323674452
 30
0.0
 40
12.000000000000012
  1
150
 50
89.999999999994813
 41
0.7695
  7
FontTableH_0
 72
               5
 11
699.08972742125638
 21
380.15756323674452
 31
0.0
100
AcDbText
  0
TEXT
  5
289
100
AcDbEntity
  8
0
 62
               7
100
AcDbText
 10
717.08972742125354
 20
349.65756323674003
 30
0.0
 40
12.000000000000012
  1
175
 50
89.999999999994813
 41
0.7695
  7
FontTableH_0
 72
               5
 11
717.08972742125513
 21
367.65756323674003
 31
0.0
100
AcDbText
  0
TEXT
  5
28A
100
AcDbEntity
  8
0
 62
               7
100
AcDbText
 10
121.85461175073657
 20
160.2932844125734
 30
0.0
 40
12.000000000000012
  1
グローブ
 41
0.7695
  7
FontTableH_0
 72
               5
 11
169.85461175073661
 21
160.2932844125734
 31
0.0
100
AcDbText
  0
TEXT
  5
28B
100
AcDbEntity
  8
0
 62
               7
100
AcDbText
 10
73.651638330058361
 20
282.38395650105798
 30
0.0
 40
12.000000000000012
  1
M20ボルトナット加工
 41
0.7695
  7
FontTableH_0
 72
               5
 11
187.65163833005849
 21
282.38395650105798
 31
0.0
100
AcDbText
  0
TEXT
  5
28C
100
AcDbEntity
  8
0
 62
               7
100
AcDbText
 10
303.44673294236952
 20
271.01048037828139
 30
0.0
 40
12.000000000000012
  1
アルミ型材
 41
0.7695
  7
FontTableH_0
 72
               5
 11
363.44673294236958
 21
271.01048037828139
 31
0.0
100
AcDbText
  0
TEXT
  5
28D
100
AcDbEntity
  8
0
 62
               7
100
AcDbText
 10
427.08972742122029
 20
290.0676626794255
 30
0.0
 40
12.000000000000012
  1
61.8
 50
90.000000000000028
 41
0.7695
  7
FontTableH_0
 72
               5
 11
427.08972742122029
 21
314.0676626794255
 31
0.0
100
AcDbText
  0
TEXT
  5
28E
100
AcDbEntity
  8
0
 62
               7
100
AcDbText
 10
447.08972742121409
 20
235.18777764671967
 30
0.0
 40
12.000000000000012
  1
20
 50
359.99999999999477
 41
0.7695
  7
FontTableH_0
 72
               5
 11
459.08972742121409
 21
235.18777764671859
 31
0.0
100
AcDbText
  0
TEXT
  5
28F
100
AcDbEntity
  8
0
 62
               7
100
AcDbText
 10
554.08972742121284
 20
181.18777764670989
 30
0.0
 40
12.000000000000012
  1
200
 50
359.99999999999477
 41
0.7695
  7
FontTableH_0
 72
               5
 11
572.08972742121284
 21
181.18777764670824
 31
0.0
100
AcDbText
  0
TEXT
  5
290
100
AcDbEntity
  8
0
 62
               7
100
AcDbText
 10
331.58972742122126
 20
181.18777764673024
 30
0.0
 40
12.000000000000012
  1
245
 50
359.99999999999477
 41
0.7695
  7
FontTableH_0
 72
               5
 11
349.58972742122126
 21
181.18777764672859
 31
0.0
100
AcDbText
  0
TEXT
  5
291
100
AcDbEntity
  8
0
 62
               7
100
AcDbText
 10
431.58972742122035
 20
163.18777764672106
 30
0.0
 40
12.000000000000012
  1
445
 50
359.99999999999477
 41
0.7695
  7
FontTableH_0
 72
               5
 11
449.58972742122035
 21
163.18777764671941
 31
0.0
100
AcDbText
  0
TEXT
  5
292
100
AcDbEntity
  8
0
 62
               7
100
AcDbText
 10
568.6860523088601
 20
386.44839747201263
 30
0.0
 40
12.000000000000012
  1
30
 50
89.427061302316545
 41
0.7695
  7
FontTableH_0
 72
               5
 11
568.80604630931009
 21
398.44779751700889
 31
0.0
100
AcDbText
  0
TEXT
  5
293
100
AcDbEntity
  8
0
 62
               7
100
AcDbText
 10
629.08972742127082
 20
430.12734882675051
 30
0.0
 40
12.000000000000012
  1
20
 50
89.999999999995609
 41
0.7695
  7
FontTableH_0
 72
               5
 11
629.08972742127173
 21
442.12734882675051
 31
0.0
100
AcDbText
  0
TEXT
  5
294
100
AcDbEntity
  8
0
 62
               7
100
AcDbText
 10
575.84990591323321
 20
455.37770922826087
 30
0.0
 40
12.000000000000012
  1
唐草：屋根同材
 41
0.7695
  7
FontTableH_0
 72
               5
 11
659.84990591323333
 21
455.37770922826087
 31
0.0
100
AcDbText
  0
TEXT
  5
295
100
AcDbEntity
  8
0
 62
               7
100
AcDbText
 10
555.07102160171371
 20
356.11946730887939
 30
0.0
 40
12.000000000000012
  1
樋：SUS t0.4
 41
0.7695
  7
FontTableH_0
 72
               5
 11
627.07102160171382
 21
356.1194673088811
 31
0.0
100
AcDbText
  0
TEXT
  5
296
100
AcDbEntity
  8
0
 62
               7
100
AcDbText
 10
730.39796624341443
 20
440.9082359618165
 30
0.0
 40
12.000000000000012
  1
樋カバー：屋根同材
 41
0.7695
  7
FontTableH_0
 72
               5
 11
838.39796624341454
 21
440.9082359618165
 31
0.0
100
AcDbText
  0
TEXT
  5
297
100
AcDbEntity
  8
0
 62
               7
100
AcDbText
 10
712.28678078156531
 20
472.02553105535299
 30
0.0
 40
12.000000000000012
  1
F.B-3X32 @500
 41
0.7695
  7
FontTableH_0
 72
               5
 11
790.28678078156543
 21
472.02553105535299
 31
0.0
100
AcDbText
  0
TEXT
  5
298
100
AcDbEntity
  8
0
 62
               7
100
AcDbText
 10
401.15666940840475
 20
342.33989137917797
 30
0.0
 40
12.000000000000012
  1
吊金具
 50
359.99999999999818
 41
0.7695
  7
FontTableH_0
 72
               5
 11
437.15666940840481
 21
342.33989137917683
 31
0.0
100
AcDbText
  0
TEXT
  5
299
100
AcDbEntity
  8
0
 62
               7
100
AcDbText
 10
521.62389336919045
 20
444.12493047811353
 30
0.0
 40
12.000000000000012
  1
30
 50
358.85420009616843
 41
0.7695
  7
FontTableH_0
 72
               5
 11
533.62149393371885
 21
443.88497070225759
 31
0.0
100
AcDbText
  0
TEXT
  5
29A
100
AcDbEntity
  8
0
 62
               7
100
AcDbText
 10
453.63501599515661
 20
445.48475202639952
 30
0.0
 40
12.000000000000012
  1
100
 50
358.85420009616831
 41
0.7695
  7
FontTableH_0
 72
               5
 11
471.63141684194915
 21
445.12481236261556
 31
0.0
100
AcDbText
  0
TEXT
  5
29B
100
AcDbEntity
  8
0
 62
               7
100
AcDbText
 10
466.27247694294493
 20
427.22839475576279
 30
0.0
 40
12.000000000000012
  1
80
 50
358.85420009616831
 41
0.7695
  7
FontTableH_0
 72
               5
 11
478.27007750747327
 21
426.98843497990686
 31
0.0
100
AcDbText
  0
TEXT
  5
29C
100
AcDbEntity
  8
0
 62
               7
100
AcDbText
 10
644.58972742124411
 20
518.12734882669054
 30
0.0
 40
12.000000000000012
  1
25
 50
359.99999999999488
 41
0.7695
  7
FontTableH_0
 72
               5
 11
656.58972742124411
 21
518.1273488266894
 31
0.0
100
AcDbText
  0
TEXT
  5
29D
100
AcDbEntity
  8
0
 62
               7
100
AcDbText
 10
565.95118465442249
 20
518.12734882663869
 30
0.0
 40
12.000000000000012
  1
125
 50
359.99999999999488
 41
0.7695
  7
FontTableH_0
 72
               5
 11
583.95118465442249
 21
518.1273488266371
 31
0.0
100
AcDbText
  0
TEXT
  5
29E
100
AcDbEntity
  8
0
 62
               7
100
AcDbText
 10
578.45118465442408
 20
536.12734882663767
 30
0.0
 40
12.000000000000012
  1
150
 50
359.99999999999488
 41
0.7695
  7
FontTableH_0
 72
               5
 11
596.45118465442408
 21
536.12734882663608
 31
0.0
100
AcDbText
  0
TEXT
  5
29F
100
AcDbEntity
  8
0
 62
               7
100
AcDbText
 10
355.9511846544097
 20
536.12734882665734
 30
0.0
 40
12.000000000000012
  1
295
 50
359.99999999999488
 41
0.7695
  7
FontTableH_0
 72
               5
 11
373.9511846544097
 21
536.12734882665575
 31
0.0
100
AcDbText
  0
TEXT
  5
2A0
100
AcDbEntity
  8
0
 62
               7
100
AcDbText
 10
431.58972742123296
 20
554.12734882665052
 30
0.0
 40
12.000000000000012
  1
445
 50
359.99999999999488
 41
0.7695
  7
FontTableH_0
 72
               5
 11
449.58972742123296
 21
554.12734882664893
 31
0.0
100
AcDbText
  0
TEXT
  5
2A1
100
AcDbEntity
  8
0
 62
               7
100
AcDbText
 10
218.16044456723239
 20
319.85224726904062
 30
0.0
 40
12.000000000000012
  1
天井仕上材 t=1.0mm
 41
0.7695
  7
FontTableH_0
 72
               5
 11
326.1604445672325
 21
319.85224726904062
 31
0.0
100
AcDbText
  0
TEXT
  5
2A2
100
AcDbEntity
  8
0
 62
               7
100
AcDbText
 10
672.31980893637706
 20
238.27352230773653
 30
0.0
 40
9.0000000000000089
  1
コーキングパネル
 41
0.7695
  7
FontTableH_0
 72
               5
 11
744.31980893637717
 21
238.27352230773653
 31
0.0
100
AcDbText
  0
TEXT
  5
2A3
100
AcDbEntity
  8
0
 62
               7
100
AcDbText
 10
196.47061459186651
 20
472.14228140139653
 30
0.0
 40
12.000000000000012
  1
アスファルトルーフィング 22kg
 41
0.7695
  7
FontTableH_0
 72
               5
 11
370.47061459186671
 21
472.14228140139653
 31
0.0
100
AcDbText
  0
TEXT
  5
2A4
100
AcDbEntity
  8
0
 62
               7
100
AcDbText
 10
196.47061459186651
 20
488.14222036624005
 30
0.0
 40
12.000000000000012
  1
プロムナ－ル－フF：各種金属板
 41
0.7695
  7
FontTableH_0
 72
               5
 11
370.47061459186671
 21
488.14222036624005
 31
0.0
100
AcDbText
  0
TEXT
  5
2A5
100
AcDbEntity
  8
0
 62
               7
100
AcDbText
 10
196.47061459186651
 20
456.14234243655255
 30
0.0
 40
12.000000000000012
  1
硬質木片セメント板 12mm
 41
0.7695
  7
FontTableH_0
 72
               5
 11
334.47061459186665
 21
456.14234243655255
 31
0.0
100
AcDbText
  0
TEXT
  5
2A6
100
AcDbEntity
  8
0
 62
               7
100
AcDbText
 10
28.392137233056218
 20
601.35786449547834
 30
0.0
 40
8.9999997615814422
  1
モヤーネ（プロムナーF仕様）
 41
0.7695
  7
FontTableH_0
 72
               5
 11
149.89213401440568
 21
601.35786449547834
 31
0.0
100
AcDbText
  0
TEXT
  5
2A7
100
AcDbEntity
  8
0
 62
               7
100
AcDbText
 10
744.78679775649653
 20
26.713203554805762
 30
0.0
 40
8.9999997615814422
  1
軒先詳細図 【S=1/3】
 41
0.7695
  7
FontTableH_0
 72
               5
 11
834.78679537231096
 21
26.713203554805762
 31
0.0
100
AcDbText
  0
ENDSEC
  0
SECTION
  2
OBJECTS
  0
DICTIONARY
  5
19
100
AcDbDictionary
  3
ACAD_GROUP
350
1A
  3
ACAD_MLINESTYLE
350
1B
  3
DWGPROPS
350
2A8
  0
DICTIONARY
  5
1A
102
{ACAD_REACTORS
330
19
102
}
100
AcDbDictionary
  0
DICTIONARY
  5
1B
102
{ACAD_REACTORS
330
19
102
}
100
AcDbDictionary
  3
STANDARD
350
1C
  0
MLINESTYLE
  5
1C
102
{ACAD_REACTORS
330
1B
102
}
100
AcDbMlineStyle
  2
Standard
 70
               0
  3

 62
               0
 51
90.0
 52
90.0
 71
               2
 49
0.5
 62
             256
  6
ByLayer
 49
-0.5
 62
             256
  6
ByLayer
  0
XRECORD
  5
2A8
100
AcDbXrecord
  1
DWGPROPS COOKIE
  2

  3

  4

  6

  7

  0
ENDSEC
  0
EOF
