  0
SECTION
  2
HEADER
  9
$ACADVER
  1
AC1014
  9
$ACADMAINTVER
 70
               0
  9
$DWGCODEPAGE
  3
ANSI_932
  9
$INSBASE
 10
0.0
 20
0.0
 30
0.0
  9
$EXTMIN
 10
0.0
 20
0.0
 30
0.0
  9
$EXTMAX
 10
840.0
 20
594.0
 30
0.0
  9
$LIMMIN
 10
0.0
 20
0.0
  9
$LIMMAX
 10
840.0
 20
594.0
  9
$ORTHOMODE
 70
               0
  9
$REGENMODE
 70
               1
  9
$FILLMODE
 70
               1
  9
$QTEXTMODE
 70
               0
  9
$MIRRTEXT
 70
               1
  9
$DRAGMODE
 70
               2
  9
$LTSCALE
 40
2.0
  9
$OSMODE
 70
               0
  9
$ATTMODE
 70
               1
  9
$TEXTSIZE
 40
0.2
  9
$TRACEWID
 40
0.05
  9
$TEXTSTYLE
  7
Standard
  9
$CLAYER
  8
0
  9
$CELTYPE
  6
Continuous
  9
$CECOLOR
 62
             256
  9
$CELTSCALE
 40
1.0
  9
$DELOBJ
 70
               1
  9
$DISPSILH
 70
               0
  9
$DIMSCALE
 40
1.0
  9
$DIMASZ
 40
0.18
  9
$DIMEXO
 40
0.0625
  9
$DIMDLI
 40
0.38
  9
$DIMRND
 40
0.0
  9
$DIMDLE
 40
0.0
  9
$DIMEXE
 40
0.18
  9
$DIMTP
 40
0.0
  9
$DIMTM
 40
0.0
  9
$DIMTXT
 40
0.18
  9
$DIMCEN
 40
0.09
  9
$DIMTSZ
 40
0.0
  9
$DIMTOL
 70
               0
  9
$DIMLIM
 70
               0
  9
$DIMTIH
 70
               1
  9
$DIMTOH
 70
               1
  9
$DIMSE1
 70
               0
  9
$DIMSE2
 70
               0
  9
$DIMTAD
 70
               0
  9
$DIMZIN
 70
               0
  9
$DIMBLK
  1

  9
$DIMASO
 70
               1
  9
$DIMSHO
 70
               1
  9
$DIMPOST
  1

  9
$DIMAPOST
  1

  9
$DIMALT
 70
               0
  9
$DIMALTD
 70
               2
  9
$DIMALTF
 40
25.399999999999999
  9
$DIMLFAC
 40
1.0
  9
$DIMTOFL
 70
               0
  9
$DIMTVP
 40
0.0
  9
$DIMTIX
 70
               0
  9
$DIMSOXD
 70
               0
  9
$DIMSAH
 70
               0
  9
$DIMBLK1
  1

  9
$DIMBLK2
  1

  9
$DIMSTYLE
  2
Standard
  9
$DIMCLRD
 70
               0
  9
$DIMCLRE
 70
               0
  9
$DIMCLRT
 70
               0
  9
$DIMTFAC
 40
1.0
  9
$DIMGAP
 40
0.09
  9
$DIMJUST
 70
               0
  9
$DIMSD1
 70
               0
  9
$DIMSD2
 70
               0
  9
$DIMTOLJ
 70
               1
  9
$DIMTZIN
 70
               0
  9
$DIMALTZ
 70
               0
  9
$DIMALTTZ
 70
               0
  9
$DIMFIT
 70
               3
  9
$DIMUPT
 70
               0
  9
$DIMUNIT
 70
               2
  9
$DIMDEC
 70
               4
  9
$DIMTDEC
 70
               4
  9
$DIMALTU
 70
               2
  9
$DIMALTTD
 70
               2
  9
$DIMTXSTY
  7
Standard
  9
$DIMAUNIT
 70
               0
  9
$LUNITS
 70
               2
  9
$LUPREC
 70
               4
  9
$SKETCHINC
 40
0.1
  9
$FILLETRAD
 40
0.0
  9
$AUNITS
 70
               0
  9
$AUPREC
 70
               0
  9
$MENU
  1
acad
  9
$ELEVATION
 40
0.0
  9
$PELEVATION
 40
0.0
  9
$THICKNESS
 40
0.0
  9
$LIMCHECK
 70
               0
  9
$BLIPMODE
 70
               1
  9
$CHAMFERA
 40
0.0
  9
$CHAMFERB
 40
0.0
  9
$CHAMFERC
 40
0.0
  9
$CHAMFERD
 40
0.0
  9
$SKPOLY
 70
               0
  9
$TDCREATE
 40
0.000000000
  9
$TDUPDATE
 40
0.000000000
  9
$TDINDWG
 40
0.0000000000
  9
$TDUSRTIMER
 40
0.0000000000
  9
$USRTIMER
 70
               1
  9
$ANGBASE
 50
0.0
  9
$ANGDIR
 70
               0
  9
$PDMODE
 70
               0
  9
$PDSIZE
 40
0.0
  9
$PLINEWID
 40
0.0
  9
$COORDS
 70
               0
  9
$SPLFRAME
 70
               0
  9
$SPLINETYPE
 70
               6
  9
$SPLINESEGS
 70
               8
  9
$ATTDIA
 70
               0
  9
$ATTREQ
 70
               1
  9
$HANDLING
 70
               1
  9
$HANDSEED
  5
13D
  9
$SURFTAB1
 70
               6
  9
$SURFTAB2
 70
               6
  9
$SURFTYPE
 70
               6
  9
$SURFU
 70
               6
  9
$SURFV
 70
               6
  9
$UCSNAME
  2

  9
$UCSORG
 10
0.0
 20
0.0
 30
0.0
  9
$UCSXDIR
 10
1.0
 20
0.0
 30
0.0
  9
$UCSYDIR
 10
0.0
 20
1.0
 30
0.0
  9
$PUCSNAME
  2

  9
$PUCSORG
 10
0.0
 20
0.0
 30
0.0
  9
$PUCSXDIR
 10
1.0
 20
0.0
 30
0.0
  9
$PUCSYDIR
 10
0.0
 20
1.0
 30
0.0
  9
$USERI1
 70
               0
  9
$USERI2
 70
               0
  9
$USERI3
 70
               0
  9
$USERI4
 70
               0
  9
$USERI5
 70
               0
  9
$USERR1
 40
0.0
  9
$USERR2
 40
0.0
  9
$USERR3
 40
0.0
  9
$USERR4
 40
0.0
  9
$USERR5
 40
0.0
  9
$WORLDVIEW
 70
               1
  9
$SHADEDGE
 70
               3
  9
$SHADEDIF
 70
              70
  9
$TILEMODE
 70
               1
  9
$MAXACTVP
 70
              16
  9
$PINSBASE
 10
0.0
 20
0.0
 30
0.0
  9
$PLIMCHECK
 70
               0
  9
$PEXTMIN
 10
1.0000000000000000E+20
 20
1.0000000000000000E+20
 30
1.0000000000000000E+20
  9
$PEXTMAX
 10
-1.0000000000000000E+20
 20
-1.0000000000000000E+20
 30
-1.0000000000000000E+20
  9
$PLIMMIN
 10
0.0
 20
0.0
  9
$PLIMMAX
 10
12.0
 20
9.0
  9
$UNITMODE
 70
               0
  9
$VISRETAIN
 70
               0
  9
$PLINEGEN
 70
               1
  9
$PSLTSCALE
 70
               0
  9
$TREEDEPTH
 70
            3020
  9
$PICKSTYLE
 70
               1
  9
$CMLSTYLE
  2
Standard
  9
$CMLJUST
 70
               0
  9
$CMLSCALE
 40
1.0
  9
$PROXYGRAPHICS
 70
               0
  9
$MEASUREMENT
 70
               0
  0
ENDSEC
  0
SECTION
  2
CLASSES
  0
CLASS
  1
LWPOLYLINE
  2
AcDbPolyline
  3
"AutoCAD"
 90
        0
280
               0
281
               1
  0
CLASS
  1
IMAGE
  2
AcDbRasterImage
  3
ISM
 90
      127
280
               0
281
               1
  0
CLASS
  1
OLE2FRAME
  2
AcDbOle2Frame
  3
""
 90
        0
280
               0
281
               1
  0
CLASS
  1
HATCH
  2
AcDbHatch
  3
"ACAD_SEDONA"
 90
        0
280
               0
281
               1
  0
CLASS
  1
DICTIONARYVAR
  2
AcDbDictionaryVar
  3
"AutoCAD"
 90
        0
280
               0
281
               0
  0
CLASS
  1
RASTERVARIABLES
  2
AcDbRasterVariables
  3
ISM
 90
        0
280
               0
281
               0
  0
CLASS
  1
IMAGEDEF
  2
AcDbRasterImageDef
  3
ISM
 90
        0
280
               0
281
               0
  0
CLASS
  1
IMAGEDEF_REACTOR
  2
AcDbRasterImageDefReactor
  3
ISM
 90
        1
280
               0
281
               0
  0
CLASS
  1
IDBUFFER
  2
AcDbIdBuffer
  3
"Acad"
 90
        0
280
               0
281
               0
  0
CLASS
  1
SPATIAL_FILTER
  2
AcDbSpatialFilter
  3
"Acad"
 90
        0
280
               0
281
               0
  0
CLASS
  1
XRECORD
  2
AcDbXrecord
  3
"<Built In>"
 90
        0
280
               0
281
               0
  0
CLASS
  1
SORTENTSTABLE
  2
AcDbSortentsTable
  3
"AutoCAD"
 90
        0
280
               0
281
               0
  0
CLASS
  1
LAYER_INDEX
  2
AcDbLayerIndex
  3
"Acad"
 90
        0
280
               0
281
               0
  0
CLASS
  1
SPATIAL_INDEX
  2
AcDbSpatialIndex
  3
"Acad"
 90
        0
280
               0
281
               0
  0
CLASS
  1
OBJECT_PTR
  2
CAseDLPNTableRecord
  3
"ASE-LPNTableRecord"
 90
        1
280
               0
281
               0
  0
CLASS
  1
LAYOUT
  2
AcDbLayout
  3
"AutoCAD 2000"
 90
        0
280
               0
281
               0
  0
CLASS
  1
PLOTSETTINGS
  2
AcDbPlotSettings
  3
"AutoCAD 2000"
 90
        0
280
               0
281
               0
  0
CLASS
  1
ACDBDICTIONARYWDFLT
  2
AcDbDictionaryWithDefault
  3
"AutoCAD 2000"
 90
        0
280
               0
281
               0
  0
CLASS
  1
ACDBPLACEHOLDER
  2
AcDbPlaceHolder
  3
"AutoCAD 2000"
 90
        0
280
               0
281
               0
  0
CLASS
  1
VBA_PROJECT
  2
AcDbVbaProject
  3
"acadvba"
 90
        0
280
               0
281
               0
  0
CLASS
  1
WIPEOUT
  2
AcDbWipeout
  3
WipeOut|AutoCAD Express Tool|expresstools@autodesk.com
 90
      127
280
               0
281
               1
  0
CLASS
  1
WIPEOUTVARIABLES
  2
AcDbWipeoutVariables
  3
WipeOut|AutoCAD Express Tool|expresstools@autodesk.com
 90
        0
280
               0
281
               0
  0
CLASS
  1
RTEXT
  2
RText
  3
RText|AutoCAD Express Tool|expresstools@autodesk.com
 90
        0
280
               0
281
               1
  0
CLASS
  1
ARCALIGNEDTEXT
  2
AcDbArcAlignedText
  3
ATEXT|AutoCAD Express Tool|expresstools@autodesk.com
 90
        0
280
               0
281
               1
  0
ENDSEC
  0
SECTION
  2
TABLES
  0
TABLE
  2
VPORT
  5
7
100
AcDbSymbolTable
 70
               1
  0
VPORT
  5
15
100
AcDbSymbolTableRecord
100
AcDbViewportTableRecord
  2
*ACTIVE
 70
               0
 10
0.0
 20
0.0
 11
1.0
 21
1.0
 12
420.0
 22
297.0
 13
0.0
 23
0.0
 14
10.0
 24
10.0
 15
10.0
 25
10.0
 16
0.0
 26
0.0
 36
1.0
 17
0.0
 27
0.0
 37
0.0
 40
594.0
 41
1.4141414141414141
 42
50.0
 43
0.0
 44
0.0
 50
0.0
 51
0.0
 71
               0
 72
             100
 73
               1
 74
               1
 75
               0
 76
               0
 77
               0
 78
               0
  0
ENDTAB
  0
TABLE
  2
LTYPE
  5
4
100
AcDbSymbolTable
 70
              24
  0
LTYPE
  5
11
100
AcDbSymbolTableRecord
100
AcDbLinetypeTableRecord
  2
ByBlock
 70
              64
  3

 72
              65
 73
               0
 40
0.0
  0
LTYPE
  5
12
100
AcDbSymbolTableRecord
100
AcDbLinetypeTableRecord
  2
ByLayer
 70
              64
  3

 72
              65
 73
               0
 40
0.0
  0
LTYPE
  5
13
100
AcDbSymbolTableRecord
100
AcDbLinetypeTableRecord
  2
Continuous
 70
              64
  3
Solid line
 72
              65
 73
               0
 40
0.0
  0
LTYPE
  5
1D
100
AcDbSymbolTableRecord
100
AcDbLinetypeTableRecord
  2
DOT
 70
              64
  3
Dot . . . . . . . . . . . . . . . . . . . . . .
 72
              65
 73
               2
 40
6.3499999999999996
 49
0.35
 74
               0
 49
-6.0
 74
               0
  0
LTYPE
  5
1E
100
AcDbSymbolTableRecord
100
AcDbLinetypeTableRecord
  2
DASHED
 70
              64
  3
Dashed __ __ __ __ __ __ __ __ __ __ __ __ __ _
 72
              65
 73
               2
 40
12.699999999999999
 49
6.3499999999999996
 74
               0
 49
-6.3499999999999996
 74
               0
  0
LTYPE
  5
1F
100
AcDbSymbolTableRecord
100
AcDbLinetypeTableRecord
  2
DASHDOT
 70
              64
  3
Dash dot __ . __ . __ . __ . __ . __ . __ . __
 72
              65
 73
               4
 40
25.399999999999999
 49
12.699999999999999
 74
               0
 49
-6.0
 74
               0
 49
0.7
 74
               0
 49
-6.0
 74
               0
  0
LTYPE
  5
20
100
AcDbSymbolTableRecord
100
AcDbLinetypeTableRecord
  2
DIVIDE
 70
              64
  3
Divide ____ . . ____ . . ____ . . ____ . . ____
 72
              65
 73
               6
 40
31.75
 49
12.699999999999999
 74
               0
 49
-6.0
 74
               0
 49
0.875
 74
               0
 49
-6.0
 74
               0
 49
0.875
 74
               0
 49
-6.0
 74
               0
  0
LTYPE
  5
21
100
AcDbSymbolTableRecord
100
AcDbLinetypeTableRecord
  2
HIDDEN
 70
              64
  3
Hidden __ __ __ __ __ __ __ __ __ __ __ __ __ _
 72
              65
 73
               2
 40
9.5250000000000004
 49
6.3499999999999996
 74
               0
 49
-3.1749999999999998
 74
               0
  0
LTYPE
  5
22
100
AcDbSymbolTableRecord
100
AcDbLinetypeTableRecord
  2
CENTER
 70
              64
  3
Center ____ _ ____ _ ____ _ ____ _ ____ _ ____
 72
              65
 73
               4
 40
50.799999999999997
 49
31.75
 74
               0
 49
-6.3499999999999996
 74
               0
 49
6.3499999999999996
 74
               0
 49
-6.3499999999999996
 74
               0
  0
LTYPE
  5
23
100
AcDbSymbolTableRecord
100
AcDbLinetypeTableRecord
  2
PHANTOM
 70
              64
  3
Phantom ______  __  __  ______  __  __  ______
 72
              65
 73
               6
 40
63.5
 49
31.75
 74
               0
 49
-6.3499999999999996
 74
               0
 49
6.3499999999999996
 74
               0
 49
-6.3499999999999996
 74
               0
 49
6.3499999999999996
 74
               0
 49
-6.3499999999999996
 74
               0
  0
LTYPE
  5
24
100
AcDbSymbolTableRecord
100
AcDbLinetypeTableRecord
  2
ACAD_ISO02W100
 70
              64
  3
ISO dash __ __ __ __ __ __ __ __ __ __ __ __ __
 72
              65
 73
               2
 40
15.0
 49
12.0
 74
               0
 49
-3.0
 74
               0
  0
LTYPE
  5
25
100
AcDbSymbolTableRecord
100
AcDbLinetypeTableRecord
  2
ACAD_ISO03W100
 70
              64
  3
ISO dash space __ __ __ __ __ __ __ __ __ __ __ __ __ __
 72
              65
 73
               2
 40
30.0
 49
12.0
 74
               0
 49
-18.0
 74
               0
  0
LTYPE
  5
26
100
AcDbSymbolTableRecord
100
AcDbLinetypeTableRecord
  2
ACAD_ISO04W100
 70
              64
  3
ISO long-dash dot ____ . ____ . ____ . ____ . _
 72
              65
 73
               4
 40
30.0
 49
24.0
 74
               0
 49
-3.0
 74
               0
 49
0.0
 74
               0
 49
-3.0
 74
               0
  0
LTYPE
  5
27
100
AcDbSymbolTableRecord
100
AcDbLinetypeTableRecord
  2
ACAD_ISO05W100
 70
              64
  3
ISO long-dash double-dot ____ .. ____ .. ____ .
 72
              65
 73
               6
 40
33.0
 49
24.0
 74
               0
 49
-3.0
 74
               0
 49
0.0
 74
               0
 49
-3.0
 74
               0
 49
0.0
 74
               0
 49
-3.0
 74
               0
  0
LTYPE
  5
28
100
AcDbSymbolTableRecord
100
AcDbLinetypeTableRecord
  2
ACAD_ISO06W100
 70
              64
  3
ISO long-dash triple-dot ____ ... ____ ... ____
 72
              65
 73
               8
 40
36.0
 49
24.0
 74
               0
 49
-3.0
 74
               0
 49
0.0
 74
               0
 49
-3.0
 74
               0
 49
0.0
 74
               0
 49
-3.0
 74
               0
 49
0.0
 74
               0
 49
-3.0
 74
               0
  0
LTYPE
  5
29
100
AcDbSymbolTableRecord
100
AcDbLinetypeTableRecord
  2
ACAD_ISO07W100
 70
              64
  3
ISO dot . . . . . . . . . . . . . . . . . . . .
 72
              65
 73
               2
 40
3.0
 49
0.0
 74
               0
 49
-3.0
 74
               0
  0
LTYPE
  5
2A
100
AcDbSymbolTableRecord
100
AcDbLinetypeTableRecord
  2
ACAD_ISO08W100
 70
              64
  3
ISO long-dash short-dash ____ __ ____ __ ____ _
 72
              65
 73
               4
 40
36.0
 49
24.0
 74
               0
 49
-3.0
 74
               0
 49
6.0
 74
               0
 49
-3.0
 74
               0
  0
LTYPE
  5
2B
100
AcDbSymbolTableRecord
100
AcDbLinetypeTableRecord
  2
ACAD_ISO09W100
 70
              64
  3
ISO long-dash double-short-dash ____ __ __ ____
 72
              65
 73
               6
 40
45.0
 49
24.0
 74
               0
 49
-3.0
 74
               0
 49
6.0
 74
               0
 49
-3.0
 74
               0
 49
6.0
 74
               0
 49
-3.0
 74
               0
  0
LTYPE
  5
2C
100
AcDbSymbolTableRecord
100
AcDbLinetypeTableRecord
  2
ACAD_ISO10W100
 70
              64
  3
ISO dash dot __ . __ . __ . __ . __ . __ . __ .
 72
              65
 73
               4
 40
18.0
 49
12.0
 74
               0
 49
-3.0
 74
               0
 49
0.0
 74
               0
 49
-3.0
 74
               0
  0
LTYPE
  5
2D
100
AcDbSymbolTableRecord
100
AcDbLinetypeTableRecord
  2
ACAD_ISO11W100
 70
              64
  3
ISO double-dash dot __ __ . __ __ . __ __ . __ 
 72
              65
 73
               6
 40
33.0
 49
12.0
 74
               0
 49
-3.0
 74
               0
 49
12.0
 74
               0
 49
-3.0
 74
               0
 49
0.0
 74
               0
 49
-3.0
 74
               0
  0
LTYPE
  5
2E
100
AcDbSymbolTableRecord
100
AcDbLinetypeTableRecord
  2
ACAD_ISO12W100
 70
              64
  3
ISO dash double-dot __ . . __ . . __ . . __ . .
 72
              65
 73
               6
 40
21.0
 49
12.0
 74
               0
 49
-3.0
 74
               0
 49
0.0
 74
               0
 49
-3.0
 74
               0
 49
0.0
 74
               0
 49
-3.0
 74
               0
  0
LTYPE
  5
2F
100
AcDbSymbolTableRecord
100
AcDbLinetypeTableRecord
  2
ACAD_ISO13W100
 70
              64
  3
ISO double-dash double-dot __ __ . . __ __ . . 
 72
              65
 73
               8
 40
36.0
 49
12.0
 74
               0
 49
-3.0
 74
               0
 49
12.0
 74
               0
 49
-3.0
 74
               0
 49
0.0
 74
               0
 49
-3.0
 74
               0
 49
0.0
 74
               0
 49
-3.0
 74
               0
  0
LTYPE
  5
30
100
AcDbSymbolTableRecord
100
AcDbLinetypeTableRecord
  2
ACAD_ISO14W100
 70
              64
  3
ISO dash triple-dot __ . . . __ . . . __ . . . 
 72
              65
 73
               8
 40
24.0
 49
12.0
 74
               0
 49
-3.0
 74
               0
 49
0.0
 74
               0
 49
-3.0
 74
               0
 49
0.0
 74
               0
 49
-3.0
 74
               0
 49
0.0
 74
               0
 49
-3.0
 74
               0
  0
LTYPE
  5
31
100
AcDbSymbolTableRecord
100
AcDbLinetypeTableRecord
  2
ACAD_ISO15W100
 70
              64
  3
ISO double-dash double-dot __ __ . . __ __ . . 
 72
              65
 73
              10
 40
39.0
 49
12.0
 74
               0
 49
-3.0
 74
               0
 49
12.0
 74
               0
 49
-3.0
 74
               0
 49
0.0
 74
               0
 49
-3.0
 74
               0
 49
0.0
 74
               0
 49
-3.0
 74
               0
 49
0.0
 74
               0
 49
-3.0
 74
               0
  0
ENDTAB
  0
TABLE
  2
LAYER
  5
2
100
AcDbSymbolTable
 70
              16
  0
LAYER
  5
14
100
AcDbSymbolTableRecord
100
AcDbLayerTableRecord
  2
0
 70
               0
 62
               7
  6
Continuous
  0
LAYER
  5
35
100
AcDbSymbolTableRecord
100
AcDbLayerTableRecord
  2
Layer00001
 70
               0
 62
               7
  6
Continuous
  0
LAYER
  5
36
100
AcDbSymbolTableRecord
100
AcDbLayerTableRecord
  2
Layer00002
 70
               0
 62
               7
  6
Continuous
  0
LAYER
  5
37
100
AcDbSymbolTableRecord
100
AcDbLayerTableRecord
  2
Layer00003
 70
               0
 62
               7
  6
Continuous
  0
LAYER
  5
38
100
AcDbSymbolTableRecord
100
AcDbLayerTableRecord
  2
Layer00004
 70
               0
 62
               7
  6
Continuous
  0
LAYER
  5
39
100
AcDbSymbolTableRecord
100
AcDbLayerTableRecord
  2
Layer00005
 70
               0
 62
               7
  6
Continuous
  0
LAYER
  5
3A
100
AcDbSymbolTableRecord
100
AcDbLayerTableRecord
  2
Layer00006
 70
               0
 62
               7
  6
Continuous
  0
LAYER
  5
3B
100
AcDbSymbolTableRecord
100
AcDbLayerTableRecord
  2
Layer00007
 70
               0
 62
               7
  6
Continuous
  0
LAYER
  5
3C
100
AcDbSymbolTableRecord
100
AcDbLayerTableRecord
  2
Layer00008
 70
               0
 62
               7
  6
Continuous
  0
LAYER
  5
3D
100
AcDbSymbolTableRecord
100
AcDbLayerTableRecord
  2
Layer00009
 70
               0
 62
               7
  6
Continuous
  0
LAYER
  5
3E
100
AcDbSymbolTableRecord
100
AcDbLayerTableRecord
  2
Layer00010
 70
               0
 62
               7
  6
Continuous
  0
LAYER
  5
3F
100
AcDbSymbolTableRecord
100
AcDbLayerTableRecord
  2
Layer00011
 70
               0
 62
               7
  6
Continuous
  0
LAYER
  5
40
100
AcDbSymbolTableRecord
100
AcDbLayerTableRecord
  2
Layer00012
 70
               0
 62
               7
  6
Continuous
  0
LAYER
  5
41
100
AcDbSymbolTableRecord
100
AcDbLayerTableRecord
  2
Layer00013
 70
               0
 62
               7
  6
Continuous
  0
LAYER
  5
42
100
AcDbSymbolTableRecord
100
AcDbLayerTableRecord
  2
Layer00014
 70
               0
 62
               7
  6
Continuous
  0
LAYER
  5
43
100
AcDbSymbolTableRecord
100
AcDbLayerTableRecord
  2
図枠
 70
               0
 62
               7
  6
Continuous
  0
ENDTAB
  0
TABLE
  2
STYLE
  5
3
100
AcDbSymbolTable
 70
               4
  0
STYLE
  5
17
100
AcDbSymbolTableRecord
100
AcDbTextStyleTableRecord
  2
Standard
 70
               0
 40
0.0
 41
1.0
 50
0.0
 71
               0
 42
0.0
  3
txt.shx
  4
bigfont.shx
  0
STYLE
  5
32
100
AcDbSymbolTableRecord
100
AcDbTextStyleTableRecord
  2
STANDARD_T
 70
               4
 40
0.0
 41
1.0
 50
0.0
 71
               0
 42
0.0
  3
txt.shx
  4
bigfont.shx
  0
STYLE
  5
33
100
AcDbSymbolTableRecord
100
AcDbTextStyleTableRecord
  2
FontTableH_0
 70
               0
 40
0.0
 41
1.0
 50
0.0
 71
               0
 42
0.0
  3
MS Gothic.ttf
  4

1001
ACAD
1000
MS Gothic
1071
    32817
  0
STYLE
  5
34
100
AcDbSymbolTableRecord
100
AcDbTextStyleTableRecord
  2
FontTableV_0
 70
               0
 40
0.0
 41
1.0
 50
0.0
 71
               0
 42
0.0
  3
@MS Gothic.ttf
  4

1001
ACAD
1000
@MS Gothic
1071
    32817
  0
ENDTAB
  0
TABLE
  2
VIEW
  5
5
100
AcDbSymbolTable
 70
               0
  0
ENDTAB
  0
TABLE
  2
UCS
  5
6
100
AcDbSymbolTable
 70
               0
  0
ENDTAB
  0
TABLE
  2
APPID
  5
8
100
AcDbSymbolTable
 70
               1
  0
APPID
  5
16
100
AcDbSymbolTableRecord
100
AcDbRegAppTableRecord
  2
ACAD
 70
               0
  0
ENDTAB
  0
TABLE
  2
DIMSTYLE
  5
9
100
AcDbSymbolTable
 70
               1
  0
DIMSTYLE
105
18
100
AcDbSymbolTableRecord
100
AcDbDimStyleTableRecord
  2
Standard
 70
               0
  3

  4

  5

  6

  7

 40
1.0
 41
0.18
 42
0.0625
 43
0.38
 44
0.18
 45
0.0
 46
0.0
 47
0.0
 48
0.0
 71
               0
 72
               0
 73
               1
 74
               1
 75
               0
 76
               0
 77
               0
 78
               0
140
0.18
141
0.09
142
0.0
143
25.399999999999999
144
1.0
145
0.0
146
1.0
147
0.09
170
               0
171
               2
172
               0
173
               0
174
               0
175
               0
176
               0
177
               0
178
               0
270
               2
271
               4
272
               4
273
               2
274
               2
275
               0
280
               0
281
               0
282
               0
283
               1
284
               0
285
               0
286
               0
287
               0
288
               0
340
17
  0
ENDTAB
  0
TABLE
  2
BLOCK_RECORD
  5
1
100
AcDbSymbolTable
 70
               0
  0
BLOCK_RECORD
  5
A
100
AcDbSymbolTableRecord
100
AcDbBlockTableRecord
  2
*MODEL_SPACE
  0
BLOCK_RECORD
  5
B
100
AcDbSymbolTableRecord
100
AcDbBlockTableRecord
  2
*PAPER_SPACE
  0
ENDTAB
  0
ENDSEC
  0
SECTION
  2
BLOCKS
  0
BLOCK
  5
D
100
AcDbEntity
  8
0
100
AcDbBlockBegin
  2
*MODEL_SPACE
 70
               0
 10
0.0
 20
0.0
 30
0.0
  3
*MODEL_SPACE
  1

  0
ENDBLK
  5
E
100
AcDbEntity
  8
0
100
AcDbBlockEnd
  0
BLOCK
  5
F
100
AcDbEntity
 67
               1
  8
0
100
AcDbBlockBegin
  2
*PAPER_SPACE
 70
               0
 10
0.0
 20
0.0
 30
0.0
  3
*PAPER_SPACE
  1

  0
ENDBLK
  5
10
100
AcDbEntity
 67
               1
  8
0
100
AcDbBlockEnd
  0
ENDSEC
  0
SECTION
  2
ENTITIES
  0
LINE
  5
44
100
AcDbEntity
  8
0
  6
Continuous
 62
               4
100
AcDbLine
 10
421.19459271066779
 20
333.48375792326971
 30
0.0
 11
427.09863075134348
 21
300.00029432085472
 31
0.0
  0
LINE
  5
45
100
AcDbEntity
  8
0
  6
Continuous
 62
               4
100
AcDbLine
 10
630.95864410226864
 20
370.47081976632603
 30
0.0
 11
636.86268214294421
 21
336.98735616391133
 31
0.0
  0
LINE
  5
46
100
AcDbEntity
  8
0
  6
Continuous
 62
               4
100
AcDbLine
 10
426.75133439600961
 20
301.96990982687913
 30
0.0
 11
636.5153857876104
 21
338.95697166993574
 31
0.0
  0
LINE
  5
47
100
AcDbEntity
  8
0
  6
Continuous
 62
               4
100
AcDbLine
 10
419.80540728933221
 20
333.48375792326971
 30
0.0
 11
413.90136924865652
 21
300.00029432085472
 31
0.0
  0
LINE
  5
48
100
AcDbEntity
  8
0
  6
Continuous
 62
               4
100
AcDbLine
 10
210.04135589773136
 20
370.47081976632603
 30
0.0
 11
204.13731785705579
 21
336.98735616391133
 31
0.0
  0
LINE
  5
49
100
AcDbEntity
  8
0
  6
Continuous
 62
               4
100
AcDbLine
 10
414.24866560399039
 20
301.96990982687913
 30
0.0
 11
204.4846142123896
 21
338.95697166993574
 31
0.0
  0
LINE
  5
4A
100
AcDbEntity
  8
0
  6
Continuous
 62
               4
100
AcDbLine
 10
527.21615063544743
 20
423.25808195415573
 30
0.0
 11
525.47966885877815
 21
433.10615948427795
 31
0.0
  0
LINE
  5
4B
100
AcDbEntity
  8
0
  6
Continuous
 62
               4
100
AcDbLine
 10
419.80540728933232
 20
341.36221994736735
 30
0.0
 11
407.30273849731327
 21
412.2683781642462
 31
0.0
  0
LINE
  5
4C
100
AcDbEntity
  8
0
  6
Continuous
 62
               4
100
AcDbLine
 10
525.82696521411196
 20
431.13654397825354
 30
0.0
 11
407.65003485264714
 21
410.29876265822179
 31
0.0
  0
LINE
  5
4D
100
AcDbEntity
  8
0
  6
Continuous
 62
               4
100
AcDbLine
 10
313.78384936455257
 20
423.25808195415573
 30
0.0
 11
317.60410927322494
 21
444.92385252042362
 31
0.0
  0
LINE
  5
4E
100
AcDbEntity
  8
0
  6
Continuous
 62
               4
100
AcDbLine
 10
421.19459271066779
 20
341.36221994736735
 30
0.0
 11
435.78103963468988
 21
424.08607120039187
 31
0.0
  0
LINE
  5
4F
100
AcDbEntity
  8
0
  6
Continuous
 62
               4
100
AcDbLine
 10
317.25681291789107
 20
442.95423701439921
 30
0.0
 11
435.43374327935601
 21
422.11645569436746
 31
0.0
  0
LINE
  5
50
100
AcDbEntity
  8
0
  6
Continuous
 62
               4
100
AcDbLine
 10
324.13051475800091
 20
354.4155293004693
 30
0.0
 11
339.24248384174888
 21
380.59022755593065
 31
0.0
  0
LINE
  5
51
100
AcDbEntity
  8
0
  6
Continuous
 62
               4
100
AcDbLine
 10
324.13051475800091
 20
354.4155293004693
 30
0.0
 11
326.18263561795493
 21
360.05368502518473
 31
0.0
  0
LINE
  5
52
100
AcDbEntity
  8
0
  6
Continuous
 62
               4
100
AcDbLine
 10
324.13051475800091
 20
354.4155293004693
 30
0.0
 11
327.98724041612019
 21
359.01179595918313
 31
0.0
  0
LINE
  5
53
100
AcDbEntity
  8
0
  6
Continuous
 62
               4
100
AcDbLine
 10
192.04436245991295
 20
354.38541387522162
 30
0.0
 11
164.92714709259093
 21
307.41701909923228
 31
0.0
  0
LINE
  5
54
100
AcDbEntity
  8
0
  6
Continuous
 62
               4
100
AcDbLine
 10
192.04436245991295
 20
354.38541387522162
 30
0.0
 11
189.99224159995893
 21
348.74725815050618
 31
0.0
  0
LINE
  5
55
100
AcDbEntity
  8
0
  6
Continuous
 62
               4
100
AcDbLine
 10
192.04436245991295
 20
354.38541387522162
 30
0.0
 11
188.1876368017937
 21
349.78914721650773
 31
0.0
  0
LINE
  5
56
100
AcDbEntity
  8
0
  6
Continuous
 62
               4
100
AcDbLine
 10
265.0260935782689
 20
246.41260923607751
 30
0.0
 11
231.31437409305258
 21
188.02219827717326
 31
0.0
  0
LINE
  5
57
100
AcDbEntity
  8
0
  6
Continuous
 62
               4
100
AcDbLine
 10
265.0260935782689
 20
246.41260923607751
 30
0.0
 11
262.97397271831488
 21
240.77445351136208
 31
0.0
  0
LINE
  5
58
100
AcDbEntity
  8
0
  6
Continuous
 62
               4
100
AcDbLine
 10
265.0260935782689
 20
246.41260923607751
 30
0.0
 11
261.16936792014968
 21
241.81634257736368
 31
0.0
  0
LINE
  5
59
100
AcDbEntity
  8
0
  6
Continuous
 62
               4
100
AcDbLine
 10
442.849960657868
 20
182.89217746139593
 30
0.0
 11
466.88670642035271
 21
141.2593125521563
 31
0.0
  0
LINE
  5
5A
100
AcDbEntity
  8
0
  6
Continuous
 62
               4
100
AcDbLine
 10
442.849960657868
 20
182.89217746139593
 30
0.0
 11
446.70668631598721
 21
178.29591080268204
 31
0.0
  0
LINE
  5
5B
100
AcDbEntity
  8
0
  6
Continuous
 62
               4
100
AcDbLine
 10
442.849960657868
 20
182.89217746139593
 30
0.0
 11
444.90208151782201
 21
177.25402173668047
 31
0.0
  0
LINE
  5
5C
100
AcDbEntity
  8
0
  6
Continuous
 62
               4
100
AcDbLine
 10
560.25643218599873
 20
404.04317024213378
 30
0.0
 11
528.00348969015579
 21
459.90690533853171
 31
0.0
  0
LINE
  5
5D
100
AcDbEntity
  8
0
  6
Continuous
 62
               4
100
AcDbLine
 10
560.25643218599873
 20
404.04317024213378
 30
0.0
 11
556.39970652787952
 21
408.63943690084767
 31
0.0
  0
LINE
  5
5E
100
AcDbEntity
  8
0
  6
Continuous
 62
               4
100
AcDbLine
 10
560.25643218599873
 20
404.04317024213378
 30
0.0
 11
558.20431132604472
 21
409.68132596684922
 31
0.0
  0
LINE
  5
5F
100
AcDbEntity
  8
0
  6
Continuous
 62
               4
100
AcDbLine
 10
655.61499201036622
 20
378.88010559580147
 30
0.0
 11
595.53362848110987
 21
482.94407981648828
 31
0.0
  0
LINE
  5
60
100
AcDbEntity
  8
0
  6
Continuous
 62
               4
100
AcDbLine
 10
655.61499201036622
 20
378.88010559580147
 30
0.0
 11
651.75826635224701
 21
383.4763722545153
 31
0.0
  0
LINE
  5
61
100
AcDbEntity
  8
0
  6
Continuous
 62
               4
100
AcDbLine
 10
655.61499201036622
 20
378.88010559580147
 30
0.0
 11
653.56287115041221
 21
384.5182613205169
 31
0.0
  0
LINE
  5
62
100
AcDbEntity
  8
0
  6
Continuous
 62
               4
100
AcDbLine
 10
659.20041055571085
 20
432.25749763478876
 30
0.0
 11
616.64344989591507
 21
505.96831571326481
 31
0.0
  0
LINE
  5
63
100
AcDbEntity
  8
0
  6
Continuous
 62
               4
100
AcDbLine
 10
659.20041055571085
 20
432.25749763478876
 30
0.0
 11
655.34368489759163
 21
436.85376429350265
 31
0.0
  0
LINE
  5
64
100
AcDbEntity
  8
0
  6
Continuous
 62
               4
100
AcDbLine
 10
659.20041055571085
 20
432.25749763478876
 30
0.0
 11
657.14828969575683
 21
437.89565335950419
 31
0.0
  0
LINE
  5
65
100
AcDbEntity
  8
0
  6
Continuous
 62
               4
100
AcDbLine
 10
714.1282938050291
 20
446.35762277503522
 30
0.0
 11
666.96528507409312
 21
528.0463501348313
 31
0.0
  0
LINE
  5
66
100
AcDbEntity
  8
0
  6
Continuous
 62
               4
100
AcDbLine
 10
714.1282938050291
 20
446.35762277503522
 30
0.0
 11
710.27156814690989
 21
450.95388943374911
 31
0.0
  0
LINE
  5
67
100
AcDbEntity
  8
0
  6
Continuous
 62
               4
100
AcDbLine
 10
714.1282938050291
 20
446.35762277503522
 30
0.0
 11
712.07617294507509
 21
451.99577849975066
 31
0.0
  0
LINE
  5
68
100
AcDbEntity
  8
0
  6
Continuous
 62
               4
100
AcDbLine
 10
534.96326475640024
 20
356.59052419996243
 30
0.0
 11
577.67036916732309
 21
282.61964951609485
 31
0.0
  0
LINE
  5
69
100
AcDbEntity
  8
0
  6
Continuous
 62
               4
100
AcDbLine
 10
534.96326475640024
 20
356.59052419996243
 30
0.0
 11
538.81999041451945
 21
351.99425754124854
 31
0.0
  0
LINE
  5
6A
100
AcDbEntity
  8
0
  6
Continuous
 62
               4
100
AcDbLine
 10
534.96326475640024
 20
356.59052419996243
 30
0.0
 11
537.01538561635425
 21
350.952368475247
 31
0.0
  0
LINE
  5
6B
100
AcDbEntity
  8
0
  6
Continuous
 62
               4
100
AcDbLine
 10
497.09240846232842
 20
341.78945755769837
 30
0.0
 11
545.73491701017952
 21
257.53816134521742
 31
0.0
  0
LINE
  5
6C
100
AcDbEntity
  8
0
  6
Continuous
 62
               4
100
AcDbLine
 10
497.09240846232842
 20
341.78945755769837
 30
0.0
 11
500.9491341204477
 21
337.19319089898454
 31
0.0
  0
LINE
  5
6D
100
AcDbEntity
  8
0
  6
Continuous
 62
               4
100
AcDbLine
 10
497.09240846232842
 20
341.78945755769837
 30
0.0
 11
499.14452932228244
 21
336.15130183298294
 31
0.0
  0
LINE
  5
6E
100
AcDbEntity
  8
0
  6
Continuous
 62
               4
100
AcDbLine
 10
488.64129729175664
 20
299.17708194389826
 30
0.0
 11
527.65949114038654
 21
231.5955877785
 31
0.0
  0
LINE
  5
6F
100
AcDbEntity
  8
0
  6
Continuous
 62
               4
100
AcDbLine
 10
488.64129729175664
 20
299.17708194389826
 30
0.0
 11
492.49802294987586
 21
294.58081528518443
 31
0.0
  0
LINE
  5
70
100
AcDbEntity
  8
0
  6
Continuous
 62
               4
100
AcDbLine
 10
488.64129729175664
 20
299.17708194389826
 30
0.0
 11
490.69341815171066
 21
293.53892621918277
 31
0.0
  0
LINE
  5
71
100
AcDbEntity
  8
0
  6
Continuous
 62
               4
100
AcDbLine
 10
2077.5
 20
1892.5
 30
0.0
 11
77.5
 21
1892.5
 31
0.0
  0
LINE
  5
72
100
AcDbEntity
  8
0
  6
Continuous
 62
               4
100
AcDbLine
 10
2077.5
 20
1892.5
 30
0.0
 11
2077.5
 21
2892.5
 31
0.0
  0
LINE
  5
73
100
AcDbEntity
  8
0
  6
Continuous
 62
               3
100
AcDbLine
 10
480.50000000000006
 20
167.07701106468141
 30
0.0
 11
360.50000000000006
 21
167.07701106468141
 31
0.0
  0
LINE
  5
74
100
AcDbEntity
  8
0
  6
Continuous
 62
               3
100
AcDbLine
 10
480.50000000000006
 20
287.07701106468141
 30
0.0
 11
480.50000000000006
 21
167.07701106468141
 31
0.0
  0
LINE
  5
75
100
AcDbEntity
  8
0
  6
Continuous
 62
               3
100
AcDbLine
 10
360.50000000000006
 20
287.07701106468141
 30
0.0
 11
360.50000000000006
 21
167.07701106468141
 31
0.0
  0
LINE
  5
76
100
AcDbEntity
  8
0
  6
Continuous
 62
               7
100
AcDbLine
 10
360.50000000000006
 20
167.07701106468141
 30
0.0
 11
480.50000000000006
 21
287.07701106468141
 31
0.0
  0
LINE
  5
77
100
AcDbEntity
  8
0
  6
Continuous
 62
               7
100
AcDbLine
 10
360.50000000000006
 20
287.07701106468141
 30
0.0
 11
480.50000000000006
 21
167.07701106468141
 31
0.0
  0
LINE
  5
78
100
AcDbEntity
  8
0
  6
Continuous
 62
               3
100
AcDbLine
 10
420.5
 20
276.49739222217346
 30
0.0
 11
420.49999999999994
 21
334.37670909966101
 31
0.0
  0
LINE
  5
79
100
AcDbEntity
  8
0
  6
Continuous
 62
               2
100
AcDbLine
 10
220.75767431618078
 20
373.65837675471903
 30
0.0
 11
210.909596786066
 21
375.39485853138694
 31
0.0
  0
LINE
  5
7A
100
AcDbEntity
  8
0
  6
Continuous
 62
               2
100
AcDbLine
 10
244.2194122108142
 20
368.50601273769917
 30
0.0
 11
210.73594860839921
 21
374.41005077837485
 31
0.0
  0
LINE
  5
7B
100
AcDbEntity
  8
0
  6
Continuous
 62
               2
100
AcDbLine
 10
254.06748974093648
 20
366.76953096102966
 30
0.0
 11
246.18902771683724
 21
368.15871638236558
 31
0.0
  0
LINE
  5
7C
100
AcDbEntity
  8
0
  6
Continuous
 62
               2
100
AcDbLine
 10
420.5
 20
337.42298893531847
 30
0.0
 11
256.03710524696066
 21
366.42223460569619
 31
0.0
  0
LINE
  5
7D
100
AcDbEntity
  8
0
  6
Continuous
 62
               2
100
AcDbLine
 10
596.78058778918557
 20
368.50601273769917
 30
0.0
 11
630.26405139160079
 21
374.41005077837485
 31
0.0
  0
LINE
  5
7E
100
AcDbEntity
  8
0
  6
Continuous
 62
               2
100
AcDbLine
 10
586.93251025906329
 20
366.76953096102966
 30
0.0
 11
594.81097228316276
 21
368.15871638236558
 31
0.0
  0
LINE
  5
7F
100
AcDbEntity
  8
0
  6
Continuous
 62
               2
100
AcDbLine
 10
420.5
 20
337.42298893531847
 30
0.0
 11
584.96289475303956
 21
366.42223460569619
 31
0.0
  0
LINE
  5
80
100
AcDbEntity
  8
0
  6
Continuous
 62
               2
100
AcDbLine
 10
220.93132249384772
 20
374.64318450773129
 30
0.0
 11
211.08324496373294
 21
376.37966628439921
 31
0.0
  0
LINE
  5
81
100
AcDbEntity
  8
0
  6
Continuous
 62
               2
100
AcDbLine
 10
208.30246988236337
 20
377.88541857041218
 30
0.0
 11
221.10497067151462
 21
375.6279922607435
 31
0.0
  0
LINE
  5
82
100
AcDbEntity
  8
0
  6
Continuous
 62
               2
100
AcDbLine
 10
203.9673813227302
 20
375.60353181157888
 30
0.0
 11
176.26767725297194
 21
380.48773699671767
 31
0.0
  0
LINE
  5
83
100
AcDbEntity
  8
0
  6
Continuous
 62
               7
100
AcDbLine
 10
203.17812675559091
 20
375.77704290641708
 30
0.0
 11
192.83764534896267
 21
377.60034877191953
 31
0.0
  0
LINE
  5
84
100
AcDbEntity
  8
0
  6
Continuous
 62
               7
100
AcDbLine
 10
192.92446943779635
 20
378.09275264842557
 30
0.0
 11
192.83764534896267
 21
377.60034877191953
 31
0.0
  0
LINE
  5
85
100
AcDbEntity
  8
0
  6
Continuous
 62
               7
100
AcDbLine
 10
202.85937105675137
 20
376.84867474826331
 30
0.0
 11
193.50369740313556
 21
378.49833243609874
 31
0.0
  0
LINE
  5
86
100
AcDbEntity
  8
0
  6
Continuous
 62
               7
100
AcDbLine
 10
203.26495084442439
 20
376.26944678292318
 30
0.0
 11
203.17812675559091
 21
375.77704290641708
 31
0.0
  0
LINE
  5
87
100
AcDbEntity
  8
0
  6
Continuous
 62
               7
100
AcDbLine
 10
192.04436245991295
 20
354.38541387522162
 30
0.0
 11
196.03827054625265
 21
377.0359921945024
 31
0.0
  0
LINE
  5
88
100
AcDbEntity
  8
0
  6
Continuous
 62
               7
100
AcDbLine
 10
193.66668161060386
 20
352.06850201386283
 30
0.0
 11
192.04436245991354
 21
354.38541387522105
 31
0.0
  0
LINE
  5
89
100
AcDbEntity
  8
0
  6
Continuous
 62
               7
100
AcDbLine
 10
195.98359347196066
 20
353.69082116455269
 30
0.0
 11
193.66668161060386
 21
352.06850201386283
 31
0.0
  0
LINE
  5
8A
100
AcDbEntity
  8
0
  6
Continuous
 62
               7
100
AcDbLine
 10
195.98359347196066
 20
353.69082116455269
 30
0.0
 11
199.97750155830101
 21
376.34139948383466
 31
0.0
  0
LINE
  5
8B
100
AcDbEntity
  8
0
  6
DASHED
 62
               6
100
AcDbLine
 10
144.75382915658176
 20
384.01362545828766
 30
0.0
 11
164.62363239449286
 21
381.52546965796125
 31
0.0
  0
LINE
  5
8C
100
AcDbEntity
  8
0
  6
DASHED
 62
               6
100
AcDbLine
 10
164.44998421682598
 20
380.54066190494905
 30
0.0
 11
420.50000000000006
 21
335.39213571154687
 31
0.0
  0
LINE
  5
8D
100
AcDbEntity
  8
0
  6
DASHED
 62
               6
100
AcDbLine
 10
420.49999999999994
 20
336.40756232343261
 30
0.0
 11
164.62363239449292
 21
381.52546965796125
 31
0.0
  0
LINE
  5
8E
100
AcDbEntity
  8
0
  6
Continuous
 62
               2
100
AcDbLine
 10
620.24232568381922
 20
373.65837675471903
 30
0.0
 11
630.090403213934
 21
375.39485853138694
 31
0.0
  0
LINE
  5
8F
100
AcDbEntity
  8
0
  6
Continuous
 62
               2
100
AcDbLine
 10
620.06867750615231
 20
374.64318450773129
 30
0.0
 11
629.91675503626709
 21
376.37966628439921
 31
0.0
  0
LINE
  5
90
100
AcDbEntity
  8
0
  6
Continuous
 62
               2
100
AcDbLine
 10
632.69753011763669
 20
377.88541857041218
 30
0.0
 11
619.89502932848541
 21
375.6279922607435
 31
0.0
  0
LINE
  5
91
100
AcDbEntity
  8
0
  6
Continuous
 62
               2
100
AcDbLine
 10
637.03261867726974
 20
375.60353181157888
 30
0.0
 11
664.73232274702809
 21
380.48773699671767
 31
0.0
  0
LINE
  5
92
100
AcDbEntity
  8
0
  6
Continuous
 62
               7
100
AcDbLine
 10
637.82187324440906
 20
375.77704290641708
 30
0.0
 11
648.16235465103728
 21
377.60034877191953
 31
0.0
  0
LINE
  5
93
100
AcDbEntity
  8
0
  6
Continuous
 62
               7
100
AcDbLine
 10
648.07553056220365
 20
378.09275264842557
 30
0.0
 11
648.16235465103728
 21
377.60034877191953
 31
0.0
  0
LINE
  5
94
100
AcDbEntity
  8
0
  6
Continuous
 62
               7
100
AcDbLine
 10
638.14062894324866
 20
376.84867474826331
 30
0.0
 11
647.49630259686444
 21
378.49833243609874
 31
0.0
  0
LINE
  5
95
100
AcDbEntity
  8
0
  6
Continuous
 62
               7
100
AcDbLine
 10
637.73504915557555
 20
376.26944678292318
 30
0.0
 11
637.82187324440906
 21
375.77704290641708
 31
0.0
  0
LINE
  5
96
100
AcDbEntity
  8
0
  6
Continuous
 62
               7
100
AcDbLine
 10
648.95563754008708
 20
354.38541387522162
 30
0.0
 11
644.96172945374735
 21
377.0359921945024
 31
0.0
  0
LINE
  5
97
100
AcDbEntity
  8
0
  6
Continuous
 62
               7
100
AcDbLine
 10
647.33331838939614
 20
352.06850201386283
 30
0.0
 11
648.9556375400864
 21
354.38541387522105
 31
0.0
  0
LINE
  5
98
100
AcDbEntity
  8
0
  6
Continuous
 62
               7
100
AcDbLine
 10
645.0164065280394
 20
353.69082116455269
 30
0.0
 11
647.33331838939614
 21
352.06850201386283
 31
0.0
  0
LINE
  5
99
100
AcDbEntity
  8
0
  6
Continuous
 62
               7
100
AcDbLine
 10
645.0164065280394
 20
353.69082116455269
 30
0.0
 11
641.02249844169899
 21
376.34139948383466
 31
0.0
  0
LINE
  5
9A
100
AcDbEntity
  8
0
  6
DASHED
 62
               6
100
AcDbLine
 10
696.24617084341821
 20
384.01362545828766
 30
0.0
 11
676.37636760550708
 21
381.52546965796125
 31
0.0
  0
LINE
  5
9B
100
AcDbEntity
  8
0
  6
DASHED
 62
               6
100
AcDbLine
 10
676.55001578317399
 20
380.54066190494905
 30
0.0
 11
420.49999999999994
 21
335.39213571154687
 31
0.0
  0
LINE
  5
9C
100
AcDbEntity
  8
0
  6
DASHED
 62
               6
100
AcDbLine
 10
420.50000000000006
 20
336.40756232343261
 30
0.0
 11
676.37636760550708
 21
381.52546965796125
 31
0.0
  0
LINE
  5
9D
100
AcDbEntity
  8
0
  6
Continuous
 62
               2
100
AcDbLine
 10
527.91074334611517
 20
419.31885094210691
 30
0.0
 11
537.98233765079726
 21
362.20000126739887
 31
0.0
  0
LINE
  5
9E
100
AcDbEntity
  8
0
  6
DASHED
 62
               6
100
AcDbLine
 10
569.36339987813449
 20
414.57997290295373
 30
0.0
 11
553.14020837122848
 21
391.41085428937072
 31
0.0
  0
LINE
  5
9F
100
AcDbEntity
  8
0
  6
DASHED
 62
               6
100
AcDbLine
 10
568.8722486622587
 20
417.36542986423365
 30
0.0
 11
552.64905715535269
 21
394.19631125065081
 31
0.0
  0
LINE
  5
A0
100
AcDbEntity
  8
0
  6
DASHED
 62
               6
100
AcDbLine
 10
569.85455109401028
 20
411.79451594167352
 30
0.0
 11
553.63135958710427
 21
388.6253973280908
 31
0.0
  0
LINE
  5
A1
100
AcDbEntity
  8
0
  6
DASHED
 62
               6
100
AcDbLine
 10
570.34570230988606
 20
409.00905898039332
 30
0.0
 11
554.12251080298017
 21
385.83994036681048
 31
0.0
  0
LINE
  5
A2
100
AcDbEntity
  8
0
  6
DASHED
 62
               6
100
AcDbLine
 10
568.38109744638291
 20
420.15088682551385
 30
0.0
 11
552.1579059394769
 21
396.9817682119309
 31
0.0
  0
LINE
  5
A3
100
AcDbEntity
  8
0
  6
DASHED
 62
               6
100
AcDbLine
 10
567.88994623050689
 20
422.93634378679383
 30
0.0
 11
551.666754723601
 21
399.76722517321099
 31
0.0
  0
LINE
  5
A4
100
AcDbEntity
  8
0
  6
DASHED
 62
               6
100
AcDbLine
 10
567.47670164427041
 20
425.27997029577205
 30
0.0
 11
547.7805465840263
 21
421.80700674243343
 31
0.0
  0
LINE
  5
A5
100
AcDbEntity
  8
0
  6
DASHED
 62
               6
100
AcDbLine
 10
558.6785003081286
 20
423.72861001850498
 30
0.0
 11
549.70214986009762
 21
410.90905301833112
 31
0.0
  0
LINE
  5
A6
100
AcDbEntity
  8
0
  6
DASHED
 62
               6
100
AcDbLine
 10
555.89304334684846
 20
423.23745880262908
 30
0.0
 11
549.21099864422172
 21
413.69450997961133
 31
0.0
  0
LINE
  5
A7
100
AcDbEntity
  8
0
  6
DASHED
 62
               6
100
AcDbLine
 10
553.10758638556831
 20
422.74630758675318
 30
0.0
 11
548.71984742834582
 21
416.47996694089142
 31
0.0
  0
LINE
  5
A8
100
AcDbEntity
  8
0
  6
DASHED
 62
               6
100
AcDbLine
 10
550.32212942428828
 20
422.25515637087722
 30
0.0
 11
548.22869621247003
 21
419.26542390217151
 31
0.0
  0
LINE
  5
A9
100
AcDbEntity
  8
0
  6
DASHED
 62
               6
100
AcDbLine
 10
561.46395726940864
 20
424.21976123438083
 30
0.0
 11
550.19330107597341
 21
408.1235960570512
 31
0.0
  0
LINE
  5
AA
100
AcDbEntity
  8
0
  6
DASHED
 62
               6
100
AcDbLine
 10
567.03487119196848
 20
425.20206366613263
 30
0.0
 11
551.1756035077251
 21
402.55268213449102
 31
0.0
  0
LINE
  5
AB
100
AcDbEntity
  8
0
  6
DASHED
 62
               6
100
AcDbLine
 10
564.24941423068867
 20
424.71091245025679
 30
0.0
 11
550.68445229184931
 21
405.338139095771
 31
0.0
  0
LINE
  5
AC
100
AcDbEntity
  8
0
  6
DASHED
 62
               6
100
AcDbLine
 10
558.19943724404106
 20
362.71854156170087
 30
0.0
 11
547.7805465840263
 21
421.80700674243343
 31
0.0
  0
LINE
  5
AD
100
AcDbEntity
  8
0
  6
DASHED
 62
               6
100
AcDbLine
 10
577.8955923042854
 20
366.19150511503955
 30
0.0
 11
558.19943724404106
 21
362.71854156170087
 31
0.0
  0
LINE
  5
AE
100
AcDbEntity
  8
0
  6
DASHED
 62
               6
100
AcDbLine
 10
577.8955923042854
 20
366.19150511503955
 30
0.0
 11
567.47670164427041
 21
425.27997029577205
 31
0.0
  0
LINE
  5
AF
100
AcDbEntity
  8
0
  6
DASHED
 62
               6
100
AcDbLine
 10
570.83685352576185
 20
406.2236020191134
 30
0.0
 11
554.61366201885608
 21
383.0544834055305
 31
0.0
  0
LINE
  5
B0
100
AcDbEntity
  8
0
  6
DASHED
 62
               6
100
AcDbLine
 10
555.59596445060777
 20
377.48356948297038
 30
0.0
 11
571.81915595751366
 21
400.65268809655322
 31
0.0
  0
LINE
  5
B1
100
AcDbEntity
  8
0
  6
DASHED
 62
               6
100
AcDbLine
 10
555.10481323473186
 20
380.26902644425047
 30
0.0
 11
571.32800474163787
 21
403.4381450578332
 31
0.0
  0
LINE
  5
B2
100
AcDbEntity
  8
0
  6
DASHED
 62
               6
100
AcDbLine
 10
556.08711566648356
 20
374.69811252169029
 30
0.0
 11
572.31030717338945
 21
397.86723113527319
 31
0.0
  0
LINE
  5
B3
100
AcDbEntity
  8
0
  6
DASHED
 62
               6
100
AcDbLine
 10
556.57826688235957
 20
371.91265556040992
 30
0.0
 11
572.80145838926524
 21
395.0817741739931
 31
0.0
  0
LINE
  5
B4
100
AcDbEntity
  8
0
  6
DASHED
 62
               6
100
AcDbLine
 10
557.06941809823536
 20
369.12719859912943
 30
0.0
 11
573.29260960514102
 21
392.29631721271301
 31
0.0
  0
LINE
  5
B5
100
AcDbEntity
  8
0
  6
DASHED
 62
               6
100
AcDbLine
 10
557.56056931411104
 20
366.34174163785019
 30
0.0
 11
573.78376082101681
 21
389.51086025143286
 31
0.0
  0
LINE
  5
B6
100
AcDbEntity
  8
0
  6
DASHED
 62
               6
100
AcDbLine
 10
558.05172052998682
 20
363.55628467657067
 30
0.0
 11
574.27491203689283
 21
386.72540329015288
 31
0.0
  0
LINE
  5
B7
100
AcDbEntity
  8
0
  6
DASHED
 62
               6
100
AcDbLine
 10
560.14715109045198
 20
363.06197606352259
 30
0.0
 11
574.76606325276862
 21
383.93994632887296
 31
0.0
  0
LINE
  5
B8
100
AcDbEntity
  8
0
  6
DASHED
 62
               6
100
AcDbLine
 10
565.71806501301205
 20
364.04427849527434
 30
0.0
 11
575.74836568452042
 21
378.36903240631278
 31
0.0
  0
LINE
  5
B9
100
AcDbEntity
  8
0
  6
DASHED
 62
               6
100
AcDbLine
 10
562.93260805173202
 20
363.5531272793985
 30
0.0
 11
575.25721446864463
 21
381.15448936759276
 31
0.0
  0
LINE
  5
BA
100
AcDbEntity
  8
0
  6
DASHED
 62
               6
100
AcDbLine
 10
568.5035219742922
 20
364.53542971115024
 30
0.0
 11
576.23951690039621
 21
375.58357544503275
 31
0.0
  0
LINE
  5
BB
100
AcDbEntity
  8
0
  6
DASHED
 62
               6
100
AcDbLine
 10
571.28897893557223
 20
365.02658092702615
 30
0.0
 11
576.730668116272
 21
372.79811848375266
 31
0.0
  0
LINE
  5
BC
100
AcDbEntity
  8
0
  6
DASHED
 62
               6
100
AcDbLine
 10
574.07443589685226
 20
365.51773214290205
 30
0.0
 11
577.22181933214779
 21
370.01266152247257
 31
0.0
  0
LINE
  5
BD
100
AcDbEntity
  8
0
  6
DASHED
 62
               6
100
AcDbLine
 10
576.85989285813218
 20
366.00888335877789
 30
0.0
 11
577.71297054802358
 21
367.22720456119242
 31
0.0
  0
LINE
  5
BE
100
AcDbEntity
  8
0
  6
Continuous
 62
               3
100
AcDbLine
 10
795.5
 20
251.23161491813124
 30
0.0
 11
480.50000000000006
 21
195.68861599496435
 31
0.0
  0
LINE
  5
BF
100
AcDbEntity
  8
0
  6
Continuous
 62
               3
100
AcDbLine
 10
795.5
 20
400.49932686533589
 30
0.0
 11
420.5
 21
334.37670909966101
 31
0.0
  0
LINE
  5
C0
100
AcDbEntity
  8
0
  6
Continuous
 62
               3
100
AcDbLine
 10
795.5
 20
388.31420752270702
 30
0.0
 11
420.5
 21
322.19158975703203
 31
0.0
  0
LINE
  5
C1
100
AcDbEntity
  8
0
  6
Continuous
 62
               7
100
AcDbLine
 10
795.5
 20
390.34506074647834
 30
0.0
 11
420.5
 21
324.22244298080352
 31
0.0
  0
LINE
  5
C2
100
AcDbEntity
  8
0
  6
Continuous
 62
               7
100
AcDbLine
 10
795.5
 20
392.37591397024983
 30
0.0
 11
420.5
 21
326.25329620457484
 31
0.0
  0
LINE
  5
C3
100
AcDbEntity
  8
0
  6
Continuous
 62
               7
100
AcDbLine
 10
795.5
 20
394.40676719402137
 30
0.0
 11
420.5
 21
328.28414942834638
 31
0.0
  0
LINE
  5
C4
100
AcDbEntity
  8
0
  6
Continuous
 62
               7
100
AcDbLine
 10
795.5
 20
396.43762041779286
 30
0.0
 11
420.5
 21
330.31500265211787
 31
0.0
  0
LINE
  5
C5
100
AcDbEntity
  8
0
  6
Continuous
 62
               7
100
AcDbLine
 10
795.5
 20
398.46847364156423
 30
0.0
 11
420.5
 21
332.34585587588953
 31
0.0
  0
LINE
  5
C6
100
AcDbEntity
  8
0
  6
Continuous
 62
               3
100
AcDbLine
 10
795.5
 20
342.62000998784833
 30
0.0
 11
420.5
 21
276.49739222217346
 31
0.0
  0
LINE
  5
C7
100
AcDbEntity
  8
0
  6
DASHED
 62
               6
100
AcDbLine
 10
795.5
 20
401.51475347722163
 30
0.0
 11
696.24617084341821
 21
384.01362545828766
 31
0.0
  0
LINE
  5
C8
100
AcDbEntity
  8
0
  6
Continuous
 62
               2
100
AcDbLine
 10
795.50000000000011
 20
407.60731314853615
 30
0.0
 11
537.98233765079726
 21
362.20000126739887
 31
0.0
  0
LINE
  5
C9
100
AcDbEntity
  8
0
  6
Continuous
 62
               2
100
AcDbLine
 10
795.50000000000011
 20
451.27065745962318
 30
0.0
 11
530.5154660111192
 21
404.54673464692382
 31
0.0
  0
LINE
  5
CA
100
AcDbEntity
  8
0
  6
Continuous
 62
               2
100
AcDbLine
 10
795.5
 20
466.50205663790928
 30
0.0
 11
527.91074334611517
 21
419.31885094210691
 31
0.0
  0
LINE
  5
CB
100
AcDbEntity
  8
0
  6
Continuous
 62
               3
100
AcDbLine
 10
45.5
 20
251.2316149181313
 30
0.0
 11
360.49999999999994
 21
195.68861599496435
 31
0.0
  0
LINE
  5
CC
100
AcDbEntity
  8
0
  6
Continuous
 62
               3
100
AcDbLine
 10
45.5
 20
400.49932686533595
 30
0.0
 11
420.5
 21
334.37670909966101
 31
0.0
  0
LINE
  5
CD
100
AcDbEntity
  8
0
  6
Continuous
 62
               3
100
AcDbLine
 10
45.5
 20
388.31420752270702
 30
0.0
 11
420.5
 21
322.19158975703203
 31
0.0
  0
LINE
  5
CE
100
AcDbEntity
  8
0
  6
Continuous
 62
               7
100
AcDbLine
 10
45.5
 20
390.3450607464784
 30
0.0
 11
420.5
 21
324.22244298080352
 31
0.0
  0
LINE
  5
CF
100
AcDbEntity
  8
0
  6
Continuous
 62
               7
100
AcDbLine
 10
45.5
 20
392.37591397024983
 30
0.0
 11
420.5
 21
326.25329620457484
 31
0.0
  0
LINE
  5
D0
100
AcDbEntity
  8
0
  6
Continuous
 62
               7
100
AcDbLine
 10
45.5
 20
394.40676719402137
 30
0.0
 11
420.5
 21
328.28414942834638
 31
0.0
  0
LINE
  5
D1
100
AcDbEntity
  8
0
  6
Continuous
 62
               7
100
AcDbLine
 10
45.5
 20
396.43762041779286
 30
0.0
 11
420.5
 21
330.31500265211787
 31
0.0
  0
LINE
  5
D2
100
AcDbEntity
  8
0
  6
Continuous
 62
               7
100
AcDbLine
 10
45.5
 20
398.46847364156423
 30
0.0
 11
420.5
 21
332.34585587588953
 31
0.0
  0
LINE
  5
D3
100
AcDbEntity
  8
0
  6
Continuous
 62
               3
100
AcDbLine
 10
45.5
 20
342.62000998784833
 30
0.0
 11
420.5
 21
276.49739222217346
 31
0.0
  0
LINE
  5
D4
100
AcDbEntity
  8
0
  6
DASHED
 62
               6
100
AcDbLine
 10
45.499999999999993
 20
401.51475347722163
 30
0.0
 11
144.75382915658176
 21
384.01362545828766
 31
0.0
  0
LINE
  5
D5
100
AcDbEntity
  8
0
  6
Continuous
 62
               2
100
AcDbLine
 10
313.08925665388483
 20
419.31885094210691
 30
0.0
 11
303.01766234920274
 21
362.20000126739887
 31
0.0
  0
LINE
  5
D6
100
AcDbEntity
  8
0
  6
DASHED
 62
               6
100
AcDbLine
 10
271.63660012186551
 20
414.57997290295373
 30
0.0
 11
287.85979162877152
 21
391.41085428937072
 31
0.0
  0
LINE
  5
D7
100
AcDbEntity
  8
0
  6
DASHED
 62
               6
100
AcDbLine
 10
272.1277513377413
 20
417.36542986423365
 30
0.0
 11
288.35094284464731
 21
394.19631125065081
 31
0.0
  0
LINE
  5
D8
100
AcDbEntity
  8
0
  6
DASHED
 62
               6
100
AcDbLine
 10
271.14544890598972
 20
411.79451594167352
 30
0.0
 11
287.36864041289573
 21
388.6253973280908
 31
0.0
  0
LINE
  5
D9
100
AcDbEntity
  8
0
  6
DASHED
 62
               6
100
AcDbLine
 10
270.65429769011394
 20
409.00905898039332
 30
0.0
 11
286.87748919701983
 21
385.83994036681048
 31
0.0
  0
LINE
  5
DA
100
AcDbEntity
  8
0
  6
DASHED
 62
               6
100
AcDbLine
 10
272.61890255361709
 20
420.15088682551385
 30
0.0
 11
288.8420940605231
 21
396.9817682119309
 31
0.0
  0
LINE
  5
DB
100
AcDbEntity
  8
0
  6
DASHED
 62
               6
100
AcDbLine
 10
273.11005376949311
 20
422.93634378679383
 30
0.0
 11
289.333245276399
 21
399.76722517321099
 31
0.0
  0
LINE
  5
DC
100
AcDbEntity
  8
0
  6
DASHED
 62
               6
100
AcDbLine
 10
273.52329835572959
 20
425.27997029577205
 30
0.0
 11
293.2194534159737
 21
421.80700674243343
 31
0.0
  0
LINE
  5
DD
100
AcDbEntity
  8
0
  6
DASHED
 62
               6
100
AcDbLine
 10
282.3214996918714
 20
423.72861001850498
 30
0.0
 11
291.29785013990238
 21
410.90905301833112
 31
0.0
  0
LINE
  5
DE
100
AcDbEntity
  8
0
  6
DASHED
 62
               6
100
AcDbLine
 10
285.10695665315154
 20
423.23745880262908
 30
0.0
 11
291.78900135577828
 21
413.69450997961133
 31
0.0
  0
LINE
  5
DF
100
AcDbEntity
  8
0
  6
DASHED
 62
               6
100
AcDbLine
 10
287.89241361443169
 20
422.74630758675318
 30
0.0
 11
292.28015257165418
 21
416.47996694089142
 31
0.0
  0
LINE
  5
E0
100
AcDbEntity
  8
0
  6
DASHED
 62
               6
100
AcDbLine
 10
290.67787057571172
 20
422.25515637087722
 30
0.0
 11
292.77130378752997
 21
419.26542390217151
 31
0.0
  0
LINE
  5
E1
100
AcDbEntity
  8
0
  6
DASHED
 62
               6
100
AcDbLine
 10
279.53604273059136
 20
424.21976123438083
 30
0.0
 11
290.80669892402659
 21
408.1235960570512
 31
0.0
  0
LINE
  5
E2
100
AcDbEntity
  8
0
  6
DASHED
 62
               6
100
AcDbLine
 10
273.96512880803152
 20
425.20206366613263
 30
0.0
 11
289.8243964922749
 21
402.55268213449102
 31
0.0
  0
LINE
  5
E3
100
AcDbEntity
  8
0
  6
DASHED
 62
               6
100
AcDbLine
 10
276.75058576931133
 20
424.71091245025679
 30
0.0
 11
290.31554770815069
 21
405.338139095771
 31
0.0
  0
LINE
  5
E4
100
AcDbEntity
  8
0
  6
DASHED
 62
               6
100
AcDbLine
 10
282.80056275595894
 20
362.71854156170087
 30
0.0
 11
293.2194534159737
 21
421.80700674243343
 31
0.0
  0
LINE
  5
E5
100
AcDbEntity
  8
0
  6
DASHED
 62
               6
100
AcDbLine
 10
263.1044076957146
 20
366.19150511503955
 30
0.0
 11
282.80056275595894
 21
362.71854156170087
 31
0.0
  0
LINE
  5
E6
100
AcDbEntity
  8
0
  6
DASHED
 62
               6
100
AcDbLine
 10
263.1044076957146
 20
366.19150511503955
 30
0.0
 11
273.52329835572959
 21
425.27997029577205
 31
0.0
  0
LINE
  5
E7
100
AcDbEntity
  8
0
  6
DASHED
 62
               6
100
AcDbLine
 10
270.16314647423815
 20
406.2236020191134
 30
0.0
 11
286.38633798114392
 21
383.0544834055305
 31
0.0
  0
LINE
  5
E8
100
AcDbEntity
  8
0
  6
DASHED
 62
               6
100
AcDbLine
 10
285.40403554939223
 20
377.48356948297038
 30
0.0
 11
269.18084404248634
 21
400.65268809655322
 31
0.0
  0
LINE
  5
E9
100
AcDbEntity
  8
0
  6
DASHED
 62
               6
100
AcDbLine
 10
285.89518676526814
 20
380.26902644425047
 30
0.0
 11
269.67199525836213
 21
403.4381450578332
 31
0.0
  0
LINE
  5
EA
100
AcDbEntity
  8
0
  6
DASHED
 62
               6
100
AcDbLine
 10
284.91288433351644
 20
374.69811252169029
 30
0.0
 11
268.68969282661055
 21
397.86723113527319
 31
0.0
  0
LINE
  5
EB
100
AcDbEntity
  8
0
  6
DASHED
 62
               6
100
AcDbLine
 10
284.42173311764043
 20
371.91265556040992
 30
0.0
 11
268.19854161073476
 21
395.0817741739931
 31
0.0
  0
LINE
  5
EC
100
AcDbEntity
  8
0
  6
DASHED
 62
               6
100
AcDbLine
 10
283.93058190176464
 20
369.12719859912943
 30
0.0
 11
267.70739039485898
 21
392.29631721271301
 31
0.0
  0
LINE
  5
ED
100
AcDbEntity
  8
0
  6
DASHED
 62
               6
100
AcDbLine
 10
283.43943068588896
 20
366.34174163785019
 30
0.0
 11
267.21623917898319
 21
389.51086025143286
 31
0.0
  0
LINE
  5
EE
100
AcDbEntity
  8
0
  6
DASHED
 62
               6
100
AcDbLine
 10
282.94827947001318
 20
363.55628467657067
 30
0.0
 11
266.72508796310717
 21
386.72540329015288
 31
0.0
  0
LINE
  5
EF
100
AcDbEntity
  8
0
  6
DASHED
 62
               6
100
AcDbLine
 10
280.85284890954802
 20
363.06197606352259
 30
0.0
 11
266.23393674723138
 21
383.93994632887296
 31
0.0
  0
LINE
  5
F0
100
AcDbEntity
  8
0
  6
DASHED
 62
               6
100
AcDbLine
 10
275.28193498698795
 20
364.04427849527434
 30
0.0
 11
265.25163431547958
 21
378.36903240631278
 31
0.0
  0
LINE
  5
F1
100
AcDbEntity
  8
0
  6
DASHED
 62
               6
100
AcDbLine
 10
278.06739194826798
 20
363.5531272793985
 30
0.0
 11
265.74278553135537
 21
381.15448936759276
 31
0.0
  0
LINE
  5
F2
100
AcDbEntity
  8
0
  6
DASHED
 62
               6
100
AcDbLine
 10
272.4964780257078
 20
364.53542971115024
 30
0.0
 11
264.76048309960379
 21
375.58357544503275
 31
0.0
  0
LINE
  5
F3
100
AcDbEntity
  8
0
  6
DASHED
 62
               6
100
AcDbLine
 10
269.71102106442777
 20
365.02658092702615
 30
0.0
 11
264.269331883728
 21
372.79811848375266
 31
0.0
  0
LINE
  5
F4
100
AcDbEntity
  8
0
  6
DASHED
 62
               6
100
AcDbLine
 10
266.92556410314774
 20
365.51773214290205
 30
0.0
 11
263.77818066785221
 21
370.01266152247257
 31
0.0
  0
LINE
  5
F5
100
AcDbEntity
  8
0
  6
DASHED
 62
               6
100
AcDbLine
 10
264.14010714186782
 20
366.00888335877789
 30
0.0
 11
263.28702945197642
 21
367.22720456119242
 31
0.0
  0
LINE
  5
F6
100
AcDbEntity
  8
0
  6
Continuous
 62
               2
100
AcDbLine
 10
45.499999999999886
 20
407.60731314853615
 30
0.0
 11
303.01766234920274
 21
362.20000126739887
 31
0.0
  0
LINE
  5
F7
100
AcDbEntity
  8
0
  6
Continuous
 62
               2
100
AcDbLine
 10
45.499999999999886
 20
451.27065745962318
 30
0.0
 11
310.4845339888808
 21
404.54673464692382
 31
0.0
  0
LINE
  5
F8
100
AcDbEntity
  8
0
  6
Continuous
 62
               2
100
AcDbLine
 10
45.5
 20
466.50205663790928
 30
0.0
 11
313.08925665388483
 21
419.31885094210691
 31
0.0
  0
LINE
  5
F9
100
AcDbEntity
  8
0
  6
DASHDOT
 62
               4
100
AcDbLine
 10
420.5
 20
487.42298893531853
 30
0.0
 11
420.5
 21
117.07701106468143
 31
0.0
  0
LINE
  5
FA
100
AcDbEntity
  8
0
  6
Continuous
 62
               7
100
AcDbLine
 10
665.73814043657092
 20
430.42099377545901
 30
0.0
 11
655.3976590299427
 21
428.59768790995656
 31
0.0
  0
LINE
  5
FB
100
AcDbEntity
  8
0
  6
Continuous
 62
               7
100
AcDbLine
 10
655.31083494110942
 20
429.09009178646266
 30
0.0
 11
655.3976590299427
 21
428.59768790995656
 31
0.0
  0
LINE
  5
FC
100
AcDbEntity
  8
0
  6
Continuous
 62
               7
100
AcDbLine
 10
665.65131634773752
 20
430.91339765196494
 30
0.0
 11
665.73814043657092
 21
430.42099377545901
 31
0.0
  0
LINE
  5
FD
100
AcDbEntity
  8
0
  6
Continuous
 62
               7
100
AcDbLine
 10
656.97596507654168
 20
426.84513262601575
 30
0.0
 11
656.62866872120787
 21
428.81474813204017
 31
0.0
  0
LINE
  5
FE
100
AcDbEntity
  8
0
  6
Continuous
 62
               7
100
AcDbLine
 10
664.85442710063933
 20
428.23431804735088
 30
0.0
 11
656.97596507654168
 21
426.84513262601575
 31
0.0
  0
LINE
  5
FF
100
AcDbEntity
  8
0
  6
Continuous
 62
               7
100
AcDbLine
 10
664.85442710063933
 20
428.23431804735088
 30
0.0
 11
664.50713074530563
 21
430.20393355337541
 31
0.0
  0
LINE
  5
100
100
AcDbEntity
  8
0
  6
Continuous
 62
               7
100
AcDbLine
 10
670.40636030857752
 20
362.19511728254736
 30
0.0
 11
658.96103124359217
 21
427.10480392837309
 31
0.0
  0
LINE
  5
101
100
AcDbEntity
  8
0
  6
Continuous
 62
               7
100
AcDbLine
 10
672.72327216993983
 20
360.57279813185284
 30
0.0
 11
670.40636030857752
 21
362.19511728254736
 31
0.0
  0
LINE
  5
102
100
AcDbEntity
  8
0
  6
Continuous
 62
               7
100
AcDbLine
 10
674.345591320626
 20
362.88970999320469
 30
0.0
 11
672.72327216993983
 21
360.57279813185284
 31
0.0
  0
LINE
  5
103
100
AcDbEntity
  8
0
  6
Continuous
 62
               7
100
AcDbLine
 10
674.345591320626
 20
362.88970999320469
 30
0.0
 11
662.88481159461469
 21
427.88702169201707
 31
0.0
  0
LINE
  5
104
100
AcDbEntity
  8
0
  6
Continuous
 62
               7
100
AcDbLine
 10
175.26185956342908
 20
430.42099377545901
 30
0.0
 11
185.6023409700573
 21
428.59768790995656
 31
0.0
  0
LINE
  5
105
100
AcDbEntity
  8
0
  6
Continuous
 62
               7
100
AcDbLine
 10
185.68916505889058
 20
429.09009178646266
 30
0.0
 11
185.6023409700573
 21
428.59768790995656
 31
0.0
  0
LINE
  5
106
100
AcDbEntity
  8
0
  6
Continuous
 62
               7
100
AcDbLine
 10
175.34868365226248
 20
430.91339765196494
 30
0.0
 11
175.26185956342908
 21
430.42099377545901
 31
0.0
  0
LINE
  5
107
100
AcDbEntity
  8
0
  6
Continuous
 62
               7
100
AcDbLine
 10
184.02403492345832
 20
426.84513262601575
 30
0.0
 11
184.37133127879213
 21
428.81474813204017
 31
0.0
  0
LINE
  5
108
100
AcDbEntity
  8
0
  6
Continuous
 62
               7
100
AcDbLine
 10
176.14557289936067
 20
428.23431804735088
 30
0.0
 11
184.02403492345832
 21
426.84513262601575
 31
0.0
  0
LINE
  5
109
100
AcDbEntity
  8
0
  6
Continuous
 62
               7
100
AcDbLine
 10
176.14557289936067
 20
428.23431804735088
 30
0.0
 11
176.49286925469437
 21
430.20393355337541
 31
0.0
  0
LINE
  5
10A
100
AcDbEntity
  8
0
  6
Continuous
 62
               7
100
AcDbLine
 10
170.59363969142248
 20
362.19511728254736
 30
0.0
 11
182.03896875640783
 21
427.10480392837309
 31
0.0
  0
LINE
  5
10B
100
AcDbEntity
  8
0
  6
Continuous
 62
               7
100
AcDbLine
 10
168.27672783006017
 20
360.57279813185284
 30
0.0
 11
170.59363969142248
 21
362.19511728254736
 31
0.0
  0
LINE
  5
10C
100
AcDbEntity
  8
0
  6
Continuous
 62
               7
100
AcDbLine
 10
166.654408679374
 20
362.88970999320469
 30
0.0
 11
168.27672783006017
 21
360.57279813185284
 31
0.0
  0
LINE
  5
10D
100
AcDbEntity
  8
0
  6
Continuous
 62
               7
100
AcDbLine
 10
166.654408679374
 20
362.88970999320469
 30
0.0
 11
178.11518840538531
 21
427.88702169201707
 31
0.0
  0
LINE
  5
10E
100
AcDbEntity
  8
0
  6
Continuous
 62
               4
100
AcDbLine
 10
404.0
 20
36.0
 30
0.0
 11
404.0
 21
20.0
 31
0.0
  0
LINE
  5
10F
100
AcDbEntity
  8
0
  6
Continuous
 62
               4
100
AcDbLine
 10
404.0
 20
20.0
 30
0.0
 11
436.0
 21
20.0
 31
0.0
  0
LINE
  5
110
100
AcDbEntity
  8
0
  6
Continuous
 62
               4
100
AcDbLine
 10
436.0
 20
20.0
 30
0.0
 11
436.0
 21
36.0
 31
0.0
  0
LINE
  5
111
100
AcDbEntity
  8
0
  6
Continuous
 62
               4
100
AcDbLine
 10
436.0
 20
36.0
 30
0.0
 11
404.0
 21
36.0
 31
0.0
  0
CIRCLE
  5
112
100
AcDbEntity
  8
0
  6
Continuous
 62
               4
100
AcDbCircle
 10
426.75133439600961
 20
301.96990982687913
 30
0.0
 40
1.0
  0
CIRCLE
  5
113
100
AcDbEntity
  8
0
  6
Continuous
 62
               4
100
AcDbCircle
 10
636.5153857876104
 20
338.95697166993574
 30
0.0
 40
1.0
  0
CIRCLE
  5
114
100
AcDbEntity
  8
0
  6
Continuous
 62
               4
100
AcDbCircle
 10
414.24866560399039
 20
301.96990982687913
 30
0.0
 40
1.0
  0
CIRCLE
  5
115
100
AcDbEntity
  8
0
  6
Continuous
 62
               4
100
AcDbCircle
 10
204.4846142123896
 20
338.95697166993574
 30
0.0
 40
1.0
  0
CIRCLE
  5
116
100
AcDbEntity
  8
0
  6
Continuous
 62
               4
100
AcDbCircle
 10
525.82696521411196
 20
431.13654397825354
 30
0.0
 40
1.0
  0
CIRCLE
  5
117
100
AcDbEntity
  8
0
  6
Continuous
 62
               4
100
AcDbCircle
 10
407.65003485264714
 20
410.29876265822179
 30
0.0
 40
1.0
  0
CIRCLE
  5
118
100
AcDbEntity
  8
0
  6
Continuous
 62
               4
100
AcDbCircle
 10
317.25681291789107
 20
442.95423701439921
 30
0.0
 40
1.0
  0
CIRCLE
  5
119
100
AcDbEntity
  8
0
  6
Continuous
 62
               4
100
AcDbCircle
 10
435.43374327935601
 20
422.11645569436746
 30
0.0
 40
1.0
  0
ARC
  5
11A
100
AcDbEntity
  8
0
  6
Continuous
 62
               2
100
AcDbCircle
 10
245.20421996382629
 20
368.33236456003237
 30
0.0
 40
0.999999999999906
100
AcDbArc
 50
349.99999999999221
 51
170.00000000000531
  0
ARC
  5
11B
100
AcDbEntity
  8
0
  6
Continuous
 62
               2
100
AcDbCircle
 10
255.05229749394857
 20
366.59588278336287
 30
0.0
 40
0.999999999999906
100
AcDbArc
 50
349.99999999999221
 51
170.00000000000531
  0
ARC
  5
11C
100
AcDbEntity
  8
0
  6
Continuous
 62
               2
100
AcDbCircle
 10
595.79578003617371
 20
368.33236456003237
 30
0.0
 40
0.999999999999906
100
AcDbArc
 50
9.9999999999946745
 51
190.00000000000779
  0
ARC
  5
11D
100
AcDbEntity
  8
0
  6
Continuous
 62
               2
100
AcDbCircle
 10
585.94770250605143
 20
366.59588278336287
 30
0.0
 40
0.999999999999906
100
AcDbArc
 50
9.9999999999946745
 51
190.00000000000779
  0
ARC
  5
11E
100
AcDbEntity
  8
0
  6
Continuous
 62
               2
100
AcDbCircle
 10
210.909596786066
 20
375.39485853138706
 30
0.0
 40
0.9999999999999371
100
AcDbArc
 50
79.999999999999218
 51
260.00000000001467
  0
ARC
  5
11F
100
AcDbEntity
  8
0
  6
Continuous
 62
               2
100
AcDbCircle
 10
220.93132249384769
 20
374.64318450773123
 30
0.0
 40
0.999999999999993
100
AcDbArc
 50
260.00000000000136
 51
80.000000000000369
  0
ARC
  5
120
100
AcDbEntity
  8
0
  6
Continuous
 62
               2
100
AcDbCircle
 10
207.9551735270295
 20
375.91580306438777
 30
0.0
 40
2.0
100
AcDbArc
 50
79.999999999999801
 51
155.52248781406988
  0
ARC
  5
121
100
AcDbEntity
  8
0
  6
Continuous
 62
               2
100
AcDbCircle
 10
204.3146776780641
 20
377.5731473176034
 30
0.0
 40
2.0
100
AcDbArc
 50
259.99999999999955
 51
335.52248781406809
  0
ARC
  5
122
100
AcDbEntity
  8
0
  6
Continuous
 62
               7
100
AcDbCircle
 10
193.41687331430225
 20
378.00592855959218
 30
0.0
 40
0.5
100
AcDbArc
 50
79.999999999999503
 51
169.99999999999952
  0
ARC
  5
123
100
AcDbEntity
  8
0
  6
Continuous
 62
               7
100
AcDbCircle
 10
202.77254696791829
 20
376.35627087175664
 30
0.0
 40
0.5
100
AcDbArc
 50
349.99999999999932
 51
79.999999999999503
  0
ARC
  5
124
100
AcDbEntity
  8
0
  6
Continuous
 62
               2
100
AcDbCircle
 10
630.090403213934
 20
375.39485853138706
 30
0.0
 40
0.9999999999999371
100
AcDbArc
 50
279.99999999998533
 51
100.0000000000008
  0
ARC
  5
125
100
AcDbEntity
  8
0
  6
Continuous
 62
               2
100
AcDbCircle
 10
620.06867750615231
 20
374.64318450773123
 30
0.0
 40
0.999999999999993
100
AcDbArc
 50
99.999999999999687
 51
279.99999999999869
  0
ARC
  5
126
100
AcDbEntity
  8
0
  6
Continuous
 62
               2
100
AcDbCircle
 10
633.0448264729705
 20
375.91580306438777
 30
0.0
 40
2.0
100
AcDbArc
 50
24.477512185930063
 51
100.0000000000002
  0
ARC
  5
127
100
AcDbEntity
  8
0
  6
Continuous
 62
               2
100
AcDbCircle
 10
636.68532232193593
 20
377.5731473176034
 30
0.0
 40
2.0
100
AcDbArc
 50
204.47751218593189
 51
280.00000000000051
  0
ARC
  5
128
100
AcDbEntity
  8
0
  6
Continuous
 62
               7
100
AcDbCircle
 10
647.58312668569772
 20
378.00592855959218
 30
0.0
 40
0.5
100
AcDbArc
 50
10.000000000000519
 51
100.00000000000048
  0
ARC
  5
129
100
AcDbEntity
  8
0
  6
Continuous
 62
               7
100
AcDbCircle
 10
638.22745303208171
 20
376.35627087175664
 30
0.0
 40
0.5
100
AcDbArc
 50
100.00000000000048
 51
190.00000000000068
  0
ARC
  5
12A
100
AcDbEntity
  8
0
  6
Continuous
 62
               7
100
AcDbCircle
 10
661.22125100172855
 20
425.80400167199917
 30
0.0
 40
6.7625000000001956
100
AcDbArc
 50
49.073309876255124
 51
150.92669012373594
  0
ARC
  5
12B
100
AcDbEntity
  8
0
  6
Continuous
 62
               7
100
AcDbCircle
 10
179.77874899827145
 20
425.80400167199917
 30
0.0
 40
6.7625000000001956
100
AcDbArc
 50
29.073309876264116
 51
130.92669012374486
  0
TEXT
  5
12C
100
AcDbEntity
  8
0
 62
               7
100
AcDbText
 10
525.72451357373677
 20
319.42155168240583
 30
0.0
 40
7.999999999999984
  1
213
 50
10.000000000000233
 41
0.7695
  7
FontTableH_0
 72
               5
 11
537.54220660988324
 21
321.50532981440904
 31
0.0
100
AcDbText
  0
TEXT
  5
12D
100
AcDbEntity
  8
0
 62
               7
100
AcDbText
 10
303.45779339011676
 20
321.50532981440904
 30
0.0
 40
8.0000000000000959
  1
213
 50
349.99999999999983
 41
0.7695
  7
FontTableH_0
 72
               5
 11
315.27548642626323
 21
319.42155168240583
 31
0.0
100
AcDbText
  0
TEXT
  5
12E
100
AcDbEntity
  8
0
 62
               7
100
AcDbText
 10
460.82965351530629
 20
419.67576425223609
 30
0.0
 40
7.9999999999998721
  1
120
 50
10.000000000000233
 41
0.7695
  7
FontTableH_0
 72
               5
 11
472.64734655145276
 21
421.7595423842393
 31
0.0
100
AcDbText
  0
TEXT
  5
12F
100
AcDbEntity
  8
0
 62
               7
100
AcDbText
 10
370.43643158055033
 20
433.57723542038497
 30
0.0
 40
7.999999999999984
  1
120
 50
349.99999999999983
 41
0.7695
  7
FontTableH_0
 72
               5
 11
382.2541246166968
 21
431.49345728838176
 31
0.0
100
AcDbText
  0
TEXT
  5
130
100
AcDbEntity
  8
0
 62
               7
100
AcDbText
 10
340.80880515051939
 20
380.59022755593065
 30
0.0
 40
7.9999999999998863
  1
谷どい
 41
0.7695
  7
FontTableH_0
 72
               5
 11
364.80880515051939
 21
380.59022755593065
 31
0.0
100
AcDbText
  0
TEXT
  5
131
100
AcDbEntity
  8
0
 62
               7
100
AcDbText
 10
38.555955834455432
 20
307.41701909923535
 30
0.0
 40
7.9999999999998863
  1
吊子止めカラーステンレスくぎ 25
 41
0.7695
  7
FontTableH_0
 72
               5
 11
162.55595583445543
 21
307.41701909923535
 31
0.0
100
AcDbText
  0
TEXT
  5
132
100
AcDbEntity
  8
0
 62
               7
100
AcDbText
 10
213.23842234539205
 20
188.02219827717326
 30
0.0
 40
8.0
  1
母屋
 41
0.7695
  7
FontTableH_0
 72
               5
 11
229.23842234539205
 21
188.02219827717326
 31
0.0
100
AcDbText
  0
TEXT
  5
133
100
AcDbEntity
  8
0
 62
               7
100
AcDbText
 10
467.82967960341182
 20
141.2593125521563
 30
0.0
 40
8.0
  1
隅木
 41
0.7695
  7
FontTableH_0
 72
               5
 11
483.82967960341182
 21
141.2593125521563
 31
0.0
100
AcDbText
  0
TEXT
  5
134
100
AcDbEntity
  8
0
 62
               7
100
AcDbText
 10
446.19317907843902
 20
459.90690533853166
 30
0.0
 40
7.9999999999998863
  1
谷用軒先ケミカル面戸
 41
0.7695
  7
FontTableH_0
 72
               5
 11
526.19317907843902
 21
459.90690533853166
 31
0.0
100
AcDbText
  0
TEXT
  5
135
100
AcDbEntity
  8
0
 62
               7
100
AcDbText
 10
537.64530596162354
 20
482.94407981648834
 30
0.0
 40
7.9999999999998863
  1
谷どい止め吊子
 41
0.7695
  7
FontTableH_0
 72
               5
 11
593.64530596162354
 21
482.94407981648834
 31
0.0
100
AcDbText
  0
TEXT
  5
136
100
AcDbEntity
  8
0
 62
               7
100
AcDbText
 10
562.46173841624341
 20
505.9683157132647
 30
0.0
 40
8.0
  1
タッピング 70
 41
0.7695
  7
FontTableH_0
 72
               5
 11
614.46173841624341
 21
505.9683157132647
 31
0.0
100
AcDbText
  0
TEXT
  5
137
100
AcDbEntity
  8
0
 62
               7
100
AcDbText
 10
601.87201856931938
 20
528.0463501348313
 30
0.0
 40
8.0
  1
フィンルーフ本体
 41
0.7695
  7
FontTableH_0
 72
               5
 11
665.87201856931938
 21
528.0463501348313
 31
0.0
100
AcDbText
  0
TEXT
  5
138
100
AcDbEntity
  8
0
 62
               7
100
AcDbText
 10
579.09824242862931
 20
282.61964951609485
 30
0.0
 40
8.0
  1
アスファルトルーフィング 22kg（谷部分2重敷き）
 41
0.7695
  7
FontTableH_0
 72
               5
 11
763.09824242862931
 21
282.61964951609485
 31
0.0
100
AcDbText
  0
TEXT
  5
139
100
AcDbEntity
  8
0
 62
               7
100
AcDbText
 10
548.15661312128475
 20
257.53816134521742
 30
0.0
 40
8.0
  1
野地板 12
 41
0.7695
  7
FontTableH_0
 72
               5
 11
584.15661312128475
 21
257.53816134521742
 31
0.0
100
AcDbText
  0
TEXT
  5
13A
100
AcDbEntity
  8
0
 62
               7
100
AcDbText
 10
529.51720102082822
 20
231.5955877785
 30
0.0
 40
8.0
  1
たる木
 41
0.7695
  7
FontTableH_0
 72
               5
 11
553.51720102082822
 21
231.5955877785
 31
0.0
100
AcDbText
  0
TEXT
  5
13B
100
AcDbEntity
  8
図枠
 62
               7
100
AcDbText
 10
408.0
 20
24.0
 30
0.0
 40
8.0
  1
谷仕舞
 41
0.7695
  7
FontTableH_0
 72
               5
 11
432.0
 21
24.0
 31
0.0
100
AcDbText
  0
ENDSEC
  0
SECTION
  2
OBJECTS
  0
DICTIONARY
  5
19
100
AcDbDictionary
  3
ACAD_GROUP
350
1A
  3
ACAD_MLINESTYLE
350
1B
  3
DWGPROPS
350
13C
  0
DICTIONARY
  5
1A
102
{ACAD_REACTORS
330
19
102
}
100
AcDbDictionary
  0
DICTIONARY
  5
1B
102
{ACAD_REACTORS
330
19
102
}
100
AcDbDictionary
  3
STANDARD
350
1C
  0
MLINESTYLE
  5
1C
102
{ACAD_REACTORS
330
1B
102
}
100
AcDbMlineStyle
  2
Standard
 70
               0
  3

 62
               0
 51
90.0
 52
90.0
 71
               2
 49
0.5
 62
             256
  6
ByLayer
 49
-0.5
 62
             256
  6
ByLayer
  0
XRECORD
  5
13C
100
AcDbXrecord
  1
DWGPROPS COOKIE
  2

  3

  4

  6

  7

  0
ENDSEC
  0
EOF
