  0
SECTION
  2
HEADER
  9
$ACADVER
  1
AC1014
  9
$ACADMAINTVER
 70
               0
  9
$DWGCODEPAGE
  3
ANSI_932
  9
$INSBASE
 10
0.0
 20
0.0
 30
0.0
  9
$EXTMIN
 10
0.0
 20
0.0
 30
0.0
  9
$EXTMAX
 10
840.0
 20
594.0
 30
0.0
  9
$LIMMIN
 10
0.0
 20
0.0
  9
$LIMMAX
 10
840.0
 20
594.0
  9
$ORTHOMODE
 70
               0
  9
$REGENMODE
 70
               1
  9
$FILLMODE
 70
               1
  9
$QTEXTMODE
 70
               0
  9
$MIRRTEXT
 70
               1
  9
$DRAGMODE
 70
               2
  9
$LTSCALE
 40
2.0
  9
$OSMODE
 70
               0
  9
$ATTMODE
 70
               1
  9
$TEXTSIZE
 40
0.2
  9
$TRACEWID
 40
0.05
  9
$TEXTSTYLE
  7
Standard
  9
$CLAYER
  8
0
  9
$CELTYPE
  6
Continuous
  9
$CECOLOR
 62
             256
  9
$CELTSCALE
 40
1.0
  9
$DELOBJ
 70
               1
  9
$DISPSILH
 70
               0
  9
$DIMSCALE
 40
1.0
  9
$DIMASZ
 40
0.18
  9
$DIMEXO
 40
0.0625
  9
$DIMDLI
 40
0.38
  9
$DIMRND
 40
0.0
  9
$DIMDLE
 40
0.0
  9
$DIMEXE
 40
0.18
  9
$DIMTP
 40
0.0
  9
$DIMTM
 40
0.0
  9
$DIMTXT
 40
0.18
  9
$DIMCEN
 40
0.09
  9
$DIMTSZ
 40
0.0
  9
$DIMTOL
 70
               0
  9
$DIMLIM
 70
               0
  9
$DIMTIH
 70
               1
  9
$DIMTOH
 70
               1
  9
$DIMSE1
 70
               0
  9
$DIMSE2
 70
               0
  9
$DIMTAD
 70
               0
  9
$DIMZIN
 70
               0
  9
$DIMBLK
  1

  9
$DIMASO
 70
               1
  9
$DIMSHO
 70
               1
  9
$DIMPOST
  1

  9
$DIMAPOST
  1

  9
$DIMALT
 70
               0
  9
$DIMALTD
 70
               2
  9
$DIMALTF
 40
25.399999999999999
  9
$DIMLFAC
 40
1.0
  9
$DIMTOFL
 70
               0
  9
$DIMTVP
 40
0.0
  9
$DIMTIX
 70
               0
  9
$DIMSOXD
 70
               0
  9
$DIMSAH
 70
               0
  9
$DIMBLK1
  1

  9
$DIMBLK2
  1

  9
$DIMSTYLE
  2
Standard
  9
$DIMCLRD
 70
               0
  9
$DIMCLRE
 70
               0
  9
$DIMCLRT
 70
               0
  9
$DIMTFAC
 40
1.0
  9
$DIMGAP
 40
0.09
  9
$DIMJUST
 70
               0
  9
$DIMSD1
 70
               0
  9
$DIMSD2
 70
               0
  9
$DIMTOLJ
 70
               1
  9
$DIMTZIN
 70
               0
  9
$DIMALTZ
 70
               0
  9
$DIMALTTZ
 70
               0
  9
$DIMFIT
 70
               3
  9
$DIMUPT
 70
               0
  9
$DIMUNIT
 70
               2
  9
$DIMDEC
 70
               4
  9
$DIMTDEC
 70
               4
  9
$DIMALTU
 70
               2
  9
$DIMALTTD
 70
               2
  9
$DIMTXSTY
  7
Standard
  9
$DIMAUNIT
 70
               0
  9
$LUNITS
 70
               2
  9
$LUPREC
 70
               4
  9
$SKETCHINC
 40
0.1
  9
$FILLETRAD
 40
0.0
  9
$AUNITS
 70
               0
  9
$AUPREC
 70
               0
  9
$MENU
  1
acad
  9
$ELEVATION
 40
0.0
  9
$PELEVATION
 40
0.0
  9
$THICKNESS
 40
0.0
  9
$LIMCHECK
 70
               0
  9
$BLIPMODE
 70
               1
  9
$CHAMFERA
 40
0.0
  9
$CHAMFERB
 40
0.0
  9
$CHAMFERC
 40
0.0
  9
$CHAMFERD
 40
0.0
  9
$SKPOLY
 70
               0
  9
$TDCREATE
 40
0.000000000
  9
$TDUPDATE
 40
0.000000000
  9
$TDINDWG
 40
0.0000000000
  9
$TDUSRTIMER
 40
0.0000000000
  9
$USRTIMER
 70
               1
  9
$ANGBASE
 50
0.0
  9
$ANGDIR
 70
               0
  9
$PDMODE
 70
               0
  9
$PDSIZE
 40
0.0
  9
$PLINEWID
 40
0.0
  9
$COORDS
 70
               0
  9
$SPLFRAME
 70
               0
  9
$SPLINETYPE
 70
               6
  9
$SPLINESEGS
 70
               8
  9
$ATTDIA
 70
               0
  9
$ATTREQ
 70
               1
  9
$HANDLING
 70
               1
  9
$HANDSEED
  5
21D
  9
$SURFTAB1
 70
               6
  9
$SURFTAB2
 70
               6
  9
$SURFTYPE
 70
               6
  9
$SURFU
 70
               6
  9
$SURFV
 70
               6
  9
$UCSNAME
  2

  9
$UCSORG
 10
0.0
 20
0.0
 30
0.0
  9
$UCSXDIR
 10
1.0
 20
0.0
 30
0.0
  9
$UCSYDIR
 10
0.0
 20
1.0
 30
0.0
  9
$PUCSNAME
  2

  9
$PUCSORG
 10
0.0
 20
0.0
 30
0.0
  9
$PUCSXDIR
 10
1.0
 20
0.0
 30
0.0
  9
$PUCSYDIR
 10
0.0
 20
1.0
 30
0.0
  9
$USERI1
 70
               0
  9
$USERI2
 70
               0
  9
$USERI3
 70
               0
  9
$USERI4
 70
               0
  9
$USERI5
 70
               0
  9
$USERR1
 40
0.0
  9
$USERR2
 40
0.0
  9
$USERR3
 40
0.0
  9
$USERR4
 40
0.0
  9
$USERR5
 40
0.0
  9
$WORLDVIEW
 70
               1
  9
$SHADEDGE
 70
               3
  9
$SHADEDIF
 70
              70
  9
$TILEMODE
 70
               1
  9
$MAXACTVP
 70
              16
  9
$PINSBASE
 10
0.0
 20
0.0
 30
0.0
  9
$PLIMCHECK
 70
               0
  9
$PEXTMIN
 10
1.0000000000000000E+20
 20
1.0000000000000000E+20
 30
1.0000000000000000E+20
  9
$PEXTMAX
 10
-1.0000000000000000E+20
 20
-1.0000000000000000E+20
 30
-1.0000000000000000E+20
  9
$PLIMMIN
 10
0.0
 20
0.0
  9
$PLIMMAX
 10
12.0
 20
9.0
  9
$UNITMODE
 70
               0
  9
$VISRETAIN
 70
               0
  9
$PLINEGEN
 70
               1
  9
$PSLTSCALE
 70
               0
  9
$TREEDEPTH
 70
            3020
  9
$PICKSTYLE
 70
               1
  9
$CMLSTYLE
  2
Standard
  9
$CMLJUST
 70
               0
  9
$CMLSCALE
 40
1.0
  9
$PROXYGRAPHICS
 70
               0
  9
$MEASUREMENT
 70
               0
  0
ENDSEC
  0
SECTION
  2
CLASSES
  0
CLASS
  1
LWPOLYLINE
  2
AcDbPolyline
  3
"AutoCAD"
 90
        0
280
               0
281
               1
  0
CLASS
  1
IMAGE
  2
AcDbRasterImage
  3
ISM
 90
      127
280
               0
281
               1
  0
CLASS
  1
OLE2FRAME
  2
AcDbOle2Frame
  3
""
 90
        0
280
               0
281
               1
  0
CLASS
  1
HATCH
  2
AcDbHatch
  3
"ACAD_SEDONA"
 90
        0
280
               0
281
               1
  0
CLASS
  1
DICTIONARYVAR
  2
AcDbDictionaryVar
  3
"AutoCAD"
 90
        0
280
               0
281
               0
  0
CLASS
  1
RASTERVARIABLES
  2
AcDbRasterVariables
  3
ISM
 90
        0
280
               0
281
               0
  0
CLASS
  1
IMAGEDEF
  2
AcDbRasterImageDef
  3
ISM
 90
        0
280
               0
281
               0
  0
CLASS
  1
IMAGEDEF_REACTOR
  2
AcDbRasterImageDefReactor
  3
ISM
 90
        1
280
               0
281
               0
  0
CLASS
  1
IDBUFFER
  2
AcDbIdBuffer
  3
"Acad"
 90
        0
280
               0
281
               0
  0
CLASS
  1
SPATIAL_FILTER
  2
AcDbSpatialFilter
  3
"Acad"
 90
        0
280
               0
281
               0
  0
CLASS
  1
XRECORD
  2
AcDbXrecord
  3
"<Built In>"
 90
        0
280
               0
281
               0
  0
CLASS
  1
SORTENTSTABLE
  2
AcDbSortentsTable
  3
"AutoCAD"
 90
        0
280
               0
281
               0
  0
CLASS
  1
LAYER_INDEX
  2
AcDbLayerIndex
  3
"Acad"
 90
        0
280
               0
281
               0
  0
CLASS
  1
SPATIAL_INDEX
  2
AcDbSpatialIndex
  3
"Acad"
 90
        0
280
               0
281
               0
  0
CLASS
  1
OBJECT_PTR
  2
CAseDLPNTableRecord
  3
"ASE-LPNTableRecord"
 90
        1
280
               0
281
               0
  0
CLASS
  1
LAYOUT
  2
AcDbLayout
  3
"AutoCAD 2000"
 90
        0
280
               0
281
               0
  0
CLASS
  1
PLOTSETTINGS
  2
AcDbPlotSettings
  3
"AutoCAD 2000"
 90
        0
280
               0
281
               0
  0
CLASS
  1
ACDBDICTIONARYWDFLT
  2
AcDbDictionaryWithDefault
  3
"AutoCAD 2000"
 90
        0
280
               0
281
               0
  0
CLASS
  1
ACDBPLACEHOLDER
  2
AcDbPlaceHolder
  3
"AutoCAD 2000"
 90
        0
280
               0
281
               0
  0
CLASS
  1
VBA_PROJECT
  2
AcDbVbaProject
  3
"acadvba"
 90
        0
280
               0
281
               0
  0
CLASS
  1
WIPEOUT
  2
AcDbWipeout
  3
WipeOut|AutoCAD Express Tool|expresstools@autodesk.com
 90
      127
280
               0
281
               1
  0
CLASS
  1
WIPEOUTVARIABLES
  2
AcDbWipeoutVariables
  3
WipeOut|AutoCAD Express Tool|expresstools@autodesk.com
 90
        0
280
               0
281
               0
  0
CLASS
  1
RTEXT
  2
RText
  3
RText|AutoCAD Express Tool|expresstools@autodesk.com
 90
        0
280
               0
281
               1
  0
CLASS
  1
ARCALIGNEDTEXT
  2
AcDbArcAlignedText
  3
ATEXT|AutoCAD Express Tool|expresstools@autodesk.com
 90
        0
280
               0
281
               1
  0
ENDSEC
  0
SECTION
  2
TABLES
  0
TABLE
  2
VPORT
  5
7
100
AcDbSymbolTable
 70
               1
  0
VPORT
  5
15
100
AcDbSymbolTableRecord
100
AcDbViewportTableRecord
  2
*ACTIVE
 70
               0
 10
0.0
 20
0.0
 11
1.0
 21
1.0
 12
420.0
 22
297.0
 13
0.0
 23
0.0
 14
10.0
 24
10.0
 15
10.0
 25
10.0
 16
0.0
 26
0.0
 36
1.0
 17
0.0
 27
0.0
 37
0.0
 40
594.0
 41
1.4141414141414141
 42
50.0
 43
0.0
 44
0.0
 50
0.0
 51
0.0
 71
               0
 72
             100
 73
               1
 74
               1
 75
               0
 76
               0
 77
               0
 78
               0
  0
ENDTAB
  0
TABLE
  2
LTYPE
  5
4
100
AcDbSymbolTable
 70
              24
  0
LTYPE
  5
11
100
AcDbSymbolTableRecord
100
AcDbLinetypeTableRecord
  2
ByBlock
 70
              64
  3

 72
              65
 73
               0
 40
0.0
  0
LTYPE
  5
12
100
AcDbSymbolTableRecord
100
AcDbLinetypeTableRecord
  2
ByLayer
 70
              64
  3

 72
              65
 73
               0
 40
0.0
  0
LTYPE
  5
13
100
AcDbSymbolTableRecord
100
AcDbLinetypeTableRecord
  2
Continuous
 70
              64
  3
Solid line
 72
              65
 73
               0
 40
0.0
  0
LTYPE
  5
1D
100
AcDbSymbolTableRecord
100
AcDbLinetypeTableRecord
  2
DOT
 70
              64
  3
Dot . . . . . . . . . . . . . . . . . . . . . .
 72
              65
 73
               2
 40
6.3499999999999996
 49
0.35
 74
               0
 49
-6.0
 74
               0
  0
LTYPE
  5
1E
100
AcDbSymbolTableRecord
100
AcDbLinetypeTableRecord
  2
DASHED
 70
              64
  3
Dashed __ __ __ __ __ __ __ __ __ __ __ __ __ _
 72
              65
 73
               2
 40
12.699999999999999
 49
6.3499999999999996
 74
               0
 49
-6.3499999999999996
 74
               0
  0
LTYPE
  5
1F
100
AcDbSymbolTableRecord
100
AcDbLinetypeTableRecord
  2
DASHDOT
 70
              64
  3
Dash dot __ . __ . __ . __ . __ . __ . __ . __
 72
              65
 73
               4
 40
25.399999999999999
 49
12.699999999999999
 74
               0
 49
-6.0
 74
               0
 49
0.7
 74
               0
 49
-6.0
 74
               0
  0
LTYPE
  5
20
100
AcDbSymbolTableRecord
100
AcDbLinetypeTableRecord
  2
DIVIDE
 70
              64
  3
Divide ____ . . ____ . . ____ . . ____ . . ____
 72
              65
 73
               6
 40
31.75
 49
12.699999999999999
 74
               0
 49
-6.0
 74
               0
 49
0.875
 74
               0
 49
-6.0
 74
               0
 49
0.875
 74
               0
 49
-6.0
 74
               0
  0
LTYPE
  5
21
100
AcDbSymbolTableRecord
100
AcDbLinetypeTableRecord
  2
HIDDEN
 70
              64
  3
Hidden __ __ __ __ __ __ __ __ __ __ __ __ __ _
 72
              65
 73
               2
 40
9.5250000000000004
 49
6.3499999999999996
 74
               0
 49
-3.1749999999999998
 74
               0
  0
LTYPE
  5
22
100
AcDbSymbolTableRecord
100
AcDbLinetypeTableRecord
  2
CENTER
 70
              64
  3
Center ____ _ ____ _ ____ _ ____ _ ____ _ ____
 72
              65
 73
               4
 40
50.799999999999997
 49
31.75
 74
               0
 49
-6.3499999999999996
 74
               0
 49
6.3499999999999996
 74
               0
 49
-6.3499999999999996
 74
               0
  0
LTYPE
  5
23
100
AcDbSymbolTableRecord
100
AcDbLinetypeTableRecord
  2
PHANTOM
 70
              64
  3
Phantom ______  __  __  ______  __  __  ______
 72
              65
 73
               6
 40
63.5
 49
31.75
 74
               0
 49
-6.3499999999999996
 74
               0
 49
6.3499999999999996
 74
               0
 49
-6.3499999999999996
 74
               0
 49
6.3499999999999996
 74
               0
 49
-6.3499999999999996
 74
               0
  0
LTYPE
  5
24
100
AcDbSymbolTableRecord
100
AcDbLinetypeTableRecord
  2
ACAD_ISO02W100
 70
              64
  3
ISO dash __ __ __ __ __ __ __ __ __ __ __ __ __
 72
              65
 73
               2
 40
15.0
 49
12.0
 74
               0
 49
-3.0
 74
               0
  0
LTYPE
  5
25
100
AcDbSymbolTableRecord
100
AcDbLinetypeTableRecord
  2
ACAD_ISO03W100
 70
              64
  3
ISO dash space __ __ __ __ __ __ __ __ __ __ __ __ __ __
 72
              65
 73
               2
 40
30.0
 49
12.0
 74
               0
 49
-18.0
 74
               0
  0
LTYPE
  5
26
100
AcDbSymbolTableRecord
100
AcDbLinetypeTableRecord
  2
ACAD_ISO04W100
 70
              64
  3
ISO long-dash dot ____ . ____ . ____ . ____ . _
 72
              65
 73
               4
 40
30.0
 49
24.0
 74
               0
 49
-3.0
 74
               0
 49
0.0
 74
               0
 49
-3.0
 74
               0
  0
LTYPE
  5
27
100
AcDbSymbolTableRecord
100
AcDbLinetypeTableRecord
  2
ACAD_ISO05W100
 70
              64
  3
ISO long-dash double-dot ____ .. ____ .. ____ .
 72
              65
 73
               6
 40
33.0
 49
24.0
 74
               0
 49
-3.0
 74
               0
 49
0.0
 74
               0
 49
-3.0
 74
               0
 49
0.0
 74
               0
 49
-3.0
 74
               0
  0
LTYPE
  5
28
100
AcDbSymbolTableRecord
100
AcDbLinetypeTableRecord
  2
ACAD_ISO06W100
 70
              64
  3
ISO long-dash triple-dot ____ ... ____ ... ____
 72
              65
 73
               8
 40
36.0
 49
24.0
 74
               0
 49
-3.0
 74
               0
 49
0.0
 74
               0
 49
-3.0
 74
               0
 49
0.0
 74
               0
 49
-3.0
 74
               0
 49
0.0
 74
               0
 49
-3.0
 74
               0
  0
LTYPE
  5
29
100
AcDbSymbolTableRecord
100
AcDbLinetypeTableRecord
  2
ACAD_ISO07W100
 70
              64
  3
ISO dot . . . . . . . . . . . . . . . . . . . .
 72
              65
 73
               2
 40
3.0
 49
0.0
 74
               0
 49
-3.0
 74
               0
  0
LTYPE
  5
2A
100
AcDbSymbolTableRecord
100
AcDbLinetypeTableRecord
  2
ACAD_ISO08W100
 70
              64
  3
ISO long-dash short-dash ____ __ ____ __ ____ _
 72
              65
 73
               4
 40
36.0
 49
24.0
 74
               0
 49
-3.0
 74
               0
 49
6.0
 74
               0
 49
-3.0
 74
               0
  0
LTYPE
  5
2B
100
AcDbSymbolTableRecord
100
AcDbLinetypeTableRecord
  2
ACAD_ISO09W100
 70
              64
  3
ISO long-dash double-short-dash ____ __ __ ____
 72
              65
 73
               6
 40
45.0
 49
24.0
 74
               0
 49
-3.0
 74
               0
 49
6.0
 74
               0
 49
-3.0
 74
               0
 49
6.0
 74
               0
 49
-3.0
 74
               0
  0
LTYPE
  5
2C
100
AcDbSymbolTableRecord
100
AcDbLinetypeTableRecord
  2
ACAD_ISO10W100
 70
              64
  3
ISO dash dot __ . __ . __ . __ . __ . __ . __ .
 72
              65
 73
               4
 40
18.0
 49
12.0
 74
               0
 49
-3.0
 74
               0
 49
0.0
 74
               0
 49
-3.0
 74
               0
  0
LTYPE
  5
2D
100
AcDbSymbolTableRecord
100
AcDbLinetypeTableRecord
  2
ACAD_ISO11W100
 70
              64
  3
ISO double-dash dot __ __ . __ __ . __ __ . __ 
 72
              65
 73
               6
 40
33.0
 49
12.0
 74
               0
 49
-3.0
 74
               0
 49
12.0
 74
               0
 49
-3.0
 74
               0
 49
0.0
 74
               0
 49
-3.0
 74
               0
  0
LTYPE
  5
2E
100
AcDbSymbolTableRecord
100
AcDbLinetypeTableRecord
  2
ACAD_ISO12W100
 70
              64
  3
ISO dash double-dot __ . . __ . . __ . . __ . .
 72
              65
 73
               6
 40
21.0
 49
12.0
 74
               0
 49
-3.0
 74
               0
 49
0.0
 74
               0
 49
-3.0
 74
               0
 49
0.0
 74
               0
 49
-3.0
 74
               0
  0
LTYPE
  5
2F
100
AcDbSymbolTableRecord
100
AcDbLinetypeTableRecord
  2
ACAD_ISO13W100
 70
              64
  3
ISO double-dash double-dot __ __ . . __ __ . . 
 72
              65
 73
               8
 40
36.0
 49
12.0
 74
               0
 49
-3.0
 74
               0
 49
12.0
 74
               0
 49
-3.0
 74
               0
 49
0.0
 74
               0
 49
-3.0
 74
               0
 49
0.0
 74
               0
 49
-3.0
 74
               0
  0
LTYPE
  5
30
100
AcDbSymbolTableRecord
100
AcDbLinetypeTableRecord
  2
ACAD_ISO14W100
 70
              64
  3
ISO dash triple-dot __ . . . __ . . . __ . . . 
 72
              65
 73
               8
 40
24.0
 49
12.0
 74
               0
 49
-3.0
 74
               0
 49
0.0
 74
               0
 49
-3.0
 74
               0
 49
0.0
 74
               0
 49
-3.0
 74
               0
 49
0.0
 74
               0
 49
-3.0
 74
               0
  0
LTYPE
  5
31
100
AcDbSymbolTableRecord
100
AcDbLinetypeTableRecord
  2
ACAD_ISO15W100
 70
              64
  3
ISO double-dash double-dot __ __ . . __ __ . . 
 72
              65
 73
              10
 40
39.0
 49
12.0
 74
               0
 49
-3.0
 74
               0
 49
12.0
 74
               0
 49
-3.0
 74
               0
 49
0.0
 74
               0
 49
-3.0
 74
               0
 49
0.0
 74
               0
 49
-3.0
 74
               0
 49
0.0
 74
               0
 49
-3.0
 74
               0
  0
ENDTAB
  0
TABLE
  2
LAYER
  5
2
100
AcDbSymbolTable
 70
              16
  0
LAYER
  5
14
100
AcDbSymbolTableRecord
100
AcDbLayerTableRecord
  2
0
 70
               0
 62
               7
  6
Continuous
  0
LAYER
  5
35
100
AcDbSymbolTableRecord
100
AcDbLayerTableRecord
  2
Layer00001
 70
               0
 62
               7
  6
Continuous
  0
LAYER
  5
36
100
AcDbSymbolTableRecord
100
AcDbLayerTableRecord
  2
Layer00002
 70
               0
 62
               7
  6
Continuous
  0
LAYER
  5
37
100
AcDbSymbolTableRecord
100
AcDbLayerTableRecord
  2
Layer00003
 70
               0
 62
               7
  6
Continuous
  0
LAYER
  5
38
100
AcDbSymbolTableRecord
100
AcDbLayerTableRecord
  2
Layer00004
 70
               0
 62
               7
  6
Continuous
  0
LAYER
  5
39
100
AcDbSymbolTableRecord
100
AcDbLayerTableRecord
  2
Layer00005
 70
               0
 62
               7
  6
Continuous
  0
LAYER
  5
3A
100
AcDbSymbolTableRecord
100
AcDbLayerTableRecord
  2
Layer00006
 70
               0
 62
               7
  6
Continuous
  0
LAYER
  5
3B
100
AcDbSymbolTableRecord
100
AcDbLayerTableRecord
  2
Layer00007
 70
               0
 62
               7
  6
Continuous
  0
LAYER
  5
3C
100
AcDbSymbolTableRecord
100
AcDbLayerTableRecord
  2
Layer00008
 70
               0
 62
               7
  6
Continuous
  0
LAYER
  5
3D
100
AcDbSymbolTableRecord
100
AcDbLayerTableRecord
  2
Layer00009
 70
               0
 62
               7
  6
Continuous
  0
LAYER
  5
3E
100
AcDbSymbolTableRecord
100
AcDbLayerTableRecord
  2
Layer00010
 70
               0
 62
               7
  6
Continuous
  0
LAYER
  5
3F
100
AcDbSymbolTableRecord
100
AcDbLayerTableRecord
  2
Layer00011
 70
               0
 62
               7
  6
Continuous
  0
LAYER
  5
40
100
AcDbSymbolTableRecord
100
AcDbLayerTableRecord
  2
Layer00012
 70
               0
 62
               7
  6
Continuous
  0
LAYER
  5
41
100
AcDbSymbolTableRecord
100
AcDbLayerTableRecord
  2
Layer00013
 70
               0
 62
               7
  6
Continuous
  0
LAYER
  5
42
100
AcDbSymbolTableRecord
100
AcDbLayerTableRecord
  2
Layer00014
 70
               0
 62
               7
  6
Continuous
  0
LAYER
  5
43
100
AcDbSymbolTableRecord
100
AcDbLayerTableRecord
  2
図枠
 70
               0
 62
               7
  6
Continuous
  0
ENDTAB
  0
TABLE
  2
STYLE
  5
3
100
AcDbSymbolTable
 70
               4
  0
STYLE
  5
17
100
AcDbSymbolTableRecord
100
AcDbTextStyleTableRecord
  2
Standard
 70
               0
 40
0.0
 41
1.0
 50
0.0
 71
               0
 42
0.0
  3
txt.shx
  4
bigfont.shx
  0
STYLE
  5
32
100
AcDbSymbolTableRecord
100
AcDbTextStyleTableRecord
  2
STANDARD_T
 70
               4
 40
0.0
 41
1.0
 50
0.0
 71
               0
 42
0.0
  3
txt.shx
  4
bigfont.shx
  0
STYLE
  5
33
100
AcDbSymbolTableRecord
100
AcDbTextStyleTableRecord
  2
FontTableH_0
 70
               0
 40
0.0
 41
1.0
 50
0.0
 71
               0
 42
0.0
  3
MS Gothic.ttf
  4

1001
ACAD
1000
MS Gothic
1071
    32817
  0
STYLE
  5
34
100
AcDbSymbolTableRecord
100
AcDbTextStyleTableRecord
  2
FontTableV_0
 70
               0
 40
0.0
 41
1.0
 50
0.0
 71
               0
 42
0.0
  3
@MS Gothic.ttf
  4

1001
ACAD
1000
@MS Gothic
1071
    32817
  0
ENDTAB
  0
TABLE
  2
VIEW
  5
5
100
AcDbSymbolTable
 70
               0
  0
ENDTAB
  0
TABLE
  2
UCS
  5
6
100
AcDbSymbolTable
 70
               0
  0
ENDTAB
  0
TABLE
  2
APPID
  5
8
100
AcDbSymbolTable
 70
               1
  0
APPID
  5
16
100
AcDbSymbolTableRecord
100
AcDbRegAppTableRecord
  2
ACAD
 70
               0
  0
ENDTAB
  0
TABLE
  2
DIMSTYLE
  5
9
100
AcDbSymbolTable
 70
               1
  0
DIMSTYLE
105
18
100
AcDbSymbolTableRecord
100
AcDbDimStyleTableRecord
  2
Standard
 70
               0
  3

  4

  5

  6

  7

 40
1.0
 41
0.18
 42
0.0625
 43
0.38
 44
0.18
 45
0.0
 46
0.0
 47
0.0
 48
0.0
 71
               0
 72
               0
 73
               1
 74
               1
 75
               0
 76
               0
 77
               0
 78
               0
140
0.18
141
0.09
142
0.0
143
25.399999999999999
144
1.0
145
0.0
146
1.0
147
0.09
170
               0
171
               2
172
               0
173
               0
174
               0
175
               0
176
               0
177
               0
178
               0
270
               2
271
               4
272
               4
273
               2
274
               2
275
               0
280
               0
281
               0
282
               0
283
               1
284
               0
285
               0
286
               0
287
               0
288
               0
340
17
  0
ENDTAB
  0
TABLE
  2
BLOCK_RECORD
  5
1
100
AcDbSymbolTable
 70
               0
  0
BLOCK_RECORD
  5
A
100
AcDbSymbolTableRecord
100
AcDbBlockTableRecord
  2
*MODEL_SPACE
  0
BLOCK_RECORD
  5
B
100
AcDbSymbolTableRecord
100
AcDbBlockTableRecord
  2
*PAPER_SPACE
  0
ENDTAB
  0
ENDSEC
  0
SECTION
  2
BLOCKS
  0
BLOCK
  5
D
100
AcDbEntity
  8
0
100
AcDbBlockBegin
  2
*MODEL_SPACE
 70
               0
 10
0.0
 20
0.0
 30
0.0
  3
*MODEL_SPACE
  1

  0
ENDBLK
  5
E
100
AcDbEntity
  8
0
100
AcDbBlockEnd
  0
BLOCK
  5
F
100
AcDbEntity
 67
               1
  8
0
100
AcDbBlockBegin
  2
*PAPER_SPACE
 70
               0
 10
0.0
 20
0.0
 30
0.0
  3
*PAPER_SPACE
  1

  0
ENDBLK
  5
10
100
AcDbEntity
 67
               1
  8
0
100
AcDbBlockEnd
  0
ENDSEC
  0
SECTION
  2
ENTITIES
  0
LINE
  5
44
100
AcDbEntity
  8
0
  6
Continuous
 62
               4
100
AcDbLine
 10
304.68537640861558
 20
170.19274094088269
 30
0.0
 11
312.93158765985083
 21
137.20789593594151
 31
0.0
  0
LINE
  5
45
100
AcDbEntity
  8
0
  6
Continuous
 62
               4
100
AcDbLine
 10
220.15486748869517
 20
279.18228065165573
 30
0.0
 11
259.01805919657795
 21
123.7295138201234
 31
0.0
  0
LINE
  5
46
100
AcDbEntity
  8
0
  6
Continuous
 62
               4
100
AcDbLine
 10
312.44651640977816
 20
139.14818093623217
 30
0.0
 11
258.53298794650527
 21
125.66979882041406
 31
0.0
  0
LINE
  5
47
100
AcDbEntity
  8
0
  6
Continuous
 62
               4
100
AcDbLine
 10
255.69318015127584
 20
283.69941345788624
 30
0.0
 11
290.61831015650745
 21
143.99889343695867
 31
0.0
  0
LINE
  5
48
100
AcDbEntity
  8
0
  6
Continuous
 62
               4
100
AcDbLine
 10
255.62256044606931
 20
137.31150882215806
 30
0.0
 11
290.13323890643477
 21
145.93917843724932
 31
0.0
  0
LINE
  5
49
100
AcDbEntity
  8
0
  6
Continuous
 62
               4
100
AcDbLine
 10
290.13323890643477
 20
145.93917843724932
 30
0.0
 11
309.5360889093422
 21
150.78989093797614
 31
0.0
  0
LINE
  5
4A
100
AcDbEntity
  8
0
  6
Continuous
 62
               4
100
AcDbLine
 10
234.85431582154092
 20
282.16995846393087
 30
0.0
 11
259.00367961055298
 21
185.57250330788193
 31
0.0
  0
LINE
  5
4B
100
AcDbEntity
  8
0
  6
Continuous
 62
               4
100
AcDbLine
 10
278.49152890469094
 20
192.50601844422519
 30
0.0
 11
258.5186083604803
 21
187.51278830817259
 31
0.0
  0
LINE
  5
4C
100
AcDbEntity
  8
0
  6
Continuous
 62
               4
100
AcDbLine
 10
258.5186083604803
 20
187.51278830817259
 30
0.0
 11
243.98085044432548
 21
183.87834882913393
 31
0.0
  0
LINE
  5
4D
100
AcDbEntity
  8
0
  6
Continuous
 62
               4
100
AcDbLine
 10
428.61407738488447
 20
384.8154739837841
 30
0.0
 11
437.17875378007363
 21
342.67705542962273
 31
0.0
  0
LINE
  5
4E
100
AcDbEntity
  8
0
  6
Continuous
 62
               4
100
AcDbLine
 10
603.67297353897447
 20
439.78485525473997
 30
0.0
 11
599.29104608097066
 21
461.3440461429156
 31
0.0
  0
LINE
  5
4F
100
AcDbEntity
  8
0
  6
Continuous
 62
               4
100
AcDbLine
 10
263.67352358481958
 20
355.37292463546902
 30
0.0
 11
256.30391831454045
 21
391.6315638564916
 31
0.0
  0
LINE
  5
50
100
AcDbEntity
  8
0
  6
Continuous
 62
               4
100
AcDbLine
 10
599.68940312260736
 20
459.38411969853604
 30
0.0
 11
256.70227535617715
 21
389.67163741211203
 31
0.0
  0
LINE
  5
51
100
AcDbEntity
  8
0
  6
Continuous
 62
               4
100
AcDbLine
 10
570.09923138000181
 20
389.08176030538942
 30
0.0
 11
559.54276977662903
 21
441.01981108144872
 31
0.0
  0
LINE
  5
52
100
AcDbEntity
  8
0
  6
Continuous
 62
               4
100
AcDbLine
 10
602.07954537242767
 20
447.62456103225833
 30
0.0
 11
559.94112681826573
 21
439.05988463706905
 31
0.0
  0
LINE
  5
53
100
AcDbEntity
  8
0
  6
Continuous
 62
               4
100
AcDbLine
 10
209.82333451008731
 20
329.12112209515777
 30
0.0
 11
201.85619367735319
 21
368.31965098274958
 31
0.0
  0
LINE
  5
54
100
AcDbEntity
  8
0
  6
Continuous
 62
               4
100
AcDbLine
 10
259.09241760599741
 20
377.91207874583432
 30
0.0
 11
202.25455071898989
 21
366.35972453837002
 31
0.0
  0
LINE
  5
55
100
AcDbEntity
  8
0
  6
Continuous
 62
               4
100
AcDbLine
 10
285.42686295027909
 20
341.45474061390161
 30
0.0
 11
307.45326270353797
 21
379.60558409436845
 31
0.0
  0
LINE
  5
56
100
AcDbEntity
  8
0
  6
Continuous
 62
               4
100
AcDbLine
 10
285.42686295027909
 20
341.45474061390161
 30
0.0
 11
287.4789838102331
 21
347.09289633861709
 31
0.0
  0
LINE
  5
57
100
AcDbEntity
  8
0
  6
Continuous
 62
               4
100
AcDbLine
 10
285.42686295027909
 20
341.45474061390161
 30
0.0
 11
289.28358860839836
 21
346.05100727261555
 31
0.0
  0
LINE
  5
58
100
AcDbEntity
  8
0
  6
Continuous
 62
               4
100
AcDbLine
 10
489.21741602685739
 20
345.17280164599509
 30
0.0
 11
459.21578553301975
 21
457.14041095890406
 31
0.0
  0
LINE
  5
59
100
AcDbEntity
  8
0
  6
Continuous
 62
               4
100
AcDbLine
 10
489.21741602685739
 20
345.17280164599509
 30
0.0
 11
486.68170645641317
 21
350.61064836821498
 31
0.0
  0
LINE
  5
5A
100
AcDbEntity
  8
0
  6
Continuous
 62
               4
100
AcDbLine
 10
489.21741602685739
 20
345.17280164599509
 30
0.0
 11
488.69448157037141
 21
351.14996983454563
 31
0.0
  0
LINE
  5
5B
100
AcDbEntity
  8
0
  6
Continuous
 62
               4
100
AcDbLine
 10
275.58718543010508
 20
358.8597557078545
 30
0.0
 11
311.14538202867436
 21
420.44835884209925
 31
0.0
  0
LINE
  5
5C
100
AcDbEntity
  8
0
  6
Continuous
 62
               4
100
AcDbLine
 10
275.58718543010508
 20
358.8597557078545
 30
0.0
 11
277.6393062900591
 21
364.49791143256999
 31
0.0
  0
LINE
  5
5D
100
AcDbEntity
  8
0
  6
Continuous
 62
               4
100
AcDbLine
 10
275.58718543010508
 20
358.8597557078545
 30
0.0
 11
279.4439110882243
 21
363.45602236656845
 31
0.0
  0
LINE
  5
5E
100
AcDbEntity
  8
0
  6
Continuous
 62
               4
100
AcDbLine
 10
501.62098325018326
 20
386.48146386493028
 30
0.0
 11
477.33235247223359
 21
477.12786797451935
 31
0.0
  0
LINE
  5
5F
100
AcDbEntity
  8
0
  6
Continuous
 62
               4
100
AcDbLine
 10
501.62098325018326
 20
386.48146386493028
 30
0.0
 11
499.08527367973909
 21
391.91931058715016
 31
0.0
  0
LINE
  5
60
100
AcDbEntity
  8
0
  6
Continuous
 62
               4
100
AcDbLine
 10
501.62098325018326
 20
386.48146386493028
 30
0.0
 11
501.09804879369733
 21
392.45863205348081
 31
0.0
  0
LINE
  5
61
100
AcDbEntity
  8
0
  6
Continuous
 62
               4
100
AcDbLine
 10
557.01276457371853
 20
416.13359604143324
 30
0.0
 11
535.54565255102466
 21
496.24994880189837
 31
0.0
  0
LINE
  5
62
100
AcDbEntity
  8
0
  6
Continuous
 62
               4
100
AcDbLine
 10
557.01276457371853
 20
416.13359604143324
 30
0.0
 11
554.47705500327436
 21
421.57144276365312
 31
0.0
  0
LINE
  5
63
100
AcDbEntity
  8
0
  6
Continuous
 62
               4
100
AcDbLine
 10
557.01276457371853
 20
416.13359604143324
 30
0.0
 11
556.4898301172326
 21
422.11076422998366
 31
0.0
  0
LINE
  5
64
100
AcDbEntity
  8
0
  6
Continuous
 62
               4
100
AcDbLine
 10
574.71575342465746
 20
318.63082191780819
 30
0.0
 11
598.20520958209841
 21
277.94589041095895
 31
0.0
  0
LINE
  5
65
100
AcDbEntity
  8
0
  6
Continuous
 62
               4
100
AcDbLine
 10
574.71575342465746
 20
318.63082191780819
 30
0.0
 11
578.57247908277668
 21
314.03455525909436
 31
0.0
  0
LINE
  5
66
100
AcDbEntity
  8
0
  6
Continuous
 62
               4
100
AcDbLine
 10
574.71575342465746
 20
318.63082191780819
 30
0.0
 11
576.76787428461148
 21
312.99266619309282
 31
0.0
  0
LINE
  5
67
100
AcDbEntity
  8
0
  6
Continuous
 62
               4
100
AcDbLine
 10
436.62200975345786
 20
324.80851523281427
 30
0.0
 11
453.04451225920093
 21
296.36390650543996
 31
0.0
  0
LINE
  5
68
100
AcDbEntity
  8
0
  6
Continuous
 62
               4
100
AcDbLine
 10
436.62200975345786
 20
324.80851523281427
 30
0.0
 11
440.47873541157708
 21
320.21224857410033
 31
0.0
  0
LINE
  5
69
100
AcDbEntity
  8
0
  6
Continuous
 62
               4
100
AcDbLine
 10
436.62200975345786
 20
324.80851523281427
 30
0.0
 11
438.67413061341188
 21
319.17035950809878
 31
0.0
  0
LINE
  5
6A
100
AcDbEntity
  8
0
  6
Continuous
 62
               4
100
AcDbLine
 10
297.67281814610459
 20
305.07683247364565
 30
0.0
 11
319.83032742170417
 21
266.69890063912845
 31
0.0
  0
LINE
  5
6B
100
AcDbEntity
  8
0
  6
Continuous
 62
               4
100
AcDbLine
 10
297.67281814610459
 20
305.07683247364565
 30
0.0
 11
301.52954380422381
 21
300.48056581493182
 31
0.0
  0
LINE
  5
6C
100
AcDbEntity
  8
0
  6
Continuous
 62
               4
100
AcDbLine
 10
297.67281814610459
 20
305.07683247364565
 30
0.0
 11
299.72493900605861
 21
299.43867674893028
 31
0.0
  0
LINE
  5
6D
100
AcDbEntity
  8
0
  6
Continuous
 62
               4
100
AcDbLine
 10
316.10273972602744
 20
191.60342465753425
 30
0.0
 11
334.86168040731701
 21
159.11198630136985
 31
0.0
  0
LINE
  5
6E
100
AcDbEntity
  8
0
  6
Continuous
 62
               4
100
AcDbLine
 10
316.10273972602744
 20
191.60342465753425
 30
0.0
 11
319.95946538414665
 21
187.00715799882036
 31
0.0
  0
LINE
  5
6F
100
AcDbEntity
  8
0
  6
Continuous
 62
               4
100
AcDbLine
 10
316.10273972602744
 20
191.60342465753425
 30
0.0
 11
318.15486058598145
 21
185.96526893281879
 31
0.0
  0
LINE
  5
70
100
AcDbEntity
  8
0
  6
Continuous
 62
               4
100
AcDbLine
 10
146.58219178082194
 20
179.7430488939444
 30
0.0
 11
127.60225589565664
 21
146.86883561643836
 31
0.0
  0
LINE
  5
71
100
AcDbEntity
  8
0
  6
Continuous
 62
               4
100
AcDbLine
 10
146.58219178082194
 20
179.7430488939444
 30
0.0
 11
144.53007092086793
 21
174.10489316922894
 31
0.0
  0
LINE
  5
72
100
AcDbEntity
  8
0
  6
Continuous
 62
               4
100
AcDbLine
 10
146.58219178082194
 20
179.7430488939444
 30
0.0
 11
142.7254661227027
 21
175.14678223523055
 31
0.0
  0
LINE
  5
73
100
AcDbEntity
  8
0
  6
Continuous
 62
               4
100
AcDbLine
 10
195.63448266357807
 20
260.61175995135255
 30
0.0
 11
168.36549241691091
 21
307.84303652968032
 31
0.0
  0
LINE
  5
74
100
AcDbEntity
  8
0
  6
Continuous
 62
               4
100
AcDbLine
 10
195.63448266357807
 20
260.61175995135255
 30
0.0
 11
191.77775700545882
 21
265.2080266100665
 31
0.0
  0
LINE
  5
75
100
AcDbEntity
  8
0
  6
Continuous
 62
               4
100
AcDbLine
 10
195.63448266357807
 20
260.61175995135255
 30
0.0
 11
193.58236180362405
 21
266.24991567606804
 31
0.0
  0
LINE
  5
76
100
AcDbEntity
  8
0
  6
Continuous
 62
               4
100
AcDbLine
 10
254.63620352315166
 20
283.80421434476551
 30
0.0
 11
194.83045160102336
 21
387.39081525875173
 31
0.0
  0
LINE
  5
77
100
AcDbEntity
  8
0
  6
Continuous
 62
               4
100
AcDbLine
 10
254.63620352315166
 20
283.80421434476551
 30
0.0
 11
250.77947786503245
 21
288.40048100347934
 31
0.0
  0
LINE
  5
78
100
AcDbEntity
  8
0
  6
Continuous
 62
               4
100
AcDbLine
 10
254.63620352315166
 20
283.80421434476551
 30
0.0
 11
252.58408266319765
 21
289.44237006948089
 31
0.0
  0
LINE
  5
79
100
AcDbEntity
  8
0
  6
Continuous
 62
               4
100
AcDbLine
 10
257.68857754570917
 20
296.59174721834648
 30
0.0
 11
194.21766529629102
 21
406.52659203708396
 31
0.0
  0
LINE
  5
7A
100
AcDbEntity
  8
0
  6
Continuous
 62
               4
100
AcDbLine
 10
257.68857754570917
 20
296.59174721834648
 30
0.0
 11
253.83185188758989
 21
301.18801387706043
 31
0.0
  0
LINE
  5
7B
100
AcDbEntity
  8
0
  6
Continuous
 62
               4
100
AcDbLine
 10
257.68857754570917
 20
296.59174721834648
 30
0.0
 11
255.63645668575515
 21
302.22990294306197
 31
0.0
  0
LINE
  5
7C
100
AcDbEntity
  8
0
  6
Continuous
 62
               4
100
AcDbLine
 10
2077.5
 20
1892.5
 30
0.0
 11
77.5
 21
1892.5
 31
0.0
  0
LINE
  5
7D
100
AcDbEntity
  8
0
  6
Continuous
 62
               4
100
AcDbLine
 10
2077.5
 20
1892.5
 30
0.0
 11
2077.5
 21
2892.5
 31
0.0
  0
LINE
  5
7E
100
AcDbEntity
  8
0
  6
Continuous
 62
               3
100
AcDbLine
 10
303.71523390847028
 20
174.07331094146403
 30
0.0
 11
274.61095890410979
 21
290.49041095890374
 31
0.0
  0
LINE
  5
7F
100
AcDbEntity
  8
0
  6
Continuous
 62
               3
100
AcDbLine
 10
327.96879641210353
 20
180.13670156737228
 30
0.0
 11
303.71523390847028
 21
174.07331094146403
 31
0.0
  0
LINE
  5
80
100
AcDbEntity
  8
0
  6
Continuous
 62
               3
100
AcDbLine
 10
327.96879641210353
 20
180.13670156737228
 30
0.0
 11
298.86452140774315
 21
296.55380158481222
 31
0.0
  0
LINE
  5
81
100
AcDbEntity
  8
0
  6
Continuous
 62
               3
100
AcDbLine
 10
309.29355328430529
 20
316.6842584628277
 30
0.0
 11
312.93158765985038
 21
302.1321209606478
 31
0.0
  0
LINE
  5
82
100
AcDbEntity
  8
0
  6
Continuous
 62
               2
100
AcDbLine
 10
570.89594546327521
 20
385.16190741663019
 30
0.0
 11
573.88362327555069
 21
370.46245908378313
 31
0.0
  0
LINE
  5
83
100
AcDbEntity
  8
0
  6
Continuous
 62
               2
100
AcDbLine
 10
604.46968762224787
 20
435.86500236598073
 30
0.0
 11
570.89594546327521
 21
385.16190741663019
 31
0.0
  0
LINE
  5
84
100
AcDbEntity
  8
0
  6
DASHED
 62
               2
100
AcDbLine
 10
585.59539379612329
 20
388.14958522890464
 30
0.0
 11
607.45736543452313
 21
421.16555403313379
 31
0.0
  0
LINE
  5
85
100
AcDbEntity
  8
0
  6
Continuous
 62
               2
100
AcDbLine
 10
585.59539379612283
 20
388.14958522890453
 30
0.0
 11
573.88362327555069
 21
370.46245908378313
 31
0.0
  0
LINE
  5
86
100
AcDbEntity
  8
0
  6
Continuous
 62
               2
100
AcDbLine
 10
592.75791710167641
 20
418.17787622085854
 30
0.0
 11
264.47023766809298
 21
351.45307174670978
 31
0.0
  0
LINE
  5
87
100
AcDbEntity
  8
0
  6
DASHED
 62
               2
100
AcDbLine
 10
592.75791710167641
 20
418.17787622085854
 30
0.0
 11
607.45736543452313
 21
421.16555403313379
 31
0.0
  0
LINE
  5
88
100
AcDbEntity
  8
0
  6
DASHED
 62
               2
100
AcDbLine
 10
607.45736543452313
 20
421.16555403313379
 30
0.0
 11
604.46968762224787
 21
435.86500236598073
 31
0.0
  0
LINE
  5
89
100
AcDbEntity
  8
0
  6
Continuous
 62
               2
100
AcDbLine
 10
230.89649550912031
 20
300.74997679735912
 30
0.0
 11
233.88417332139556
 21
286.05052846451207
 31
0.0
  0
LINE
  5
8A
100
AcDbEntity
  8
0
  6
Continuous
 62
               2
100
AcDbLine
 10
264.47023766809298
 20
351.45307174670978
 30
0.0
 11
230.89649550912031
 21
300.74997679735912
 31
0.0
  0
LINE
  5
8B
100
AcDbEntity
  8
0
  6
DASHED
 62
               2
100
AcDbLine
 10
245.59594384196782
 20
303.73765460963369
 30
0.0
 11
267.45791548036811
 21
336.75362341386284
 31
0.0
  0
LINE
  5
8C
100
AcDbEntity
  8
0
  6
Continuous
 62
               2
100
AcDbLine
 10
245.59594384196737
 20
303.73765460963358
 30
0.0
 11
233.88417332139556
 21
286.05052846451207
 31
0.0
  0
LINE
  5
8D
100
AcDbEntity
  8
0
  6
DASHED
 62
               2
100
AcDbLine
 10
252.75846714752117
 20
333.76594560158759
 30
0.0
 11
267.45791548036811
 21
336.75362341386284
 31
0.0
  0
LINE
  5
8E
100
AcDbEntity
  8
0
  6
DASHED
 62
               2
100
AcDbLine
 10
267.45791548036811
 20
336.75362341386284
 30
0.0
 11
264.47023766809298
 21
351.45307174670978
 31
0.0
  0
LINE
  5
8F
100
AcDbEntity
  8
0
  6
Continuous
 62
               2
100
AcDbLine
 10
230.89649550911986
 20
300.74997679735901
 30
0.0
 11
573.88362327555069
 21
370.46245908378313
 31
0.0
  0
LINE
  5
90
100
AcDbEntity
  8
0
  6
Continuous
 62
               2
100
AcDbLine
 10
219.18472498854987
 20
283.06285065223705
 30
0.0
 11
233.88417332139511
 21
286.05052846451207
 31
0.0
  0
LINE
  5
91
100
AcDbEntity
  8
0
  6
Continuous
 62
               2
100
AcDbLine
 10
210.62004859336071
 20
325.20126920639854
 30
0.0
 11
219.18472498854987
 21
283.06285065223705
 31
0.0
  0
LINE
  5
92
100
AcDbEntity
  8
0
  6
Continuous
 62
               2
100
AcDbLine
 10
210.62004859336071
 20
325.20126920639854
 30
0.0
 11
252.75846714752117
 21
333.76594560158759
 31
0.0
  0
LINE
  5
93
100
AcDbEntity
  8
0
  6
Continuous
 62
               3
100
AcDbLine
 10
309.29355328430529
 20
316.6842584628277
 30
0.0
 11
251.08500327558556
 21
302.13212096064768
 31
0.0
  0
LINE
  5
94
100
AcDbEntity
  8
0
  6
Continuous
 62
               3
100
AcDbLine
 10
769.35479452054801
 20
414.17636986301335
 30
0.0
 11
274.61095890410979
 21
290.49041095890374
 31
0.0
  0
LINE
  5
95
100
AcDbEntity
  8
0
  6
Continuous
 62
               3
100
AcDbLine
 10
769.35479452054801
 20
401.80705298616039
 30
0.0
 11
301.77494890817923
 21
284.91209158306805
 31
0.0
  0
LINE
  5
96
100
AcDbEntity
  8
0
  6
Continuous
 62
               3
100
AcDbLine
 10
769.35479452054801
 20
355.4221146979616
 30
0.0
 11
312.68905203481427
 21
241.25567907652814
 31
0.0
  0
LINE
  5
97
100
AcDbEntity
  8
0
  6
DASHED
 62
               6
100
AcDbLine
 10
769.35479452054801
 20
415.20714626941782
 30
0.0
 11
274.36842327907334
 21
291.46055345904909
 31
0.0
  0
LINE
  5
98
100
AcDbEntity
  8
0
  6
Continuous
 62
               2
100
AcDbLine
 10
769.35479452054801
 20
469.37806791102508
 30
0.0
 11
604.46968762224787
 21
435.86500236598073
 31
0.0
  0
LINE
  5
99
100
AcDbEntity
  8
0
  6
Continuous
 62
               2
100
AcDbLine
 10
769.3547945205479
 20
425.49887017550867
 30
0.0
 11
570.89594546327521
 21
385.16190741663019
 31
0.0
  0
LINE
  5
9A
100
AcDbEntity
  8
0
  6
Continuous
 62
               2
100
AcDbLine
 10
276.06617265432794
 20
309.40818971173775
 30
0.0
 11
249.87232515040398
 21
302.8597278357567
 31
0.0
  0
LINE
  5
9B
100
AcDbEntity
  8
0
  6
DASHED
 62
               6
100
AcDbLine
 10
286.3448585629626
 20
354.87866421517111
 30
0.0
 11
266.72620809618411
 21
350.8911535699313
 31
0.0
  0
LINE
  5
9C
100
AcDbEntity
  8
0
  6
DASHED
 62
               6
100
AcDbLine
 10
277.27885077950953
 20
308.68058283662873
 30
0.0
 11
266.72620809618411
 21
350.8911535699313
 31
0.0
  0
LINE
  5
9D
100
AcDbEntity
  8
0
  6
DASHED
 62
               6
100
AcDbLine
 10
296.68170078241621
 20
313.5312953373554
 30
0.0
 11
286.3448585629626
 21
354.87866421517111
 31
0.0
  0
LINE
  5
9E
100
AcDbEntity
  8
0
  6
DASHED
 62
               2
100
AcDbLine
 10
265.74503567602596
 20
350.69273762494657
 30
0.0
 11
276.06617265432794
 21
309.40818971173775
 31
0.0
  0
LINE
  5
9F
100
AcDbEntity
  8
0
  6
Continuous
 62
               3
100
AcDbLine
 10
254.72303765113054
 20
287.57998345846755
 30
0.0
 11
251.08500327558556
 21
302.13212096064768
 31
0.0
  0
LINE
  5
A0
100
AcDbEntity
  8
0
  6
Continuous
 62
               3
100
AcDbLine
 10
254.72303765113054
 20
287.57998345846755
 30
0.0
 11
312.93158765985049
 21
302.13212096064757
 31
0.0
  0
LINE
  5
A1
100
AcDbEntity
  8
0
  6
Continuous
 62
               2
100
AcDbLine
 10
255.93571577631218
 20
278.60616533212334
 30
0.0
 11
249.87232515040398
 21
302.8597278357567
 31
0.0
  0
LINE
  5
A2
100
AcDbEntity
  8
0
  6
Continuous
 62
               2
100
AcDbLine
 10
259.51050156358167
 20
285.8914207203141
 30
0.0
 11
256.77434041696176
 21
278.37387975403209
 31
0.0
  0
LINE
  5
A3
100
AcDbEntity
  8
0
  6
Continuous
 62
               7
100
AcDbLine
 10
250.53731744049327
 20
299.67595258746468
 30
0.0
 11
253.08394150337512
 21
289.48945633593877
 31
0.0
  0
LINE
  5
A4
100
AcDbEntity
  8
0
  6
Continuous
 62
               7
100
AcDbLine
 10
252.59887025330244
 20
289.36818852342077
 30
0.0
 11
253.08394150337512
 21
289.48945633593877
 31
0.0
  0
LINE
  5
A5
100
AcDbEntity
  8
0
  6
Continuous
 62
               7
100
AcDbLine
 10
249.68844275286574
 20
298.94834571235509
 30
0.0
 11
251.99253119071125
 21
289.73199196097477
 31
0.0
  0
LINE
  5
A6
100
AcDbEntity
  8
0
  6
Continuous
 62
               7
100
AcDbLine
 10
250.05224619042059
 20
299.55468477494645
 30
0.0
 11
250.53731744049327
 21
299.67595258746468
 31
0.0
  0
LINE
  5
A7
100
AcDbEntity
  8
0
  6
Continuous
 62
               7
100
AcDbLine
 10
293.67805306292934
 20
279.73378517656994
 30
0.0
 11
295.13326681314646
 21
282.15914142693208
 31
0.0
  0
LINE
  5
A8
100
AcDbEntity
  8
0
  6
Continuous
 62
               7
100
AcDbLine
 10
291.25269681256634
 20
281.18899892678854
 30
0.0
 11
293.67805306292934
 21
279.73378517656994
 31
0.0
  0
LINE
  5
A9
100
AcDbEntity
  8
0
  6
Continuous
 62
               7
100
AcDbLine
 10
280.42983322622325
 20
303.79905821308176
 30
0.0
 11
251.3255582218614
 21
296.52298946199204
 31
0.0
  0
LINE
  5
AA
100
AcDbEntity
  8
0
  6
Continuous
 62
               7
100
AcDbLine
 10
282.85518947658454
 20
302.34384446286543
 30
0.0
 11
280.42983322622325
 21
303.79905821308176
 31
0.0
  0
LINE
  5
AB
100
AcDbEntity
  8
0
  6
Continuous
 62
               7
100
AcDbLine
 10
281.39997572636565
 20
299.91848821250079
 30
0.0
 11
282.85518947658454
 21
302.34384446286543
 31
0.0
  0
LINE
  5
AC
100
AcDbEntity
  8
0
  6
Continuous
 62
               7
100
AcDbLine
 10
281.39997572636565
 20
299.91848821250079
 30
0.0
 11
252.29570072200659
 21
292.64241946141118
 31
0.0
  0
LINE
  5
AD
100
AcDbEntity
  8
0
  6
Continuous
 62
               7
100
AcDbLine
 10
277.16474153043032
 20
354.03324255778699
 30
0.0
 11
295.13326681314362
 21
282.15914142692765
 31
0.0
  0
LINE
  5
AE
100
AcDbEntity
  8
0
  6
Continuous
 62
               7
100
AcDbLine
 10
273.2410114370752
 20
353.23574042873912
 30
0.0
 11
291.25269681256248
 21
281.18899892679082
 31
0.0
  0
LINE
  5
AF
100
AcDbEntity
  8
0
  6
Continuous
 62
               7
100
AcDbLine
 10
279.76789326666864
 20
357.02072889609229
 30
0.0
 11
269.58139701514273
 21
354.47410483321033
 31
0.0
  0
LINE
  5
B0
100
AcDbEntity
  8
0
  6
Continuous
 62
               7
100
AcDbLine
 10
269.46012920262478
 20
354.95917608328301
 30
0.0
 11
269.58139701514273
 21
354.47410483321033
 31
0.0
  0
LINE
  5
B1
100
AcDbEntity
  8
0
  6
Continuous
 62
               7
100
AcDbLine
 10
279.64662545415047
 20
357.50580014616486
 30
0.0
 11
279.76789326666864
 21
357.02072889609229
 31
0.0
  0
LINE
  5
B2
100
AcDbEntity
  8
0
  6
Continuous
 62
               7
100
AcDbLine
 10
563.43153542435527
 20
414.67565244379665
 30
0.0
 11
553.24503917282937
 21
412.12902838091469
 31
0.0
  0
LINE
  5
B3
100
AcDbEntity
  8
0
  6
Continuous
 62
               7
100
AcDbLine
 10
553.12377136031148
 20
412.61409963098748
 30
0.0
 11
553.24503917282937
 21
412.12902838091469
 31
0.0
  0
LINE
  5
B4
100
AcDbEntity
  8
0
  6
Continuous
 62
               7
100
AcDbLine
 10
563.31026761183705
 20
415.16072369386933
 30
0.0
 11
563.43153542435527
 21
414.67565244379665
 31
0.0
  0
LINE
  5
B5
100
AcDbEntity
  8
0
  6
Continuous
 62
               7
100
AcDbLine
 10
270.79407514032437
 20
354.77727436450579
 30
0.0
 11
271.27914639039705
 21
352.83698936421507
 31
0.0
  0
LINE
  5
B6
100
AcDbEntity
  8
0
  6
Continuous
 62
               7
100
AcDbLine
 10
278.555215141487
 20
356.71755936479684
 30
0.0
 11
279.12660657710842
 21
354.43199362231104
 31
0.0
  0
LINE
  5
B7
100
AcDbEntity
  8
0
  6
Continuous
 62
               7
100
AcDbLine
 10
554.45771729801095
 20
412.43219791221014
 30
0.0
 11
554.94278854808363
 21
410.49191291191954
 31
0.0
  0
LINE
  5
B8
100
AcDbEntity
  8
0
  6
Continuous
 62
               7
100
AcDbLine
 10
562.21885729917369
 20
414.3724829125012
 30
0.0
 11
562.79024873479511
 21
412.0869171700154
 31
0.0
  0
LINE
  5
B9
100
AcDbEntity
  8
0
  6
Continuous
 62
               7
100
AcDbLine
 10
572.89042480077194
 20
346.9475791524041
 30
0.0
 11
556.90465359476184
 21
410.89066397644359
 31
0.0
  0
LINE
  5
BA
100
AcDbEntity
  8
0
  6
Continuous
 62
               7
100
AcDbLine
 10
575.31578105113863
 20
345.49236540218322
 30
0.0
 11
572.89042480077569
 21
346.94757915240183
 31
0.0
  0
LINE
  5
BB
100
AcDbEntity
  8
0
  6
Continuous
 62
               7
100
AcDbLine
 10
576.77099480135314
 20
347.91772165254116
 30
0.0
 11
575.31578105113863
 21
345.49236540218322
 31
0.0
  0
LINE
  5
BC
100
AcDbEntity
  8
0
  6
Continuous
 62
               7
100
AcDbLine
 10
576.77099480135314
 20
347.91772165254116
 30
0.0
 11
560.8283836881169
 21
411.68816610549146
 31
0.0
  0
LINE
  5
BD
100
AcDbEntity
  8
0
  6
Continuous
 62
               7
100
AcDbLine
 10
768.86972327047533
 20
403.74733798645099
 30
0.0
 11
301.28987765810655
 21
286.85237658335876
 31
0.0
  0
LINE
  5
BE
100
AcDbEntity
  8
0
  6
Continuous
 62
               7
100
AcDbLine
 10
768.38465202040265
 20
405.6876229867417
 30
0.0
 11
300.80480640803393
 21
288.79266158364936
 31
0.0
  0
LINE
  5
BF
100
AcDbEntity
  8
0
  6
Continuous
 62
               7
100
AcDbLine
 10
767.89958077032998
 20
407.6279079870323
 30
0.0
 11
300.31973515796125
 21
290.73294658394008
 31
0.0
  0
LINE
  5
C0
100
AcDbEntity
  8
0
  6
Continuous
 62
               7
100
AcDbLine
 10
767.4145095202573
 20
409.56819298732302
 30
0.0
 11
299.83466390788857
 21
292.67323158423068
 31
0.0
  0
LINE
  5
C1
100
AcDbEntity
  8
0
  6
Continuous
 62
               7
100
AcDbLine
 10
766.92943827018473
 20
411.50847798761362
 30
0.0
 11
299.34959265781589
 21
294.61351658452139
 31
0.0
  0
LINE
  5
C2
100
AcDbEntity
  8
0
  6
Continuous
 62
               7
100
AcDbLine
 10
298.29867500588483
 20
296.41233998434751
 30
0.0
 11
280.53288792955362
 21
266.80269485712887
 31
0.0
  0
LINE
  5
C3
100
AcDbEntity
  8
0
  6
Continuous
 62
               7
100
AcDbLine
 10
295.55469764360475
 20
295.72634564377751
 30
0.0
 11
279.84689358898356
 21
269.546672219409
 31
0.0
  0
LINE
  5
C4
100
AcDbEntity
  8
0
  6
Continuous
 62
               7
100
AcDbLine
 10
292.81072028132468
 20
295.0403513032075
 30
0.0
 11
279.16089924841356
 21
272.29064958168902
 31
0.0
  0
LINE
  5
C5
100
AcDbEntity
  8
0
  6
Continuous
 62
               7
100
AcDbLine
 10
290.06674291904449
 20
294.35435696263738
 30
0.0
 11
278.4749049078435
 21
275.03462694396916
 31
0.0
  0
LINE
  5
C6
100
AcDbEntity
  8
0
  6
Continuous
 62
               7
100
AcDbLine
 10
287.32276555676441
 20
293.66836262206738
 30
0.0
 11
277.78891056727349
 21
277.77860430624929
 31
0.0
  0
LINE
  5
C7
100
AcDbEntity
  8
0
  6
Continuous
 62
               7
100
AcDbLine
 10
284.57878819448428
 20
292.98236828149737
 30
0.0
 11
277.10291622670343
 21
280.52258166852943
 31
0.0
  0
LINE
  5
C8
100
AcDbEntity
  8
0
  6
Continuous
 62
               7
100
AcDbLine
 10
281.83481083220414
 20
292.29637394092737
 30
0.0
 11
276.41692188613342
 21
283.26655903080945
 31
0.0
  0
LINE
  5
C9
100
AcDbEntity
  8
0
  6
Continuous
 62
               7
100
AcDbLine
 10
279.09083346992406
 20
291.61037960035736
 30
0.0
 11
275.73092754556336
 21
286.01053639308958
 31
0.0
  0
LINE
  5
CA
100
AcDbEntity
  8
0
  6
Continuous
 62
               7
100
AcDbLine
 10
276.34685610764399
 20
290.92438525978736
 30
0.0
 11
275.04493320499336
 21
288.7545137553696
 31
0.0
  0
LINE
  5
CB
100
AcDbEntity
  8
0
  6
Continuous
 62
               7
100
AcDbLine
 10
322.04686738665981
 20
203.82441766914667
 30
0.0
 11
304.281080310329
 21
174.21477254192871
 31
0.0
  0
LINE
  5
CC
100
AcDbEntity
  8
0
  6
Continuous
 62
               7
100
AcDbLine
 10
322.73286172722987
 20
201.08044030686645
 30
0.0
 11
307.02505767260919
 21
174.90076688249874
 31
0.0
  0
LINE
  5
CD
100
AcDbEntity
  8
0
  6
Continuous
 62
               7
100
AcDbLine
 10
323.41885606779994
 20
198.33646294458646
 30
0.0
 11
309.76903503488921
 21
175.58676122306875
 31
0.0
  0
LINE
  5
CE
100
AcDbEntity
  8
0
  6
Continuous
 62
               7
100
AcDbLine
 10
324.10485040836994
 20
195.59248558230641
 30
0.0
 11
312.51301239716929
 21
176.27275556363875
 31
0.0
  0
LINE
  5
CF
100
AcDbEntity
  8
0
  6
Continuous
 62
               7
100
AcDbLine
 10
324.79084474893995
 20
192.84850822002625
 30
0.0
 11
315.25698975944948
 21
176.95874990420879
 31
0.0
  0
LINE
  5
D0
100
AcDbEntity
  8
0
  6
Continuous
 62
               7
100
AcDbLine
 10
325.47683908951001
 20
190.10453085774614
 30
0.0
 11
318.00096712172956
 21
177.64474424477879
 31
0.0
  0
LINE
  5
D1
100
AcDbEntity
  8
0
  6
Continuous
 62
               7
100
AcDbLine
 10
326.16283343008007
 20
187.36055349546601
 30
0.0
 11
320.74494448400975
 21
178.33073858534885
 31
0.0
  0
LINE
  5
D2
100
AcDbEntity
  8
0
  6
Continuous
 62
               7
100
AcDbLine
 10
326.84882777065008
 20
184.61657613318604
 30
0.0
 11
323.48892184628977
 21
179.01673292591886
 31
0.0
  0
LINE
  5
D3
100
AcDbEntity
  8
0
  6
Continuous
 62
               7
100
AcDbLine
 10
327.53482211122008
 20
181.87259877090594
 30
0.0
 11
326.23289920856985
 21
179.70272726648886
 31
0.0
  0
LINE
  5
D4
100
AcDbEntity
  8
0
  6
Continuous
 62
               7
100
AcDbLine
 10
310.38496359696921
 20
250.47203282790852
 30
0.0
 11
292.19479171924434
 21
220.1550796983671
 31
0.0
  0
LINE
  5
D5
100
AcDbEntity
  8
0
  6
Continuous
 62
               7
100
AcDbLine
 10
309.69896925639921
 20
253.21601019018865
 30
0.0
 11
291.50879737867427
 21
222.89905706064718
 31
0.0
  0
LINE
  5
D6
100
AcDbEntity
  8
0
  6
Continuous
 62
               7
100
AcDbLine
 10
311.07095793753928
 20
247.72805546562844
 30
0.0
 11
292.88078605981434
 21
217.411102336087
 31
0.0
  0
LINE
  5
D7
100
AcDbEntity
  8
0
  6
Continuous
 62
               7
100
AcDbLine
 10
309.01297491582915
 20
255.9599875524687
 30
0.0
 11
290.82280303810421
 21
225.64303442292726
 31
0.0
  0
LINE
  5
D8
100
AcDbEntity
  8
0
  6
Continuous
 62
               7
100
AcDbLine
 10
311.75695227810934
 20
244.98407810334825
 30
0.0
 11
293.5667804003844
 21
214.66712497380684
 31
0.0
  0
LINE
  5
D9
100
AcDbEntity
  8
0
  6
Continuous
 62
               7
100
AcDbLine
 10
308.32698057525909
 20
258.70396491474884
 30
0.0
 11
290.13680869753415
 21
228.38701178520745
 31
0.0
  0
LINE
  5
DA
100
AcDbEntity
  8
0
  6
Continuous
 62
               7
100
AcDbLine
 10
312.44294661867934
 20
242.24010074106823
 30
0.0
 11
294.25277474095441
 21
211.92314761152679
 31
0.0
  0
LINE
  5
DB
100
AcDbEntity
  8
0
  6
Continuous
 62
               7
100
AcDbLine
 10
307.64098623468908
 20
261.44794227702897
 30
0.0
 11
289.45081435696414
 21
231.13098914748753
 31
0.0
  0
LINE
  5
DC
100
AcDbEntity
  8
0
  6
Continuous
 62
               7
100
AcDbLine
 10
313.12894095924941
 20
239.49612337878804
 30
0.0
 11
294.93876908152447
 21
209.17917024924665
 31
0.0
  0
LINE
  5
DD
100
AcDbEntity
  8
0
  6
Continuous
 62
               7
100
AcDbLine
 10
306.95499189411896
 20
264.19191963930911
 30
0.0
 11
288.76482001639408
 21
233.87496650976769
 31
0.0
  0
LINE
  5
DE
100
AcDbEntity
  8
0
  6
Continuous
 62
               7
100
AcDbLine
 10
313.81493529981941
 20
236.75214601650785
 30
0.0
 11
295.62476342209453
 21
206.43519288696652
 31
0.0
  0
LINE
  5
DF
100
AcDbEntity
  8
0
  6
Continuous
 62
               7
100
AcDbLine
 10
306.26899755354896
 20
266.93589700158913
 30
0.0
 11
288.07882567582408
 21
236.61894387204771
 31
0.0
  0
LINE
  5
E0
100
AcDbEntity
  8
0
  6
Continuous
 62
               7
100
AcDbLine
 10
314.50092964038947
 20
234.00816865422783
 30
0.0
 11
296.31075776266454
 21
203.69121552468641
 31
0.0
  0
LINE
  5
E1
100
AcDbEntity
  8
0
  6
Continuous
 62
               7
100
AcDbLine
 10
305.58300321297895
 20
269.67987436386926
 30
0.0
 11
287.39283133525402
 21
239.36292123432784
 31
0.0
  0
LINE
  5
E2
100
AcDbEntity
  8
0
  6
Continuous
 62
               7
100
AcDbLine
 10
315.18692398095948
 20
231.26419129194761
 30
0.0
 11
296.9967521032346
 21
200.94723816240625
 31
0.0
  0
LINE
  5
E3
100
AcDbEntity
  8
0
  6
Continuous
 62
               7
100
AcDbLine
 10
304.89700887240889
 20
272.42385172614939
 30
0.0
 11
286.70683699468395
 21
242.10689859660798
 31
0.0
  0
LINE
  5
E4
100
AcDbEntity
  8
0
  6
Continuous
 62
               7
100
AcDbLine
 10
315.87291832152954
 20
228.52021392966768
 30
0.0
 11
297.6827464438046
 21
198.20326080012626
 31
0.0
  0
LINE
  5
E5
100
AcDbEntity
  8
0
  6
Continuous
 62
               7
100
AcDbLine
 10
304.21101453183888
 20
275.16782908842953
 30
0.0
 11
286.02084265411395
 21
244.85087595888805
 31
0.0
  0
LINE
  5
E6
100
AcDbEntity
  8
0
  6
Continuous
 62
               7
100
AcDbLine
 10
316.55891266209954
 20
225.77623656738749
 30
0.0
 11
298.36874078437467
 21
195.45928343784612
 31
0.0
  0
LINE
  5
E7
100
AcDbEntity
  8
0
  6
Continuous
 62
               7
100
AcDbLine
 10
303.52502019126882
 20
277.91180645070955
 30
0.0
 11
285.33484831354389
 21
247.59485332116813
 31
0.0
  0
LINE
  5
E8
100
AcDbEntity
  8
0
  6
Continuous
 62
               7
100
AcDbLine
 10
317.24490700266961
 20
223.03225920510735
 30
0.0
 11
299.05473512494473
 21
192.71530607556596
 31
0.0
  0
LINE
  5
E9
100
AcDbEntity
  8
0
  6
Continuous
 62
               7
100
AcDbLine
 10
302.83902585069882
 20
280.65578381298968
 30
0.0
 11
284.64885397297388
 21
250.33883068344826
 31
0.0
  0
LINE
  5
EA
100
AcDbEntity
  8
0
  6
Continuous
 62
               7
100
AcDbLine
 10
317.93090134323961
 20
220.28828184282733
 30
0.0
 11
299.74072946551473
 21
189.97132871328594
 31
0.0
  0
LINE
  5
EB
100
AcDbEntity
  8
0
  6
Continuous
 62
               7
100
AcDbLine
 10
302.15303151012876
 20
283.39976117526982
 30
0.0
 11
283.96285963240382
 21
253.08280804572829
 31
0.0
  0
LINE
  5
EC
100
AcDbEntity
  8
0
  6
Continuous
 62
               7
100
AcDbLine
 10
318.61689568380962
 20
217.54430448054725
 30
0.0
 11
300.42672380608474
 21
187.22735135100584
 31
0.0
  0
LINE
  5
ED
100
AcDbEntity
  8
0
  6
Continuous
 62
               7
100
AcDbLine
 10
301.46703716955875
 20
286.14373853754995
 30
0.0
 11
283.27686529183376
 21
255.82678540800845
 31
0.0
  0
LINE
  5
EE
100
AcDbEntity
  8
0
  6
Continuous
 62
               7
100
AcDbLine
 10
319.30289002437968
 20
214.80032711826715
 30
0.0
 11
301.1127181466548
 21
184.48337398872573
 31
0.0
  0
LINE
  5
EF
100
AcDbEntity
  8
0
  6
Continuous
 62
               7
100
AcDbLine
 10
300.78104282898875
 20
288.88771589983008
 30
0.0
 11
282.59087095126375
 21
258.57076277028858
 31
0.0
  0
LINE
  5
F0
100
AcDbEntity
  8
0
  6
Continuous
 62
               7
100
AcDbLine
 10
319.98888436494974
 20
212.05634975598701
 30
0.0
 11
301.79871248722486
 21
181.73939662644565
 31
0.0
  0
LINE
  5
F1
100
AcDbEntity
  8
0
  6
Continuous
 62
               7
100
AcDbLine
 10
300.09504848841868
 20
291.6316932621101
 30
0.0
 11
281.90487661069375
 21
261.31474013256872
 31
0.0
  0
LINE
  5
F2
100
AcDbEntity
  8
0
  6
Continuous
 62
               7
100
AcDbLine
 10
320.6748787055198
 20
209.3123723937068
 30
0.0
 11
302.48470682779492
 21
178.99541926416549
 31
0.0
  0
LINE
  5
F3
100
AcDbEntity
  8
0
  6
Continuous
 62
               7
100
AcDbLine
 10
299.40905414784862
 20
294.37567062439024
 30
0.0
 11
281.21888227012369
 21
264.05871749484885
 31
0.0
  0
LINE
  5
F4
100
AcDbEntity
  8
0
  6
Continuous
 62
               7
100
AcDbLine
 10
321.36087304608981
 20
206.56839503142672
 30
0.0
 11
303.17070116836493
 21
176.25144190188539
 31
0.0
  0
LINE
  5
F5
100
AcDbEntity
  8
0
  6
Continuous
 62
               7
100
AcDbLine
 10
264.68127744201496
 20
305.53118950225513
 30
0.0
 11
282.87144931973995
 21
294.61708637562032
 31
0.0
  0
LINE
  5
F6
100
AcDbEntity
  8
0
  6
Continuous
 62
               7
100
AcDbLine
 10
261.93730007973511
 20
304.84519516168513
 30
0.0
 11
280.12747195745982
 21
293.9310920350502
 31
0.0
  0
LINE
  5
F7
100
AcDbEntity
  8
0
  6
Continuous
 62
               7
100
AcDbLine
 10
259.19332271745475
 20
304.15920082111501
 30
0.0
 11
277.38349459517974
 21
293.24509769448019
 31
0.0
  0
LINE
  5
F8
100
AcDbEntity
  8
0
  6
Continuous
 62
               7
100
AcDbLine
 10
256.44934535517439
 20
303.473206480545
 30
0.0
 11
274.63951723289966
 21
292.55910335391019
 31
0.0
  0
LINE
  5
F9
100
AcDbEntity
  8
0
  6
Continuous
 62
               7
100
AcDbLine
 10
272.91320952885553
 20
307.58917252396526
 30
0.0
 11
291.10338140658035
 21
296.67506939733033
 31
0.0
  0
LINE
  5
FA
100
AcDbEntity
  8
0
  6
Continuous
 62
               7
100
AcDbLine
 10
270.16923216657534
 20
306.90317818339514
 30
0.0
 11
288.35940404430016
 21
295.98907505676033
 31
0.0
  0
LINE
  5
FB
100
AcDbEntity
  8
0
  6
Continuous
 62
               7
100
AcDbLine
 10
267.42525480429526
 20
306.21718384282525
 30
0.0
 11
285.61542668202009
 21
295.30308071619032
 31
0.0
  0
LINE
  5
FC
100
AcDbEntity
  8
0
  6
Continuous
 62
               7
100
AcDbLine
 10
92.635454497577683
 20
271.04587489394447
 30
0.0
 11
91.822800497577674
 21
266.43654489394447
 31
0.0
  0
LINE
  5
FD
100
AcDbEntity
  8
0
  6
Continuous
 62
               7
100
AcDbLine
 10
93.98929949757769
 20
263.35486489394447
 30
0.0
 11
101.75907549757767
 21
263.35486489394447
 31
0.0
  0
LINE
  5
FE
100
AcDbEntity
  8
0
  6
Continuous
 62
               7
100
AcDbLine
 10
222.23320149757768
 20
238.18005989394445
 30
0.0
 11
222.23320149757768
 21
237.69495289394447
 31
0.0
  0
LINE
  5
FF
100
AcDbEntity
  8
0
  6
Continuous
 62
               7
100
AcDbLine
 10
222.23320149757768
 20
238.18005989394445
 30
0.0
 11
199.9331454975777
 21
238.18005989394445
 31
0.0
  0
LINE
  5
100
100
AcDbEntity
  8
0
  6
Continuous
 62
               7
100
AcDbLine
 10
222.23320149757768
 20
237.69495289394447
 30
0.0
 11
199.9331454975777
 21
237.69495289394447
 31
0.0
  0
LINE
  5
101
100
AcDbEntity
  8
0
  6
Continuous
 62
               7
100
AcDbLine
 10
129.36063949757767
 20
245.37268689394446
 30
0.0
 11
164.12442949757769
 21
245.37268689394446
 31
0.0
  0
LINE
  5
102
100
AcDbEntity
  8
0
  6
Continuous
 62
               7
100
AcDbLine
 10
229.21301449757766
 20
214.55620489394443
 30
0.0
 11
227.68310749757768
 21
232.04311289394448
 31
0.0
  0
LINE
  5
103
100
AcDbEntity
  8
0
  6
Continuous
 62
               7
100
AcDbLine
 10
231.63334849757769
 20
232.04309789394441
 30
0.0
 11
227.68119949757767
 21
232.04309789394441
 31
0.0
  0
LINE
  5
104
100
AcDbEntity
  8
0
  6
Continuous
 62
               7
100
AcDbLine
 10
227.71869049757765
 20
214.42546789394447
 30
0.0
 11
226.18885949757765
 21
231.91165789394441
 31
0.0
  0
LINE
  5
105
100
AcDbEntity
  8
0
  6
Continuous
 62
               7
100
AcDbLine
 10
226.52334749757767
 20
214.32089089394441
 30
0.0
 11
224.99350149757765
 21
231.80707489394447
 31
0.0
  0
LINE
  5
106
100
AcDbEntity
  8
0
  6
Continuous
 62
               7
100
AcDbLine
 10
228.36885249757768
 20
234.72572989394442
 30
0.0
 11
228.72458049757768
 21
235.70305489394448
 31
0.0
  0
LINE
  5
107
100
AcDbEntity
  8
0
  6
Continuous
 62
               7
100
AcDbLine
 10
227.59691049757765
 20
236.11403589394448
 30
0.0
 11
228.72494649757766
 21
235.70345189394439
 31
0.0
  0
LINE
  5
108
100
AcDbEntity
  8
0
  6
Continuous
 62
               7
100
AcDbLine
 10
231.63334849757769
 20
233.54309789394441
 30
0.0
 11
227.6821764975777
 21
233.54309789394441
 31
0.0
  0
LINE
  5
109
100
AcDbEntity
  8
0
  6
Continuous
 62
               7
100
AcDbLine
 10
232.13334849757769
 20
234.74304889394446
 30
0.0
 11
227.66606349757768
 21
234.74304889394446
 31
0.0
  0
LINE
  5
10A
100
AcDbEntity
  8
0
  6
Continuous
 62
               7
100
AcDbLine
 10
235.83329949757768
 20
255.47278489394449
 30
0.0
 11
235.83329949757768
 21
236.24304889394446
 31
0.0
  0
LINE
  5
10B
100
AcDbEntity
  8
0
  6
Continuous
 62
               7
100
AcDbLine
 10
93.989543497577671
 20
265.05652489394441
 30
0.0
 11
106.44926049757768
 21
265.05652489394441
 31
0.0
  0
LINE
  5
10C
100
AcDbEntity
  8
0
  6
Continuous
 62
               7
100
AcDbLine
 10
93.817234497577658
 20
270.83801889394448
 30
0.0
 11
93.004830497577672
 21
266.23009389394446
 31
0.0
  0
LINE
  5
10D
100
AcDbEntity
  8
0
  6
Continuous
 62
               7
100
AcDbLine
 10
92.142166497577676
 20
271.13329189394443
 30
0.0
 11
93.816777497577675
 21
270.8380498939444
 31
0.0
  0
LINE
  5
10E
100
AcDbEntity
  8
0
  6
Continuous
 62
               7
100
AcDbLine
 10
92.142863497577679
 20
271.1332158939444
 30
0.0
 11
91.330166497577693
 21
266.52364289394444
 31
0.0
  0
LINE
  5
10F
100
AcDbEntity
  8
0
  6
Continuous
 62
               7
100
AcDbLine
 10
111.25147049757769
 20
258.12192389394448
 30
0.0
 11
116.06292949757767
 21
247.95520689394439
 31
0.0
  0
LINE
  5
110
100
AcDbEntity
  8
0
  6
Continuous
 62
               7
100
AcDbLine
 10
217.27379049757769
 20
256.67268989394444
 30
0.0
 11
210.32328949757766
 21
246.12090189394442
 31
0.0
  0
LINE
  5
111
100
AcDbEntity
  8
0
  6
Continuous
 62
               7
100
AcDbLine
 10
220.61308449757769
 20
258.47278489394449
 30
0.0
 11
222.1118634975777
 21
258.47278489394449
 31
0.0
  0
LINE
  5
112
100
AcDbEntity
  8
0
  6
Continuous
 62
               7
100
AcDbLine
 10
129.61967249757768
 20
239.37268689394446
 30
0.0
 11
165.01053849757767
 21
239.37268689394446
 31
0.0
  0
LINE
  5
113
100
AcDbEntity
  8
0
  6
Continuous
 62
               7
100
AcDbLine
 10
212.98240849757769
 20
258.00049489394445
 30
0.0
 11
205.97939449757769
 21
249.16176489394448
 31
0.0
  0
LINE
  5
114
100
AcDbEntity
  8
0
  6
Continuous
 62
               7
100
AcDbLine
 10
101.75907549757767
 20
265.05652489394441
 30
0.0
 11
101.75907549757767
 21
261.55652489394441
 31
0.0
  0
LINE
  5
115
100
AcDbEntity
  8
0
  6
Continuous
 62
               7
100
AcDbLine
 10
233.13334849757769
 20
250.67297989394447
 30
0.0
 11
234.33329949757768
 21
250.67297989394447
 31
0.0
  0
LINE
  5
116
100
AcDbEntity
  8
0
  6
Continuous
 62
               7
100
AcDbLine
 10
115.11142549757767
 20
260.05583889394444
 30
0.0
 11
120.70223049757769
 21
250.37229089394444
 31
0.0
  0
LINE
  5
117
100
AcDbEntity
  8
0
  6
Continuous
 62
               7
100
AcDbLine
 10
233.13334849757769
 20
255.47278489394449
 30
0.0
 11
233.13334849757769
 21
235.74304889394446
 31
0.0
  0
LINE
  5
118
100
AcDbEntity
  8
0
  6
Continuous
 62
               7
100
AcDbLine
 10
234.33329949757768
 20
255.47278489394449
 30
0.0
 11
234.33329949757768
 21
236.24304889394446
 31
0.0
  0
LINE
  5
119
100
AcDbEntity
  8
0
  6
Continuous
 62
               7
100
AcDbLine
 10
97.435192497577674
 20
274.54279189394441
 30
0.0
 11
99.035289497577679
 21
274.54279189394441
 31
0.0
  0
LINE
  5
11A
100
AcDbEntity
  8
0
  6
Continuous
 62
               7
100
AcDbLine
 10
100.03550549757767
 20
271.03934389394448
 30
0.0
 11
97.739005497577693
 21
268.74283489394446
 31
0.0
  0
LINE
  5
11B
100
AcDbEntity
  8
0
  6
Continuous
 62
               7
100
AcDbLine
 10
100.03528949757768
 20
273.54279189394441
 30
0.0
 11
100.03528949757768
 21
271.0393738939444
 31
0.0
  0
LINE
  5
11C
100
AcDbEntity
  8
0
  6
Continuous
 62
               7
100
AcDbLine
 10
115.62329649757768
 20
215.00437789394442
 30
0.0
 11
109.43354949757767
 21
249.56378789394446
 31
0.0
  0
LINE
  5
11D
100
AcDbEntity
  8
0
  6
Continuous
 62
               7
100
AcDbLine
 10
114.63899749757769
 20
214.82802489394447
 30
0.0
 11
108.44924949757768
 21
249.38747289394442
 31
0.0
  0
LINE
  5
11E
100
AcDbEntity
  8
0
  6
Continuous
 62
               7
100
AcDbLine
 10
224.43565549757767
 20
252.74304889394446
 30
0.0
 11
224.43565549757767
 21
238.74304889394446
 31
0.0
  0
LINE
  5
11F
100
AcDbEntity
  8
0
  6
Continuous
 62
               7
100
AcDbLine
 10
232.23570449757767
 20
249.32849789394439
 30
0.0
 11
232.23570449757767
 21
235.74307889394439
 31
0.0
  0
LINE
  5
120
100
AcDbEntity
  8
0
  6
Continuous
 62
               7
100
AcDbLine
 10
227.11433549757766
 20
253.44705889394439
 30
0.0
 11
230.9428274975777
 21
249.6185678939444
 31
0.0
  0
LINE
  5
121
100
AcDbEntity
  8
0
  6
Continuous
 62
               7
100
AcDbLine
 10
227.52903949757768
 20
254.44730289394448
 30
0.0
 11
231.9431174975777
 21
250.03322489394444
 31
0.0
  0
LINE
  5
122
100
AcDbEntity
  8
0
  6
Continuous
 62
               7
100
AcDbLine
 10
229.23564349757766
 20
236.73990489394444
 30
0.0
 11
231.23542949757768
 21
234.74011889394447
 31
0.0
  0
LINE
  5
123
100
AcDbEntity
  8
0
  6
Continuous
 62
               7
100
AcDbLine
 10
137.23570049757768
 20
180.74304889394443
 30
0.0
 11
221.23570449757767
 21
180.74304889394443
 31
0.0
  0
LINE
  5
124
100
AcDbEntity
  8
0
  6
Continuous
 62
               7
100
AcDbLine
 10
135.23570049757768
 20
193.93787289394442
 30
0.0
 11
135.23570049757768
 21
182.74304889394443
 31
0.0
  0
LINE
  5
125
100
AcDbEntity
  8
0
  6
Continuous
 62
               7
100
AcDbLine
 10
89.235729497577665
 20
262.74298789394442
 30
0.0
 11
93.685924497577673
 21
262.74298789394442
 31
0.0
  0
LINE
  5
126
100
AcDbEntity
  8
0
  6
Continuous
 62
               7
100
AcDbLine
 10
231.23570449757767
 20
248.91443489394445
 30
0.0
 11
231.23570449757767
 21
238.74304889394446
 31
0.0
  0
LINE
  5
127
100
AcDbEntity
  8
0
  6
Continuous
 62
               7
100
AcDbLine
 10
223.23570449757767
 20
253.74304889394446
 30
0.0
 11
223.23570449757767
 21
182.74304889394443
 31
0.0
  0
LINE
  5
128
100
AcDbEntity
  8
0
  6
Continuous
 62
               7
100
AcDbLine
 10
225.43565549757767
 20
237.74307889394439
 30
0.0
 11
230.23570449757767
 21
237.74307889394439
 31
0.0
  0
LINE
  5
129
100
AcDbEntity
  8
0
  6
Continuous
 62
               7
100
AcDbLine
 10
225.43565549757767
 20
253.74304889394446
 30
0.0
 11
226.40733549757766
 21
253.74304889394446
 31
0.0
  0
LINE
  5
12A
100
AcDbEntity
  8
0
  6
Continuous
 62
               7
100
AcDbLine
 10
225.23570449757767
 20
236.74307889394439
 30
0.0
 11
229.23570449757767
 21
236.74307889394439
 31
0.0
  0
LINE
  5
12B
100
AcDbEntity
  8
0
  6
Continuous
 62
               7
100
AcDbLine
 10
137.23570049757768
 20
179.74304889394443
 30
0.0
 11
221.23570449757767
 21
179.74304889394443
 31
0.0
  0
LINE
  5
12C
100
AcDbEntity
  8
0
  6
Continuous
 62
               7
100
AcDbLine
 10
134.23570049757768
 20
193.94006989394444
 30
0.0
 11
134.23570049757768
 21
182.74304889394443
 31
0.0
  0
LINE
  5
12D
100
AcDbEntity
  8
0
  6
Continuous
 62
               7
100
AcDbLine
 10
224.23570449757767
 20
254.74304889394449
 30
0.0
 11
226.82139749757766
 21
254.74304889394449
 31
0.0
  0
LINE
  5
12E
100
AcDbEntity
  8
0
  6
Continuous
 62
               7
100
AcDbLine
 10
224.23570449757767
 20
235.74307889394439
 30
0.0
 11
224.23570449757767
 21
182.74304889394443
 31
0.0
  0
LINE
  5
12F
100
AcDbEntity
  8
0
  6
Continuous
 62
               7
100
AcDbLine
 10
91.235729497577665
 20
261.74298789394442
 30
0.0
 11
93.683727497577678
 21
261.74298789394442
 31
0.0
  0
LINE
  5
130
100
AcDbEntity
  8
0
  6
Continuous
 62
               7
100
AcDbLine
 10
97.235240497577678
 20
268.74298789394442
 30
0.0
 11
97.73865849757766
 21
268.74298789394442
 31
0.0
  0
LINE
  5
131
100
AcDbEntity
  8
0
  6
Continuous
 62
               7
100
AcDbLine
 10
96.435192497577674
 20
273.54279189394441
 30
0.0
 11
96.435192497577674
 21
269.54303689394447
 31
0.0
  0
LINE
  5
132
100
AcDbEntity
  8
0
  6
Continuous
 62
               7
100
AcDbLine
 10
95.235240497577678
 20
272.04279189394441
 30
0.0
 11
95.235240497577678
 21
269.54279189394441
 31
0.0
  0
LINE
  5
133
100
AcDbEntity
  8
0
  6
Continuous
 62
               7
100
AcDbLine
 10
91.203605497577684
 20
272.92932789394439
 30
0.0
 11
89.099017497577677
 21
270.70270389394449
 31
0.0
  0
LINE
  5
134
100
AcDbEntity
  8
0
  6
Continuous
 62
               7
100
AcDbLine
 10
91.720507497577671
 20
271.72942289394445
 30
0.0
 11
88.508848497577674
 21
268.33153389394448
 31
0.0
  0
LINE
  5
135
100
AcDbEntity
  8
0
  6
Continuous
 62
               7
100
AcDbLine
 10
91.92982049757768
 20
273.24274389394446
 30
0.0
 11
93.235240497577678
 21
273.24274389394446
 31
0.0
  0
LINE
  5
136
100
AcDbEntity
  8
0
  6
Continuous
 62
               7
100
AcDbLine
 10
92.446910497577676
 20
272.04279189394441
 30
0.0
 11
95.235240497577678
 21
272.04279189394441
 31
0.0
  0
LINE
  5
137
100
AcDbEntity
  8
0
  6
Continuous
 62
               7
100
AcDbLine
 10
100.94248149757766
 20
270.24933489394442
 30
0.0
 11
98.528591497577679
 21
267.83544089394439
 31
0.0
  0
LINE
  5
138
100
AcDbEntity
  8
0
  6
Continuous
 62
               7
100
AcDbLine
 10
97.235240497577678
 20
267.54279189394441
 30
0.0
 11
97.821178497577677
 21
267.54279189394441
 31
0.0
  0
LINE
  5
139
100
AcDbEntity
  8
0
  6
Continuous
 62
               7
100
AcDbLine
 10
88.235240497577678
 20
267.64484289394449
 30
0.0
 11
88.235240497577678
 21
263.74298789394442
 31
0.0
  0
LINE
  5
13A
100
AcDbEntity
  8
0
  6
Continuous
 62
               7
100
AcDbLine
 10
101.23524049757768
 20
275.74298789394442
 30
0.0
 11
101.23524049757768
 21
270.9566108939444
 31
0.0
  0
LINE
  5
13B
100
AcDbEntity
  8
0
  6
Continuous
 62
               7
100
AcDbLine
 10
94.235240497577678
 20
277.74298789394442
 30
0.0
 11
94.235240497577678
 21
274.24274389394446
 31
0.0
  0
LINE
  5
13C
100
AcDbEntity
  8
0
  6
Continuous
 62
               7
100
AcDbLine
 10
95.235240497577678
 20
279.74298789394442
 30
0.0
 11
95.235240497577678
 21
276.74298789394442
 31
0.0
  0
LINE
  5
13D
100
AcDbEntity
  8
0
  6
Continuous
 62
               7
100
AcDbLine
 10
98.235240497577678
 20
277.74298789394442
 30
0.0
 11
98.235240497577678
 21
275.74298789394442
 31
0.0
  0
LINE
  5
13E
100
AcDbEntity
  8
0
  6
Continuous
 62
               7
100
AcDbLine
 10
96.235240497577678
 20
275.74298789394442
 30
0.0
 11
98.235240497577678
 21
275.74298789394442
 31
0.0
  0
LINE
  5
13F
100
AcDbEntity
  8
0
  6
Continuous
 62
               7
100
AcDbLine
 10
98.235240497577678
 20
277.74298789394442
 30
0.0
 11
99.235240497577678
 21
277.74298789394442
 31
0.0
  0
LINE
  5
140
100
AcDbEntity
  8
0
  6
Continuous
 62
               7
100
AcDbLine
 10
88.47368649757766
 20
276.56235389394448
 30
0.0
 11
90.212298497577677
 21
278.30095589394449
 31
0.0
  0
LINE
  5
141
100
AcDbEntity
  8
0
  6
Continuous
 62
               7
100
AcDbLine
 10
87.610240497577678
 20
277.11371489394452
 30
0.0
 11
89.797332497577685
 21
279.30081889394438
 31
0.0
  0
LINE
  5
142
100
AcDbEntity
  8
0
  6
Continuous
 62
               7
100
AcDbLine
 10
88.235240497577678
 20
275.91437389394451
 30
0.0
 11
88.235240497577678
 21
271.04645389394449
 31
0.0
  0
LINE
  5
143
100
AcDbEntity
  8
0
  6
Continuous
 62
               7
100
AcDbLine
 10
89.237183497577689
 20
259.73995089394447
 30
0.0
 11
91.23733749757767
 21
261.74010389394442
 31
0.0
  0
LINE
  5
144
100
AcDbEntity
  8
0
  6
Continuous
 62
               7
100
AcDbLine
 10
91.270885497577694
 20
278.74298789394442
 30
0.0
 11
93.235240497577678
 21
278.74298789394442
 31
0.0
  0
LINE
  5
145
100
AcDbEntity
  8
0
  6
Continuous
 62
               7
100
AcDbLine
 10
87.235240497577678
 20
276.12140589394443
 30
0.0
 11
87.235240497577678
 21
261.74298789394442
 31
0.0
  0
LINE
  5
146
100
AcDbEntity
  8
0
  6
Continuous
 62
               7
100
AcDbLine
 10
90.856578497577686
 20
279.74298789394442
 30
0.0
 11
95.235240497577678
 21
279.74298789394442
 31
0.0
  0
LINE
  5
147
100
AcDbEntity
  8
0
  6
Continuous
 62
               7
100
AcDbLine
 10
93.989543497577671
 20
263.8546208939444
 30
0.0
 11
101.75907549757767
 21
263.8546208939444
 31
0.0
  0
LINE
  5
148
100
AcDbEntity
  8
0
  6
Continuous
 62
               7
100
AcDbLine
 10
226.52258449757767
 20
214.3210968939444
 30
0.0
 11
229.21251049757768
 21
214.55643389394442
 31
0.0
  0
LINE
  5
149
100
AcDbEntity
  8
0
  6
Continuous
 62
               7
100
AcDbLine
 10
183.10804149757769
 20
239.37268689394446
 30
0.0
 11
197.79545049757769
 21
239.37268689394446
 31
0.0
  0
LINE
  5
14A
100
AcDbEntity
  8
0
  6
Continuous
 62
               7
100
AcDbLine
 10
101.75907549757767
 20
261.55652489394441
 30
0.0
 11
105.82645749757768
 21
261.55652489394441
 31
0.0
  0
LINE
  5
14B
100
AcDbEntity
  8
0
  6
Continuous
 62
               7
100
AcDbLine
 10
227.07264849757769
 20
234.67345289394441
 30
0.0
 11
227.59677349757766
 21
236.11350189394446
 31
0.0
  0
LINE
  5
14C
100
AcDbEntity
  8
0
  6
Continuous
 62
               7
100
AcDbLine
 10
192.76423049757767
 20
245.37268689394446
 30
0.0
 11
198.13993249757766
 21
245.37268689394446
 31
0.0
  0
LINE
  5
14D
100
AcDbEntity
  8
0
  6
Continuous
 62
               7
100
AcDbLine
 10
184.1234604975777
 20
257.77092689394448
 30
0.0
 11
184.1234604975777
 21
255.66594589394441
 31
0.0
  0
LINE
  5
14E
100
AcDbEntity
  8
0
  6
Continuous
 62
               7
100
AcDbLine
 10
159.12368949757769
 20
255.66608289394441
 30
0.0
 11
159.12368949757769
 21
257.77106389394447
 31
0.0
  0
LINE
  5
14F
100
AcDbEntity
  8
0
  6
Continuous
 62
               7
100
AcDbLine
 10
183.62347549757766
 20
258.27121589394443
 30
0.0
 11
159.62347549757766
 21
258.27121589394443
 31
0.0
  0
LINE
  5
150
100
AcDbEntity
  8
0
  6
Continuous
 62
               7
100
AcDbLine
 10
167.02801649757768
 20
248.2712158939444
 30
0.0
 11
165.4635634975777
 21
248.2712158939444
 31
0.0
  0
LINE
  5
151
100
AcDbEntity
  8
0
  6
Continuous
 62
               7
100
AcDbLine
 10
177.77850549757767
 20
248.2712158939444
 30
0.0
 11
176.21893449757766
 21
248.2712158939444
 31
0.0
  0
LINE
  5
152
100
AcDbEntity
  8
0
  6
Continuous
 62
               7
100
AcDbLine
 10
167.02372949757768
 20
248.21739889394442
 30
0.0
 11
167.62356749757768
 21
247.87108489394441
 31
0.0
  0
LINE
  5
153
100
AcDbEntity
  8
0
  6
Continuous
 62
               7
100
AcDbLine
 10
176.1234604975777
 20
247.8713138939444
 30
0.0
 11
167.1234604975777
 21
247.8713138939444
 31
0.0
  0
LINE
  5
154
100
AcDbEntity
  8
0
  6
Continuous
 62
               7
100
AcDbLine
 10
175.62384949757768
 20
247.87084089394446
 30
0.0
 11
176.22368049757767
 21
248.21715489394447
 31
0.0
  0
LINE
  5
155
100
AcDbEntity
  8
0
  6
Continuous
 62
               7
100
AcDbLine
 10
205.00119149757768
 20
257.63727489394449
 30
0.0
 11
259.67369249757769
 21
260.56996789394447
 31
0.0
  0
LINE
  5
156
100
AcDbEntity
  8
0
  6
Continuous
 62
               7
100
AcDbLine
 10
201.41565849757768
 20
255.8309848939445
 30
0.0
 11
192.80378149757769
 21
245.41741089394444
 31
0.0
  0
LINE
  5
157
100
AcDbEntity
  8
0
  6
Continuous
 62
               7
100
AcDbLine
 10
259.67364649757769
 20
260.5699988939445
 30
0.0
 11
269.79730449757767
 21
262.91324489394441
 31
0.0
  0
LINE
  5
158
100
AcDbEntity
  8
0
  6
Continuous
 62
               7
100
AcDbLine
 10
166.12443749757767
 20
239.07163089394444
 30
0.0
 11
179.31682049757768
 21
239.07163089394444
 31
0.0
  0
LINE
  5
159
100
AcDbEntity
  8
0
  6
Continuous
 62
               7
100
AcDbLine
 10
195.71408249757769
 20
260.70511489394443
 30
0.0
 11
187.02412549757767
 21
250.19710489394438
 31
0.0
  0
LINE
  5
15A
100
AcDbEntity
  8
0
  6
Continuous
 62
               7
100
AcDbLine
 10
261.55827549757765
 20
270.08869089394449
 30
0.0
 11
244.27430949757769
 21
267.2554688939444
 31
0.0
  0
LINE
  5
15B
100
AcDbEntity
  8
0
  6
Continuous
 62
               7
100
AcDbLine
 10
265.09649849757767
 20
268.36076989394445
 30
0.0
 11
262.35296849757765
 21
269.9447698939444
 31
0.0
  0
LINE
  5
15C
100
AcDbEntity
  8
0
  6
Continuous
 62
               7
100
AcDbLine
 10
164.12443749757767
 20
246.57163089394444
 30
0.0
 11
164.12443749757767
 21
241.07163089394444
 31
0.0
  0
LINE
  5
15D
100
AcDbEntity
  8
0
  6
Continuous
 62
               7
100
AcDbLine
 10
164.12443749757767
 20
246.57163089394444
 30
0.0
 11
179.31682049757768
 21
246.57163089394444
 31
0.0
  0
LINE
  5
15E
100
AcDbEntity
  8
0
  6
Continuous
 62
               7
100
AcDbLine
 10
176.1234604975777
 20
247.8713138939444
 30
0.0
 11
176.1234604975777
 21
246.57150889394441
 31
0.0
  0
LINE
  5
15F
100
AcDbEntity
  8
0
  6
Continuous
 62
               7
100
AcDbLine
 10
167.1234604975777
 20
247.8713138939444
 30
0.0
 11
167.1234604975777
 21
246.57150889394441
 31
0.0
  0
LINE
  5
160
100
AcDbEntity
  8
0
  6
Continuous
 62
               7
100
AcDbLine
 10
281.79855768470946
 20
261.7400259047152
 30
0.0
 11
292.98710594146587
 21
216.98581815671929
 31
0.0
  0
LINE
  5
161
100
AcDbEntity
  8
0
  6
Continuous
 62
               7
100
AcDbLine
 10
274.45753513563392
 20
253.58446255032769
 30
0.0
 11
284.15894367045962
 21
214.77876584958938
 31
0.0
  0
LINE
  5
162
100
AcDbEntity
  8
0
  6
Continuous
 62
               7
100
AcDbLine
 10
288.00499966692178
 20
230.96246557473086
 30
0.0
 11
285.64289742893948
 21
226.29119202675264
 31
0.0
  0
LINE
  5
163
100
AcDbEntity
  8
0
  6
Continuous
 62
               7
100
AcDbLine
 10
286.27750663463513
 20
223.75245593062124
 30
0.0
 11
290.5600069251135
 21
220.74225538050871
 31
0.0
  0
LINE
  5
164
100
AcDbEntity
  8
0
  6
Continuous
 62
               7
100
AcDbLine
 10
282.12157041017571
 20
255.50048338393145
 30
0.0
 11
291.8229747148543
 21
216.69477225731862
 31
0.0
  0
LINE
  5
165
100
AcDbEntity
  8
0
  6
Continuous
 62
               7
100
AcDbLine
 10
281.18461681029959
 20
244.12455450142082
 30
0.0
 11
285.46693368611079
 21
241.11451046667449
 31
0.0
  0
LINE
  5
166
100
AcDbEntity
  8
0
  6
Continuous
 62
               7
100
AcDbLine
 10
282.911937382872
 20
251.33456251859039
 30
0.0
 11
280.54985401784194
 21
246.66330014252654
 31
0.0
  0
LINE
  5
167
100
AcDbEntity
  8
0
  6
Continuous
 62
               7
100
AcDbLine
 10
284.15894367045962
 20
214.77876584958938
 30
0.0
 11
292.98710268750574
 21
216.98580351391405
 31
0.0
  0
LINE
  5
168
100
AcDbEntity
  8
0
  6
Continuous
 62
               7
100
AcDbLine
 10
274.45753513563392
 20
253.58446255032769
 30
0.0
 11
283.2856795098748
 21
255.79150346861258
 31
0.0
  0
LINE
  5
169
100
AcDbEntity
  8
0
  6
Continuous
 62
               7
100
AcDbLine
 10
276.36680575651656
 20
260.03225429206628
 30
0.0
 11
276.78578218679542
 21
254.16655879620683
 31
0.0
  0
LINE
  5
16A
100
AcDbEntity
  8
0
  6
Continuous
 62
               7
100
AcDbLine
 10
204.48268349757768
 20
265.1202458939444
 30
0.0
 11
269.94867149757766
 21
268.63190389394441
 31
0.0
  0
LINE
  5
16B
100
AcDbEntity
  8
0
  6
Continuous
 62
               7
100
AcDbLine
 10
253.70536799289414
 20
302.78721213997522
 30
0.0
 11
271.89553987061913
 21
291.87310901334041
 31
0.0
  0
LINE
  5
16C
100
AcDbEntity
  8
0
  6
Continuous
 62
               7
100
AcDbLine
 10
253.85988379910833
 20
291.03259886655638
 30
0.0
 11
258.17565305921784
 21
288.44313731049084
 31
0.0
  0
LINE
  5
16D
100
AcDbEntity
  8
0
  6
Continuous
 62
               7
100
AcDbLine
 10
253.17388945853838
 20
293.77657622883652
 30
0.0
 11
260.91963042149791
 21
289.12913165106085
 31
0.0
  0
LINE
  5
16E
100
AcDbEntity
  8
0
  6
Continuous
 62
               7
100
AcDbLine
 10
252.48789511796838
 20
296.52055359111642
 30
0.0
 11
263.66360778377845
 21
289.81512599163062
 31
0.0
  0
LINE
  5
16F
100
AcDbEntity
  8
0
  6
Continuous
 62
               7
100
AcDbLine
 10
251.80190077739837
 20
299.26453095339667
 30
0.0
 11
266.40758514605852
 21
290.50112033220063
 31
0.0
  0
LINE
  5
170
100
AcDbEntity
  8
0
  6
Continuous
 62
               7
100
AcDbLine
 10
251.11590643682837
 20
302.00850831567647
 30
0.0
 11
269.15156250833905
 21
291.18711467277041
 31
0.0
  0
LINE
  5
171
100
AcDbEntity
  8
0
  6
Continuous
 62
               7
100
AcDbLine
 10
286.63309634025541
 20
311.01914422681551
 30
0.0
 11
304.8232682179804
 21
300.1050411001807
 31
0.0
  0
LINE
  5
172
100
AcDbEntity
  8
0
  6
Continuous
 62
               7
100
AcDbLine
 10
283.88911897797556
 20
310.33314988624551
 30
0.0
 11
302.07929085570026
 21
299.41904675961058
 31
0.0
  0
LINE
  5
173
100
AcDbEntity
  8
0
  6
Continuous
 62
               7
100
AcDbLine
 10
281.1451416156952
 20
309.64715554567539
 30
0.0
 11
299.33531349342019
 21
298.73305241904058
 31
0.0
  0
LINE
  5
174
100
AcDbEntity
  8
0
  6
Continuous
 62
               7
100
AcDbLine
 10
278.40116425341483
 20
308.96116120510538
 30
0.0
 11
296.59133613114011
 21
298.04705807847057
 31
0.0
  0
LINE
  5
175
100
AcDbEntity
  8
0
  6
Continuous
 62
               7
100
AcDbLine
 10
292.12105106481579
 20
312.39113290795552
 30
0.0
 11
310.31122294254061
 21
301.47702978132071
 31
0.0
  0
LINE
  5
176
100
AcDbEntity
  8
0
  6
Continuous
 62
               7
100
AcDbLine
 10
289.37707370253571
 20
311.70513856738563
 30
0.0
 11
307.56724558026053
 21
300.7910354407507
 31
0.0
  0
LINE
  5
177
100
AcDbEntity
  8
0
  6
Continuous
 62
               7
100
AcDbLine
 10
275.65718689113459
 20
308.27516686453561
 30
0.0
 11
293.84735876885958
 21
297.36106373790079
 31
0.0
  0
LINE
  5
178
100
AcDbEntity
  8
0
  6
Continuous
 62
               7
100
AcDbLine
 10
312.90068449860769
 20
302.25573360561845
 30
0.0
 11
294.86502842709598
 21
313.07712724852564
 31
0.0
  0
LINE
  5
179
100
AcDbEntity
  8
0
  6
Continuous
 62
               7
100
AcDbLine
 10
309.47071279575755
 20
315.97562041701889
 30
0.0
 11
308.5849152384958
 21
316.50709895137589
 31
0.0
  0
LINE
  5
17A
100
AcDbEntity
  8
0
  6
Continuous
 62
               7
100
AcDbLine
 10
310.15670713632755
 20
313.23164305473898
 30
0.0
 11
305.84093787621595
 21
315.82110461080589
 31
0.0
  0
LINE
  5
17B
100
AcDbEntity
  8
0
  6
Continuous
 62
               7
100
AcDbLine
 10
310.84270147689762
 20
310.48766569245873
 30
0.0
 11
303.09696051393558
 21
315.13511027023577
 31
0.0
  0
LINE
  5
17C
100
AcDbEntity
  8
0
  6
Continuous
 62
               7
100
AcDbLine
 10
311.52869581746768
 20
307.74368833017849
 30
0.0
 11
300.35298315165522
 21
314.44911592966577
 31
0.0
  0
LINE
  5
17D
100
AcDbEntity
  8
0
  6
Continuous
 62
               7
100
AcDbLine
 10
312.21469015803768
 20
304.99971096789858
 30
0.0
 11
297.60900578937498
 21
313.76312158909599
 31
0.0
  0
LINE
  5
17E
100
AcDbEntity
  8
0
  6
Continuous
 62
               7
100
AcDbLine
 10
254.54587813967834
 20
288.28862150427648
 30
0.0
 11
255.43167569693605
 21
287.75714296992186
 31
0.0
  0
LINE
  5
17F
100
AcDbEntity
  8
0
  6
DASHED
 62
               6
100
AcDbLine
 10
269.62592530422
 20
339.2922847377875
 30
0.0
 11
277.95454970992535
 21
353.17332541396308
 31
0.0
  0
LINE
  5
180
100
AcDbEntity
  8
0
  6
DASHED
 62
               6
100
AcDbLine
 10
268.93993096365
 20
342.03626210006763
 30
0.0
 11
275.29822902469868
 21
352.63342553514883
 31
0.0
  0
LINE
  5
181
100
AcDbEntity
  8
0
  6
DASHED
 62
               6
100
AcDbLine
 10
268.25393662307994
 20
344.78023946234782
 30
0.0
 11
272.64190833947202
 21
352.09352565633463
 31
0.0
  0
LINE
  5
182
100
AcDbEntity
  8
0
  6
DASHED
 62
               6
100
AcDbLine
 10
267.56794228250993
 20
347.5242168246279
 30
0.0
 11
269.98558765424548
 21
351.55362577752044
 31
0.0
  0
LINE
  5
183
100
AcDbEntity
  8
0
  6
DASHED
 62
               6
100
AcDbLine
 10
266.88194794193993
 20
350.26819418690803
 30
0.0
 11
267.32926696901882
 21
351.01372589870624
 31
0.0
  0
LINE
  5
184
100
AcDbEntity
  8
0
  6
DASHED
 62
               6
100
AcDbLine
 10
270.31191964479001
 20
336.54830737550742
 30
0.0
 11
280.61087039515189
 21
353.71322529277728
 31
0.0
  0
LINE
  5
185
100
AcDbEntity
  8
0
  6
DASHED
 62
               6
100
AcDbLine
 10
271.68390832593002
 20
331.06035265094715
 30
0.0
 11
285.9235117656051
 21
354.79302505040567
 31
0.0
  0
LINE
  5
186
100
AcDbEntity
  8
0
  6
DASHED
 62
               6
100
AcDbLine
 10
270.99791398536001
 20
333.80433001322723
 30
0.0
 11
283.26719108037855
 21
354.25312517159148
 31
0.0
  0
LINE
  5
187
100
AcDbEntity
  8
0
  6
DASHED
 62
               6
100
AcDbLine
 10
288.98002319039028
 20
344.33800570546026
 30
0.0
 11
274.4278856882101
 21
320.08444320182662
 31
0.0
  0
LINE
  5
188
100
AcDbEntity
  8
0
  6
DASHED
 62
               6
100
AcDbLine
 10
288.29402884982022
 20
347.08198306774034
 30
0.0
 11
273.74189134764009
 21
322.82842056410675
 31
0.0
  0
LINE
  5
189
100
AcDbEntity
  8
0
  6
DASHED
 62
               6
100
AcDbLine
 10
289.66601753096029
 20
341.59402834318013
 30
0.0
 11
275.1138800287801
 21
317.34046583954654
 31
0.0
  0
LINE
  5
18A
100
AcDbEntity
  8
0
  6
DASHED
 62
               6
100
AcDbLine
 10
290.35201187153035
 20
338.85005098089988
 30
0.0
 11
275.79987436935016
 21
314.59648847726623
 31
0.0
  0
LINE
  5
18B
100
AcDbEntity
  8
0
  6
DASHED
 62
               6
100
AcDbLine
 10
291.03800621210036
 20
336.1060736186198
 30
0.0
 11
276.48586870992017
 21
311.85251111498621
 31
0.0
  0
LINE
  5
18C
100
AcDbEntity
  8
0
  6
DASHED
 62
               6
100
AcDbLine
 10
292.40999489324037
 20
330.61811889405953
 30
0.0
 11
280.54360489816708
 21
310.84080223560409
 31
0.0
  0
LINE
  5
18D
100
AcDbEntity
  8
0
  6
DASHED
 62
               6
100
AcDbLine
 10
291.72400055267036
 20
333.36209625633956
 30
0.0
 11
277.88728421294059
 21
310.30090235678995
 31
0.0
  0
LINE
  5
18E
100
AcDbEntity
  8
0
  6
DASHED
 62
               6
100
AcDbLine
 10
293.09598923381031
 20
327.8741415317794
 30
0.0
 11
283.19992558339362
 21
311.38070211441828
 31
0.0
  0
LINE
  5
18F
100
AcDbEntity
  8
0
  6
DASHED
 62
               6
100
AcDbLine
 10
293.78198357438038
 20
325.13016416949921
 30
0.0
 11
285.85624626862034
 21
311.92060199323248
 31
0.0
  0
LINE
  5
190
100
AcDbEntity
  8
0
  6
DASHED
 62
               6
100
AcDbLine
 10
294.46797791495038
 20
322.38618680721913
 30
0.0
 11
288.51256695384689
 21
312.46050187204662
 31
0.0
  0
LINE
  5
191
100
AcDbEntity
  8
0
  6
DASHED
 62
               6
100
AcDbLine
 10
295.15397225552039
 20
319.64220944493889
 30
0.0
 11
291.16888763907355
 21
313.00040175086082
 31
0.0
  0
LINE
  5
192
100
AcDbEntity
  8
0
  6
DASHED
 62
               6
100
AcDbLine
 10
295.83996659609039
 20
316.89823208265886
 30
0.0
 11
293.82520832430009
 21
313.54030162967501
 31
0.0
  0
LINE
  5
193
100
AcDbEntity
  8
0
  6
DASHED
 62
               6
100
AcDbLine
 10
296.5259609366604
 20
314.15425472037873
 30
0.0
 11
296.4815290095267
 21
314.08020150848921
 31
0.0
  0
LINE
  5
194
100
AcDbEntity
  8
0
  6
DASHED
 62
               6
100
AcDbLine
 10
287.60803450925027
 20
349.82596043002053
 30
0.0
 11
273.05589700707009
 21
325.57239792638688
 31
0.0
  0
LINE
  5
195
100
AcDbEntity
  8
0
  6
DASHED
 62
               6
100
AcDbLine
 10
286.92204016868027
 20
352.56993779230066
 30
0.0
 11
272.36990266650008
 21
328.31637528866702
 31
0.0
  0
LINE
  5
196
100
AcDbEntity
  8
0
  6
Continuous
 62
               4
100
AcDbLine
 10
400.0
 20
36.0
 30
0.0
 11
400.0
 21
20.0
 31
0.0
  0
LINE
  5
197
100
AcDbEntity
  8
0
  6
Continuous
 62
               4
100
AcDbLine
 10
400.0
 20
20.0
 30
0.0
 11
440.0
 21
20.0
 31
0.0
  0
LINE
  5
198
100
AcDbEntity
  8
0
  6
Continuous
 62
               4
100
AcDbLine
 10
440.0
 20
20.0
 30
0.0
 11
440.0
 21
36.0
 31
0.0
  0
LINE
  5
199
100
AcDbEntity
  8
0
  6
Continuous
 62
               4
100
AcDbLine
 10
440.0
 20
36.0
 30
0.0
 11
400.0
 21
36.0
 31
0.0
  0
CIRCLE
  5
19A
100
AcDbEntity
  8
0
  6
Continuous
 62
               4
100
AcDbCircle
 10
312.44651640977816
 20
139.14818093623217
 30
0.0
 40
1.0
  0
CIRCLE
  5
19B
100
AcDbEntity
  8
0
  6
Continuous
 62
               4
100
AcDbCircle
 10
258.53298794650527
 20
125.66979882041406
 30
0.0
 40
1.0
  0
CIRCLE
  5
19C
100
AcDbEntity
  8
0
  6
Continuous
 62
               4
100
AcDbCircle
 10
255.62256044606931
 20
137.31150882215806
 30
0.0
 40
1.0
  0
CIRCLE
  5
19D
100
AcDbEntity
  8
0
  6
Continuous
 62
               4
100
AcDbCircle
 10
290.13323890643477
 20
145.93917843724932
 30
0.0
 40
1.0
  0
CIRCLE
  5
19E
100
AcDbEntity
  8
0
  6
Continuous
 62
               4
100
AcDbCircle
 10
290.13323890643477
 20
145.93917843724932
 30
0.0
 40
1.0
  0
CIRCLE
  5
19F
100
AcDbEntity
  8
0
  6
Continuous
 62
               4
100
AcDbCircle
 10
309.5360889093422
 20
150.78989093797614
 30
0.0
 40
1.0
  0
CIRCLE
  5
1A0
100
AcDbEntity
  8
0
  6
Continuous
 62
               4
100
AcDbCircle
 10
278.49152890469094
 20
192.50601844422519
 30
0.0
 40
1.0
  0
CIRCLE
  5
1A1
100
AcDbEntity
  8
0
  6
Continuous
 62
               4
100
AcDbCircle
 10
258.5186083604803
 20
187.51278830817259
 30
0.0
 40
1.0
  0
CIRCLE
  5
1A2
100
AcDbEntity
  8
0
  6
Continuous
 62
               4
100
AcDbCircle
 10
258.5186083604803
 20
187.51278830817259
 30
0.0
 40
1.0
  0
CIRCLE
  5
1A3
100
AcDbEntity
  8
0
  6
Continuous
 62
               4
100
AcDbCircle
 10
243.98085044432548
 20
183.87834882913393
 30
0.0
 40
1.0
  0
CIRCLE
  5
1A4
100
AcDbEntity
  8
0
  6
Continuous
 62
               4
100
AcDbCircle
 10
428.61407738488447
 20
384.8154739837841
 30
0.0
 40
1.0
  0
CIRCLE
  5
1A5
100
AcDbEntity
  8
0
  6
Continuous
 62
               4
100
AcDbCircle
 10
437.17875378007363
 20
342.67705542962273
 30
0.0
 40
1.0
  0
CIRCLE
  5
1A6
100
AcDbEntity
  8
0
  6
Continuous
 62
               4
100
AcDbCircle
 10
599.68940312260736
 20
459.38411969853604
 30
0.0
 40
1.0
  0
CIRCLE
  5
1A7
100
AcDbEntity
  8
0
  6
Continuous
 62
               4
100
AcDbCircle
 10
256.70227535617715
 20
389.67163741211203
 30
0.0
 40
1.0
  0
CIRCLE
  5
1A8
100
AcDbEntity
  8
0
  6
Continuous
 62
               4
100
AcDbCircle
 10
602.07954537242767
 20
447.62456103225833
 30
0.0
 40
1.0
  0
CIRCLE
  5
1A9
100
AcDbEntity
  8
0
  6
Continuous
 62
               4
100
AcDbCircle
 10
559.94112681826573
 20
439.05988463706905
 30
0.0
 40
1.0
  0
CIRCLE
  5
1AA
100
AcDbEntity
  8
0
  6
Continuous
 62
               4
100
AcDbCircle
 10
259.09241760599741
 20
377.91207874583432
 30
0.0
 40
1.0
  0
CIRCLE
  5
1AB
100
AcDbEntity
  8
0
  6
Continuous
 62
               4
100
AcDbCircle
 10
202.25455071898989
 20
366.35972453837002
 30
0.0
 40
1.0
  0
ARC
  5
1AC
100
AcDbEntity
  8
0
  6
Continuous
 62
               2
100
AcDbCircle
 10
256.4207870263848
 20
278.72743314464157
 30
0.0
 40
0.499999999999958
100
AcDbArc
 50
194.03624346792645
 51
314.99999999736536
  0
ARC
  5
1AD
100
AcDbEntity
  8
0
  6
Continuous
 62
               7
100
AcDbCircle
 10
252.47760244078432
 20
289.85325977349322
 30
0.0
 40
0.5
100
AcDbArc
 50
194.0362434679264
 51
284.0362434679264
  0
ARC
  5
1AE
100
AcDbEntity
  8
0
  6
Continuous
 62
               7
100
AcDbCircle
 10
250.17351400293876
 20
299.06961352487377
 30
0.0
 40
0.5
100
AcDbArc
 50
104.03624346792616
 51
194.0362434679264
  0
ARC
  5
1AF
100
AcDbEntity
  8
0
  6
Continuous
 62
               7
100
AcDbCircle
 10
275.58718543010508
 20
352.09725570785434
 30
0.0
 40
6.7625000000001956
100
AcDbArc
 50
53.109553344186523
 51
154.96293359166734
  0
ARC
  5
1B0
100
AcDbEntity
  8
0
  6
Continuous
 62
               7
100
AcDbCircle
 10
559.25082758779172
 20
409.7521792555587
 30
0.0
 40
6.7625000000001956
100
AcDbArc
 50
53.109553344186523
 51
154.96293359166734
  0
ARC
  5
1B1
100
AcDbEntity
  8
0
  6
Continuous
 62
               7
100
AcDbCircle
 10
222.1118634975777
 20
262.47278489394438
 30
0.0
 40
4.0
100
AcDbArc
 50
270.00006100000002
 51
286.481628
  0
ARC
  5
1B2
100
AcDbEntity
  8
0
  6
Continuous
 62
               7
100
AcDbCircle
 10
93.98929949757769
 20
266.05481589394441
 30
0.0
 40
2.699999
100
AcDbArc
 50
170.00039700000002
 51
270.004211
  0
ARC
  5
1B3
100
AcDbEntity
  8
0
  6
Continuous
 62
               7
100
AcDbCircle
 10
93.989543497577671
 20
266.05457189394446
 30
0.0
 40
2.199999
100
AcDbArc
 50
170.00007600000001
 51
270.00622600000008
  0
ARC
  5
1B4
100
AcDbEntity
  8
0
  6
Continuous
 62
               7
100
AcDbCircle
 10
93.989543497577671
 20
266.05652489394441
 30
0.0
 40
1.0
100
AcDbArc
 50
169.99969500000003
 51
270.00814800000001
  0
ARC
  5
1B5
100
AcDbEntity
  8
0
  6
Continuous
 62
               7
100
AcDbCircle
 10
199.9331454975777
 20
239.39490389394442
 30
0.0
 40
1.7
100
AcDbArc
 50
179.99996899999999
 51
270.0
  0
ARC
  5
1B6
100
AcDbEntity
  8
0
  6
Continuous
 62
               7
100
AcDbCircle
 10
199.9331454975777
 20
239.38001189394438
 30
0.0
 40
1.2
100
AcDbArc
 50
179.99996899999999
 51
270.0
  0
ARC
  5
1B7
100
AcDbEntity
  8
0
  6
Continuous
 62
               7
100
AcDbCircle
 10
227.6821764975777
 20
232.04309789394441
 30
0.0
 40
1.4999990000000001
100
AcDbArc
 50
89.998123000000021
 51
185.00015299999998
  0
ARC
  5
1B8
100
AcDbEntity
  8
0
  6
Continuous
 62
               7
100
AcDbCircle
 10
227.6821764975777
 20
232.04309789394441
 30
0.0
 40
2.699999
100
AcDbArc
 50
89.656067000000007
 51
185.00015299999998
  0
ARC
  5
1B9
100
AcDbEntity
  8
0
  6
Continuous
 62
               7
100
AcDbCircle
 10
231.63334849757769
 20
236.24304889394446
 30
0.0
 40
4.199999
100
AcDbArc
 50
270.00006100000002
 51
0.0000309999999954
  0
ARC
  5
1BA
100
AcDbEntity
  8
0
  6
Continuous
 62
               7
100
AcDbCircle
 10
227.33329949757768
 20
255.47278489394449
 30
0.0
 40
8.5
100
AcDbArc
 50
0.0
 51
26.590236999999973
  0
ARC
  5
1BB
100
AcDbEntity
  8
0
  6
Continuous
 62
               7
100
AcDbCircle
 10
106.44926049757768
 20
255.05652489394441
 30
0.0
 40
10.0
100
AcDbArc
 50
29.999480999999999
 51
89.998947000000001
  0
ARC
  5
1BC
100
AcDbEntity
  8
0
  6
Continuous
 62
               7
100
AcDbCircle
 10
129.61967249757768
 20
254.37268689394449
 30
0.0
 40
15.0
100
AcDbArc
 50
205.32652299999998
 51
270.00097699999998
  0
ARC
  5
1BD
100
AcDbEntity
  8
0
  6
Continuous
 62
               7
100
AcDbCircle
 10
105.82645749757768
 20
255.55652489394441
 30
0.0
 40
6.0
100
AcDbArc
 50
25.325396000000008
 51
89.999985000000024
  0
ARC
  5
1BE
100
AcDbEntity
  8
0
  6
Continuous
 62
               7
100
AcDbCircle
 10
220.61308449757769
 20
254.47278489394449
 30
0.0
 40
4.0
100
AcDbArc
 50
89.997085999999982
 51
146.62536600000001
  0
ARC
  5
1BF
100
AcDbEntity
  8
0
  6
Continuous
 62
               7
100
AcDbCircle
 10
197.79545049757769
 20
254.37268689394449
 30
0.0
 40
15.0
100
AcDbArc
 50
270.00039700000002
 51
326.62719700000008
  0
ARC
  5
1C0
100
AcDbEntity
  8
0
  6
Continuous
 62
               7
100
AcDbCircle
 10
198.13993249757766
 20
255.37268689394449
 30
0.0
 40
10.0
100
AcDbArc
 50
270.00091600000002
 51
321.61044299999998
  0
ARC
  5
1C1
100
AcDbEntity
  8
0
  6
Continuous
 62
               7
100
AcDbCircle
 10
129.36063949757767
 20
255.37268689394449
 30
0.0
 40
10.0
100
AcDbArc
 50
210.00050400000001
 51
268.64730800000001
  0
ARC
  5
1C2
100
AcDbEntity
  8
0
  6
Continuous
 62
               7
100
AcDbCircle
 10
231.63334849757769
 20
236.24304889394446
 30
0.0
 40
2.699999
100
AcDbArc
 50
270.00006100000002
 51
0.0000309999999954
  0
ARC
  5
1C3
100
AcDbEntity
  8
0
  6
Continuous
 62
               7
100
AcDbCircle
 10
232.13334849757769
 20
235.74304889394446
 30
0.0
 40
1.0
100
AcDbArc
 50
270.00006100000002
 51
0.0000309999999954
  0
ARC
  5
1C4
100
AcDbEntity
  8
0
  6
Continuous
 62
               7
100
AcDbCircle
 10
227.33329949757768
 20
255.47278489394449
 30
0.0
 40
5.7999989999999997
100
AcDbArc
 50
0.0
 51
37.470684000000006
  0
ARC
  5
1C5
100
AcDbEntity
  8
0
  6
Continuous
 62
               7
100
AcDbCircle
 10
227.33329949757768
 20
255.47278489394449
 30
0.0
 40
7.0
100
AcDbArc
 50
0.0
 51
30.975250000000027
  0
ARC
  5
1C6
100
AcDbEntity
  8
0
  6
Continuous
 62
               7
100
AcDbCircle
 10
99.035289497577679
 20
273.54279189394441
 30
0.0
 40
1.0
100
AcDbArc
 50
0.0
 51
89.999985000000024
  0
ARC
  5
1C7
100
AcDbEntity
  8
0
  6
Continuous
 62
               7
100
AcDbCircle
 10
97.435192497577674
 20
273.54279189394441
 30
0.0
 40
1.0
100
AcDbArc
 50
89.999985000000024
 51
179.99996899999999
  0
ARC
  5
1C8
100
AcDbEntity
  8
0
  6
Continuous
 62
               7
100
AcDbCircle
 10
93.683727497577678
 20
246.74304889394446
 30
0.0
 40
16.0
100
AcDbArc
 50
10.154253999999984
 51
89.999923999999993
  0
ARC
  5
1C9
100
AcDbEntity
  8
0
  6
Continuous
 62
               7
100
AcDbCircle
 10
93.683727497577678
 20
246.74304889394446
 30
0.0
 40
15.0
100
AcDbArc
 50
10.154253999999984
 51
89.999923999999993
  0
ARC
  5
1CA
100
AcDbEntity
  8
0
  6
Continuous
 62
               7
100
AcDbCircle
 10
139.24693049757769
 20
219.23547989394444
 30
0.0
 40
24.0
100
AcDbArc
 50
190.15428199999999
 51
256.63262900000001
  0
ARC
  5
1CB
100
AcDbEntity
  8
0
  6
Continuous
 62
               7
100
AcDbCircle
 10
133.23573149757766
 20
193.94006989394444
 30
0.0
 40
2.0
100
AcDbArc
 50
0.0005469999999766
 51
76.632645000000011
  0
ARC
  5
1CC
100
AcDbEntity
  8
0
  6
Continuous
 62
               7
100
AcDbCircle
 10
133.23573149757766
 20
193.94006989394444
 30
0.0
 40
1.0
100
AcDbArc
 50
0.0005469999999766
 51
76.632645000000011
  0
ARC
  5
1CD
100
AcDbEntity
  8
0
  6
Continuous
 62
               7
100
AcDbCircle
 10
139.24693049757769
 20
219.23547989394444
 30
0.0
 40
25.0
100
AcDbArc
 50
190.15428199999999
 51
256.63262900000001
  0
ARC
  5
1CE
100
AcDbEntity
  8
0
  6
Continuous
 62
               7
100
AcDbCircle
 10
225.43565549757767
 20
238.74304889394446
 30
0.0
 40
1.0
100
AcDbArc
 50
180.00003100000004
 51
270.00012199999998
  0
ARC
  5
1CF
100
AcDbEntity
  8
0
  6
Continuous
 62
               7
100
AcDbCircle
 10
225.43565549757767
 20
252.74304889394446
 30
0.0
 40
1.0
100
AcDbArc
 50
89.999985000000024
 51
180.00001500000002
  0
ARC
  5
1D0
100
AcDbEntity
  8
0
  6
Continuous
 62
               7
100
AcDbCircle
 10
231.23570449757767
 20
235.74307889394439
 30
0.0
 40
1.0
100
AcDbArc
 50
270.00006100000002
 51
0.0
  0
ARC
  5
1D1
100
AcDbEntity
  8
0
  6
Continuous
 62
               7
100
AcDbCircle
 10
226.82139749757766
 20
253.74304889394446
 30
0.0
 40
1.0
100
AcDbArc
 50
44.999995999999989
 51
89.999985000000024
  0
ARC
  5
1D2
100
AcDbEntity
  8
0
  6
Continuous
 62
               7
100
AcDbCircle
 10
231.23570449757767
 20
249.32849789394439
 30
0.0
 40
1.0
100
AcDbArc
 50
0.0
 51
44.999995999999989
  0
ARC
  5
1D3
100
AcDbEntity
  8
0
  6
Continuous
 62
               7
100
AcDbCircle
 10
230.23570449757767
 20
248.91443489394445
 30
0.0
 40
1.0
100
AcDbArc
 50
0.0
 51
44.999995999999989
  0
ARC
  5
1D4
100
AcDbEntity
  8
0
  6
Continuous
 62
               7
100
AcDbCircle
 10
226.40733549757766
 20
252.74304889394446
 30
0.0
 40
1.0
100
AcDbArc
 50
44.999995999999989
 51
89.999985000000024
  0
ARC
  5
1D5
100
AcDbEntity
  8
0
  6
Continuous
 62
               7
100
AcDbCircle
 10
137.23570049757768
 20
182.74304889394443
 30
0.0
 40
2.0
100
AcDbArc
 50
180.00003100000004
 51
270.00012199999998
  0
ARC
  5
1D6
100
AcDbEntity
  8
0
  6
Continuous
 62
               7
100
AcDbCircle
 10
137.23570049757768
 20
182.74304889394443
 30
0.0
 40
3.0
100
AcDbArc
 50
180.00003100000004
 51
270.00012199999998
  0
ARC
  5
1D7
100
AcDbEntity
  8
0
  6
Continuous
 62
               7
100
AcDbCircle
 10
221.23570449757767
 20
182.74304889394443
 30
0.0
 40
2.0
100
AcDbArc
 50
270.00006100000002
 51
0.0
  0
ARC
  5
1D8
100
AcDbEntity
  8
0
  6
Continuous
 62
               7
100
AcDbCircle
 10
221.23570449757767
 20
182.74304889394443
 30
0.0
 40
3.0
100
AcDbArc
 50
270.00006100000002
 51
0.0
  0
ARC
  5
1D9
100
AcDbEntity
  8
0
  6
Continuous
 62
               7
100
AcDbCircle
 10
224.23570449757767
 20
253.74304889394446
 30
0.0
 40
1.0
100
AcDbArc
 50
89.999985000000024
 51
180.00001500000002
  0
ARC
  5
1DA
100
AcDbEntity
  8
0
  6
Continuous
 62
               7
100
AcDbCircle
 10
225.23570449757767
 20
235.74307889394439
 30
0.0
 40
1.0
100
AcDbArc
 50
89.999985000000024
 51
180.00001500000002
  0
ARC
  5
1DB
100
AcDbEntity
  8
0
  6
Continuous
 62
               7
100
AcDbCircle
 10
230.23570449757767
 20
238.74304889394446
 30
0.0
 40
1.0
100
AcDbArc
 50
270.00006100000002
 51
0.0
  0
ARC
  5
1DC
100
AcDbEntity
  8
0
  6
Continuous
 62
               7
100
AcDbCircle
 10
97.235240497577678
 20
269.54303689394447
 30
0.0
 40
0.8
100
AcDbArc
 50
179.99996899999999
 51
270.0
  0
ARC
  5
1DD
100
AcDbEntity
  8
0
  6
Continuous
 62
               7
100
AcDbCircle
 10
97.235240497577678
 20
269.54279189394441
 30
0.0
 40
2.0
100
AcDbArc
 50
179.99996899999999
 51
270.0
  0
ARC
  5
1DE
100
AcDbEntity
  8
0
  6
Continuous
 62
               7
100
AcDbCircle
 10
88.735240497577678
 20
271.04645389394449
 30
0.0
 40
0.5
100
AcDbArc
 50
180.00997900000002
 51
316.60665900000004
  0
ARC
  5
1DF
100
AcDbEntity
  8
0
  6
Continuous
 62
               7
100
AcDbCircle
 10
89.235240497577678
 20
267.64484289394449
 30
0.0
 40
1.0
100
AcDbArc
 50
136.61897300000001
 51
180.00706500000001
  0
ARC
  5
1E0
100
AcDbEntity
  8
0
  6
Continuous
 62
               7
100
AcDbCircle
 10
92.446910497577676
 20
271.04279189394441
 30
0.0
 40
1.0
100
AcDbArc
 50
89.999762999999973
 51
136.61372400000002
  0
ARC
  5
1E1
100
AcDbEntity
  8
0
  6
Continuous
 62
               7
100
AcDbCircle
 10
91.92982049757768
 20
272.24274389394446
 30
0.0
 40
1.0
100
AcDbArc
 50
89.999710000000007
 51
136.61367800000002
  0
ARC
  5
1E2
100
AcDbEntity
  8
0
  6
Continuous
 62
               7
100
AcDbCircle
 10
93.235240497577678
 20
274.24274389394446
 30
0.0
 40
1.0
100
AcDbArc
 50
270.00006100000002
 51
0.0
  0
ARC
  5
1E3
100
AcDbEntity
  8
0
  6
Continuous
 62
               7
100
AcDbCircle
 10
100.23524049757768
 20
270.9566108939444
 30
0.0
 40
1.0
100
AcDbArc
 50
314.99353000000002
 51
359.990814
  0
ARC
  5
1E4
100
AcDbEntity
  8
0
  6
Continuous
 62
               7
100
AcDbCircle
 10
97.821178497577677
 20
268.54279189394441
 30
0.0
 40
1.0
100
AcDbArc
 50
270.000519
 51
315.00036599999999
  0
ARC
  5
1E5
100
AcDbEntity
  8
0
  6
Continuous
 62
               7
100
AcDbCircle
 10
89.235240497577678
 20
275.91437389394451
 30
0.0
 40
1.0
100
AcDbArc
 50
139.61485300000001
 51
179.99996899999999
  0
ARC
  5
1E6
100
AcDbEntity
  8
0
  6
Continuous
 62
               7
100
AcDbCircle
 10
93.235240497577678
 20
277.74298789394442
 30
0.0
 40
1.0
100
AcDbArc
 50
0.0
 51
89.999985000000024
  0
ARC
  5
1E7
100
AcDbEntity
  8
0
  6
Continuous
 62
               7
100
AcDbCircle
 10
99.235240497577678
 20
275.74298789394442
 30
0.0
 40
2.0
100
AcDbArc
 50
0.0
 51
89.999985000000024
  0
ARC
  5
1E8
100
AcDbEntity
  8
0
  6
Continuous
 62
               7
100
AcDbCircle
 10
96.235240497577678
 20
276.74298789394442
 30
0.0
 40
1.0
100
AcDbArc
 50
180.00003100000004
 51
270.00012199999998
  0
ARC
  5
1E9
100
AcDbEntity
  8
0
  6
Continuous
 62
               7
100
AcDbCircle
 10
91.270885497577694
 20
277.24298789394442
 30
0.0
 40
1.5
100
AcDbArc
 50
89.999985000000024
 51
135.0
  0
ARC
  5
1EA
100
AcDbEntity
  8
0
  6
Continuous
 62
               7
100
AcDbCircle
 10
90.856578497577686
 20
278.24298789394442
 30
0.0
 40
1.5
100
AcDbArc
 50
89.999985000000024
 51
135.0
  0
ARC
  5
1EB
100
AcDbEntity
  8
0
  6
Continuous
 62
               7
100
AcDbCircle
 10
88.735240497577678
 20
276.12140589394443
 30
0.0
 40
1.5
100
AcDbArc
 50
138.59054599999999
 51
179.99996899999999
  0
ARC
  5
1EC
100
AcDbEntity
  8
0
  6
Continuous
 62
               7
100
AcDbCircle
 10
89.235240497577678
 20
263.74298789394442
 30
0.0
 40
1.0
100
AcDbArc
 50
180.00003100000004
 51
270.00012199999998
  0
ARC
  5
1ED
100
AcDbEntity
  8
0
  6
Continuous
 62
               7
100
AcDbCircle
 10
89.235240497577678
 20
261.74298789394442
 30
0.0
 40
2.0
100
AcDbArc
 50
180.00003100000004
 51
270.00012199999998
  0
ARC
  5
1EE
100
AcDbEntity
  8
0
  6
Continuous
 62
               7
100
AcDbCircle
 10
270.6182114975777
 20
256.14984789394447
 30
0.0
 40
12.5
100
AcDbArc
 50
26.565044000000029
 51
93.070449999999965
  0
ARC
  5
1EF
100
AcDbEntity
  8
0
  6
Continuous
 62
               7
100
AcDbCircle
 10
181.1234604975777
 20
255.66599189394441
 30
0.0
 40
3.0
100
AcDbArc
 50
343.51208500000001
 51
359.99774200000002
  0
ARC
  5
1F0
100
AcDbEntity
  8
0
  6
Continuous
 62
               7
100
AcDbCircle
 10
174.41130249757768
 20
257.65256389394443
 30
0.0
 40
10.0
100
AcDbArc
 50
290.79147300000005
 51
343.51419100000004
  0
ARC
  5
1F1
100
AcDbEntity
  8
0
  6
Continuous
 62
               7
100
AcDbCircle
 10
165.46354849757768
 20
248.7712158939444
 30
0.0
 40
0.5
100
AcDbArc
 50
249.20918300000002
 51
270.00060999999999
  0
ARC
  5
1F2
100
AcDbEntity
  8
0
  6
Continuous
 62
               7
100
AcDbCircle
 10
162.12370449757768
 20
255.66599189394441
 30
0.0
 40
3.0
100
AcDbArc
 50
180.00225800000004
 51
196.48793000000003
  0
ARC
  5
1F3
100
AcDbEntity
  8
0
  6
Continuous
 62
               7
100
AcDbCircle
 10
168.83586349757769
 20
257.65256389394443
 30
0.0
 40
10.0
100
AcDbArc
 50
196.485794
 51
249.20863300000002
  0
ARC
  5
1F4
100
AcDbEntity
  8
0
  6
Continuous
 62
               7
100
AcDbCircle
 10
159.6234604975777
 20
257.77121589394443
 30
0.0
 40
0.5
100
AcDbArc
 50
90.000252000000032
 51
180.00001500000002
  0
ARC
  5
1F5
100
AcDbEntity
  8
0
  6
Continuous
 62
               7
100
AcDbCircle
 10
165.46867549757769
 20
248.7712158939444
 30
0.0
 40
0.5
100
AcDbArc
 50
248.11941499999998
 51
269.99951199999998
  0
ARC
  5
1F6
100
AcDbEntity
  8
0
  6
Continuous
 62
               7
100
AcDbCircle
 10
183.6234604975777
 20
257.77121589394443
 30
0.0
 40
0.5
100
AcDbArc
 50
359.99996900000002
 51
89.999756000000005
  0
ARC
  5
1F7
100
AcDbEntity
  8
0
  6
Continuous
 62
               7
100
AcDbCircle
 10
177.77848949757768
 20
248.7712158939444
 30
0.0
 40
0.5
100
AcDbArc
 50
270.00060999999999
 51
291.88070699999997
  0
ARC
  5
1F8
100
AcDbEntity
  8
0
  6
Continuous
 62
               7
100
AcDbCircle
 10
205.26896849757765
 20
252.6444158939444
 30
0.0
 40
5.0
100
AcDbArc
 50
93.068321000000026
 51
140.40841699999999
  0
ARC
  5
1F9
100
AcDbEntity
  8
0
  6
Continuous
 62
               7
100
AcDbCircle
 10
166.12443749757767
 20
241.07163089394444
 30
0.0
 40
2.0
100
AcDbArc
 50
179.99996899999999
 51
270.0
  0
ARC
  5
1FA
100
AcDbEntity
  8
0
  6
Continuous
 62
               7
100
AcDbCircle
 10
179.31682049757768
 20
256.57163089394447
 30
0.0
 40
17.5
100
AcDbArc
 50
270.00006100000002
 51
320.40976000000006
  0
ARC
  5
1FB
100
AcDbEntity
  8
0
  6
Continuous
 62
               7
100
AcDbCircle
 10
261.7506884975777
 20
268.90830089394439
 30
0.0
 40
1.2
100
AcDbArc
 50
60.000206000000006
 51
99.309585999999967
  0
ARC
  5
1FC
100
AcDbEntity
  8
0
  6
Continuous
 62
               7
100
AcDbCircle
 10
205.2672594975777
 20
252.64560589394446
 30
0.0
 40
12.5
100
AcDbArc
 50
93.070510999999982
 51
140.40979000000002
  0
ARC
  5
1FD
100
AcDbEntity
  8
0
  6
Continuous
 62
               7
100
AcDbCircle
 10
179.31682049757768
 20
256.57163089394447
 30
0.0
 40
10.0
100
AcDbArc
 50
270.00006100000002
 51
320.40976000000006
  0
ARC
  5
1FE
100
AcDbEntity
  8
0
  6
Continuous
 62
               7
100
AcDbCircle
 10
289.98488613629621
 20
219.92402419202335
 30
0.0
 40
1.0
100
AcDbArc
 50
14.036099524792983
 51
54.896235524792999
  0
ARC
  5
1FF
100
AcDbEntity
  8
0
  6
Continuous
 62
               7
100
AcDbCircle
 10
287.11248159173613
 20
231.41368090892485
 30
0.0
 40
1.0
100
AcDbArc
 50
333.17586052479294
 51
14.036181524793029
  0
ARC
  5
200
100
AcDbEntity
  8
0
  6
Continuous
 62
               7
100
AcDbCircle
 10
284.89183426494964
 20
240.29630628602629
 30
0.0
 40
1.0
100
AcDbArc
 50
14.035609524792969
 51
54.896075524792948
  0
ARC
  5
201
100
AcDbEntity
  8
0
  6
Continuous
 62
               7
100
AcDbCircle
 10
282.01948449527509
 20
251.78571624451993
 30
0.0
 40
1.0
100
AcDbArc
 50
333.17546452479314
 51
14.035449524792984
  0
ARC
  5
202
100
AcDbEntity
  8
0
  6
Continuous
 62
               7
100
AcDbCircle
 10
287.42766241620291
 20
225.38860137221235
 30
0.0
 40
2.0
100
AcDbArc
 50
153.17561652479299
 51
234.89581652479305
  0
ARC
  5
203
100
AcDbEntity
  8
0
  6
Continuous
 62
               7
100
AcDbCircle
 10
282.33461054485628
 20
245.76088346621523
 30
0.0
 40
2.0
100
AcDbArc
 50
153.17637952479294
 51
234.89657952479291
  0
ARC
  5
204
100
AcDbEntity
  8
0
  6
Continuous
 62
               7
100
AcDbCircle
 10
271.15030049757769
 20
257.06778589394452
 30
0.0
 40
6.0
100
AcDbArc
 50
29.60897534759739
 51
103.03225699999999
  0
TEXT
  5
205
100
AcDbEntity
  8
0
 62
               7
100
AcDbText
 10
281.6091821775604
 20
131.4388473781778
 30
0.0
 40
8.0000000000000426
  1
55
 50
14.03624346792647
 41
0.7695
  7
FontTableH_0
 72
               5
 11
289.37032217872303
 21
133.37913237846846
 31
0.0
100
AcDbText
  0
TEXT
  5
206
100
AcDbEntity
  8
0
 62
               7
100
AcDbText
 10
268.9973296756707
 20
140.65520112955835
 30
0.0
 40
8.0000000000000426
  1
35
 50
14.03624346792647
 41
0.7695
  7
FontTableH_0
 72
               5
 11
276.75846967683333
 21
142.59548612984901
 31
0.0
100
AcDbText
  0
TEXT
  5
207
100
AcDbEntity
  8
0
 62
               7
100
AcDbText
 10
295.9540939073072
 20
147.39439218746742
 30
0.0
 40
8.0000000000000426
  1
20
 50
14.03624346792647
 41
0.7695
  7
FontTableH_0
 72
               5
 11
303.71523390846983
 21
149.33467718775807
 31
0.0
100
AcDbText
  0
TEXT
  5
208
100
AcDbEntity
  8
0
 62
               7
100
AcDbText
 10
264.6244986320043
 20
189.03926087605356
 30
0.0
 40
8.0000000000000426
  1
20
 50
14.03624346792647
 41
0.7695
  7
FontTableH_0
 72
               5
 11
272.38563863316693
 21
190.97954587634422
 31
0.0
100
AcDbText
  0
TEXT
  5
209
100
AcDbEntity
  8
0
 62
               7
100
AcDbText
 10
247.36915940182155
 20
184.72542606850794
 30
0.0
 40
8.0000000000000302
  1
15
 50
14.03624346792647
 41
0.7695
  7
FontTableH_0
 72
               5
 11
255.13029940298418
 21
186.6657110687986
 31
0.0
100
AcDbText
  0
TEXT
  5
20A
100
AcDbEntity
  8
0
 62
               7
100
AcDbText
 10
432.09970149920565
 20
367.66611759546265
 30
0.0
 40
7.9999999999998561
  1
43
 50
281.48892528535538
 41
0.7695
  7
FontTableH_0
 72
               5
 11
433.69312966575245
 21
359.82641181794429
 31
0.0
100
AcDbText
  0
TEXT
  5
20B
100
AcDbEntity
  8
0
 62
               7
100
AcDbText
 10
422.31605990625349
 20
423.33280743041388
 30
0.0
 40
7.999999999999968
  1
350
 50
11.488925285355299
 41
0.7695
  7
FontTableH_0
 72
               5
 11
434.07561857253108
 21
425.72294968023408
 31
0.0
100
AcDbText
  0
TEXT
  5
20C
100
AcDbEntity
  8
0
 62
               7
100
AcDbText
 10
577.09048320658746
 20
442.54550875139029
 30
0.0
 40
7.999999999999968
  1
43
 50
11.488925285355183
 41
0.7695
  7
FontTableH_0
 72
               5
 11
584.93018898410594
 21
444.13893691793709
 31
0.0
100
AcDbText
  0
TEXT
  5
20D
100
AcDbEntity
  8
0
 62
               7
100
AcDbText
 10
226.7536312737345
 20
371.33918755882877
 30
0.0
 40
7.999999999999968
  1
58
 50
11.488925285355412
 41
0.7695
  7
FontTableH_0
 72
               5
 11
234.5933370512528
 21
372.93261572537557
 31
0.0
100
AcDbText
  0
TEXT
  5
20E
100
AcDbEntity
  8
0
 62
               7
100
AcDbText
 10
308.58987506341964
 20
379.60558409436845
 30
0.0
 40
8.0000000000001137
  1
ケミカル面戸
 41
0.7695
  7
FontTableH_0
 72
               5
 11
356.58987506341964
 21
379.60558409436845
 31
0.0
100
AcDbText
  0
TEXT
  5
20F
100
AcDbEntity
  8
0
 62
               7
100
AcDbText
 10
341.49763127853885
 20
457.14041095890406
 30
0.0
 40
8.0
  1
アスファルトルーフィング 22kg
 41
0.7695
  7
FontTableH_0
 72
               5
 11
457.49763127853885
 21
457.14041095890406
 31
0.0
100
AcDbText
  0
TEXT
  5
210
100
AcDbEntity
  8
0
 62
               7
100
AcDbText
 10
314.34786681182698
 20
420.44835884209925
 30
0.0
 40
8.0
  1
フィンルーフ釘95
 41
0.7695
  7
FontTableH_0
 72
               5
 11
378.34786681182698
 21
420.44835884209925
 31
0.0
100
AcDbText
  0
TEXT
  5
211
100
AcDbEntity
  8
0
 62
               7
100
AcDbText
 10
411.72201064744354
 20
477.12786797451935
 30
0.0
 40
8.0
  1
フィンルーフ本体
 41
0.7695
  7
FontTableH_0
 72
               5
 11
475.72201064744354
 21
477.12786797451935
 31
0.0
100
AcDbText
  0
TEXT
  5
212
100
AcDbEntity
  8
0
 62
               7
100
AcDbText
 10
482.1479970874459
 20
496.24994880189837
 30
0.0
 40
8.0
  1
タッピング 70
 41
0.7695
  7
FontTableH_0
 72
               5
 11
534.1479970874459
 21
496.24994880189837
 31
0.0
100
AcDbText
  0
TEXT
  5
213
100
AcDbEntity
  8
0
 62
               7
100
AcDbText
 10
601.27397260273972
 20
277.94589041095895
 30
0.0
 40
8.0
  1
たる木
 41
0.7695
  7
FontTableH_0
 72
               5
 11
625.27397260273972
 21
277.94589041095895
 31
0.0
100
AcDbText
  0
TEXT
  5
214
100
AcDbEntity
  8
0
 62
               7
100
AcDbText
 10
455.69521054421051
 20
296.36390650543996
 30
0.0
 40
8.0
  1
野地板 12
 41
0.7695
  7
FontTableH_0
 72
               5
 11
491.69521054421051
 21
296.36390650543996
 31
0.0
100
AcDbText
  0
TEXT
  5
215
100
AcDbEntity
  8
0
 62
               7
100
AcDbText
 10
320.83583025924509
 20
266.69890063912845
 30
0.0
 40
8.0
  1
広小舞 15X60
 41
0.7695
  7
FontTableH_0
 72
               5
 11
368.83583025924509
 21
266.69890063912845
 31
0.0
100
AcDbText
  0
TEXT
  5
216
100
AcDbEntity
  8
0
 62
               7
100
AcDbText
 10
336.82191780821921
 20
159.11198630136985
 30
0.0
 40
8.0
  1
鼻隠し
 41
0.7695
  7
FontTableH_0
 72
               5
 11
360.82191780821921
 21
159.11198630136985
 31
0.0
100
AcDbText
  0
TEXT
  5
217
100
AcDbEntity
  8
0
 62
               7
100
AcDbText
 10
101.39212328767124
 20
146.86883561643836
 30
0.0
 40
8.0
  1
軒どい
 41
0.7695
  7
FontTableH_0
 72
               5
 11
125.39212328767124
 21
146.86883561643836
 31
0.0
100
AcDbText
  0
TEXT
  5
218
100
AcDbEntity
  8
0
 62
               7
100
AcDbText
 10
118.33761415525117
 20
307.84303652968032
 30
0.0
 40
8.0
  1
軒どい受金物
 41
0.7695
  7
FontTableH_0
 72
               5
 11
166.33761415525117
 21
307.84303652968032
 31
0.0
100
AcDbText
  0
TEXT
  5
219
100
AcDbEntity
  8
0
 62
               7
100
AcDbText
 10
160.72055745814316
 20
387.39081525875184
 30
0.0
 40
8.0
  1
軒先面戸
 41
0.7695
  7
FontTableH_0
 72
               5
 11
192.72055745814316
 21
387.39081525875184
 31
0.0
100
AcDbText
  0
TEXT
  5
21A
100
AcDbEntity
  8
0
 62
               7
100
AcDbText
 10
100.3527247886602
 20
406.52659203708396
 30
0.0
 40
8.0000000000001137
  1
カラーステンレスくぎ 32
 41
0.7695
  7
FontTableH_0
 72
               5
 11
192.3527247886602
 21
406.52659203708396
 31
0.0
100
AcDbText
  0
TEXT
  5
21B
100
AcDbEntity
  8
図枠
 62
               7
100
AcDbText
 10
404.0
 20
24.0
 30
0.0
 40
8.0
  1
軒先納め
 41
0.7695
  7
FontTableH_0
 72
               5
 11
436.0
 21
24.0
 31
0.0
100
AcDbText
  0
ENDSEC
  0
SECTION
  2
OBJECTS
  0
DICTIONARY
  5
19
100
AcDbDictionary
  3
ACAD_GROUP
350
1A
  3
ACAD_MLINESTYLE
350
1B
  3
DWGPROPS
350
21C
  0
DICTIONARY
  5
1A
102
{ACAD_REACTORS
330
19
102
}
100
AcDbDictionary
  0
DICTIONARY
  5
1B
102
{ACAD_REACTORS
330
19
102
}
100
AcDbDictionary
  3
STANDARD
350
1C
  0
MLINESTYLE
  5
1C
102
{ACAD_REACTORS
330
1B
102
}
100
AcDbMlineStyle
  2
Standard
 70
               0
  3

 62
               0
 51
90.0
 52
90.0
 71
               2
 49
0.5
 62
             256
  6
ByLayer
 49
-0.5
 62
             256
  6
ByLayer
  0
XRECORD
  5
21C
100
AcDbXrecord
  1
DWGPROPS COOKIE
  2

  3

  4

  6

  7

  0
ENDSEC
  0
EOF
