  0
SECTION
  2
HEADER
  9
$ACADVER
  1
AC1014
  9
$ACADMAINTVER
 70
               0
  9
$DWGCODEPAGE
  3
ANSI_932
  9
$INSBASE
 10
0.0
 20
0.0
 30
0.0
  9
$EXTMIN
 10
0.0
 20
0.0
 30
0.0
  9
$EXTMAX
 10
840.0
 20
594.0
 30
0.0
  9
$LIMMIN
 10
0.0
 20
0.0
  9
$LIMMAX
 10
840.0
 20
594.0
  9
$ORTHOMODE
 70
               0
  9
$REGENMODE
 70
               1
  9
$FILLMODE
 70
               1
  9
$QTEXTMODE
 70
               0
  9
$MIRRTEXT
 70
               1
  9
$DRAGMODE
 70
               2
  9
$LTSCALE
 40
2.0
  9
$OSMODE
 70
               0
  9
$ATTMODE
 70
               1
  9
$TEXTSIZE
 40
0.2
  9
$TRACEWID
 40
0.05
  9
$TEXTSTYLE
  7
Standard
  9
$CLAYER
  8
0
  9
$CELTYPE
  6
Continuous
  9
$CECOLOR
 62
             256
  9
$CELTSCALE
 40
1.0
  9
$DELOBJ
 70
               1
  9
$DISPSILH
 70
               0
  9
$DIMSCALE
 40
1.0
  9
$DIMASZ
 40
0.18
  9
$DIMEXO
 40
0.0625
  9
$DIMDLI
 40
0.38
  9
$DIMRND
 40
0.0
  9
$DIMDLE
 40
0.0
  9
$DIMEXE
 40
0.18
  9
$DIMTP
 40
0.0
  9
$DIMTM
 40
0.0
  9
$DIMTXT
 40
0.18
  9
$DIMCEN
 40
0.09
  9
$DIMTSZ
 40
0.0
  9
$DIMTOL
 70
               0
  9
$DIMLIM
 70
               0
  9
$DIMTIH
 70
               1
  9
$DIMTOH
 70
               1
  9
$DIMSE1
 70
               0
  9
$DIMSE2
 70
               0
  9
$DIMTAD
 70
               0
  9
$DIMZIN
 70
               0
  9
$DIMBLK
  1

  9
$DIMASO
 70
               1
  9
$DIMSHO
 70
               1
  9
$DIMPOST
  1

  9
$DIMAPOST
  1

  9
$DIMALT
 70
               0
  9
$DIMALTD
 70
               2
  9
$DIMALTF
 40
25.399999999999999
  9
$DIMLFAC
 40
1.0
  9
$DIMTOFL
 70
               0
  9
$DIMTVP
 40
0.0
  9
$DIMTIX
 70
               0
  9
$DIMSOXD
 70
               0
  9
$DIMSAH
 70
               0
  9
$DIMBLK1
  1

  9
$DIMBLK2
  1

  9
$DIMSTYLE
  2
Standard
  9
$DIMCLRD
 70
               0
  9
$DIMCLRE
 70
               0
  9
$DIMCLRT
 70
               0
  9
$DIMTFAC
 40
1.0
  9
$DIMGAP
 40
0.09
  9
$DIMJUST
 70
               0
  9
$DIMSD1
 70
               0
  9
$DIMSD2
 70
               0
  9
$DIMTOLJ
 70
               1
  9
$DIMTZIN
 70
               0
  9
$DIMALTZ
 70
               0
  9
$DIMALTTZ
 70
               0
  9
$DIMFIT
 70
               3
  9
$DIMUPT
 70
               0
  9
$DIMUNIT
 70
               2
  9
$DIMDEC
 70
               4
  9
$DIMTDEC
 70
               4
  9
$DIMALTU
 70
               2
  9
$DIMALTTD
 70
               2
  9
$DIMTXSTY
  7
Standard
  9
$DIMAUNIT
 70
               0
  9
$LUNITS
 70
               2
  9
$LUPREC
 70
               4
  9
$SKETCHINC
 40
0.1
  9
$FILLETRAD
 40
0.0
  9
$AUNITS
 70
               0
  9
$AUPREC
 70
               0
  9
$MENU
  1
acad
  9
$ELEVATION
 40
0.0
  9
$PELEVATION
 40
0.0
  9
$THICKNESS
 40
0.0
  9
$LIMCHECK
 70
               0
  9
$BLIPMODE
 70
               1
  9
$CHAMFERA
 40
0.0
  9
$CHAMFERB
 40
0.0
  9
$CHAMFERC
 40
0.0
  9
$CHAMFERD
 40
0.0
  9
$SKPOLY
 70
               0
  9
$TDCREATE
 40
0.000000000
  9
$TDUPDATE
 40
0.000000000
  9
$TDINDWG
 40
0.0000000000
  9
$TDUSRTIMER
 40
0.0000000000
  9
$USRTIMER
 70
               1
  9
$ANGBASE
 50
0.0
  9
$ANGDIR
 70
               0
  9
$PDMODE
 70
               0
  9
$PDSIZE
 40
0.0
  9
$PLINEWID
 40
0.0
  9
$COORDS
 70
               0
  9
$SPLFRAME
 70
               0
  9
$SPLINETYPE
 70
               6
  9
$SPLINESEGS
 70
               8
  9
$ATTDIA
 70
               0
  9
$ATTREQ
 70
               1
  9
$HANDLING
 70
               1
  9
$HANDSEED
  5
182
  9
$SURFTAB1
 70
               6
  9
$SURFTAB2
 70
               6
  9
$SURFTYPE
 70
               6
  9
$SURFU
 70
               6
  9
$SURFV
 70
               6
  9
$UCSNAME
  2

  9
$UCSORG
 10
0.0
 20
0.0
 30
0.0
  9
$UCSXDIR
 10
1.0
 20
0.0
 30
0.0
  9
$UCSYDIR
 10
0.0
 20
1.0
 30
0.0
  9
$PUCSNAME
  2

  9
$PUCSORG
 10
0.0
 20
0.0
 30
0.0
  9
$PUCSXDIR
 10
1.0
 20
0.0
 30
0.0
  9
$PUCSYDIR
 10
0.0
 20
1.0
 30
0.0
  9
$USERI1
 70
               0
  9
$USERI2
 70
               0
  9
$USERI3
 70
               0
  9
$USERI4
 70
               0
  9
$USERI5
 70
               0
  9
$USERR1
 40
0.0
  9
$USERR2
 40
0.0
  9
$USERR3
 40
0.0
  9
$USERR4
 40
0.0
  9
$USERR5
 40
0.0
  9
$WORLDVIEW
 70
               1
  9
$SHADEDGE
 70
               3
  9
$SHADEDIF
 70
              70
  9
$TILEMODE
 70
               1
  9
$MAXACTVP
 70
              16
  9
$PINSBASE
 10
0.0
 20
0.0
 30
0.0
  9
$PLIMCHECK
 70
               0
  9
$PEXTMIN
 10
1.0000000000000000E+20
 20
1.0000000000000000E+20
 30
1.0000000000000000E+20
  9
$PEXTMAX
 10
-1.0000000000000000E+20
 20
-1.0000000000000000E+20
 30
-1.0000000000000000E+20
  9
$PLIMMIN
 10
0.0
 20
0.0
  9
$PLIMMAX
 10
12.0
 20
9.0
  9
$UNITMODE
 70
               0
  9
$VISRETAIN
 70
               0
  9
$PLINEGEN
 70
               1
  9
$PSLTSCALE
 70
               0
  9
$TREEDEPTH
 70
            3020
  9
$PICKSTYLE
 70
               1
  9
$CMLSTYLE
  2
Standard
  9
$CMLJUST
 70
               0
  9
$CMLSCALE
 40
1.0
  9
$PROXYGRAPHICS
 70
               0
  9
$MEASUREMENT
 70
               0
  0
ENDSEC
  0
SECTION
  2
CLASSES
  0
CLASS
  1
LWPOLYLINE
  2
AcDbPolyline
  3
"AutoCAD"
 90
        0
280
               0
281
               1
  0
CLASS
  1
IMAGE
  2
AcDbRasterImage
  3
ISM
 90
      127
280
               0
281
               1
  0
CLASS
  1
OLE2FRAME
  2
AcDbOle2Frame
  3
""
 90
        0
280
               0
281
               1
  0
CLASS
  1
HATCH
  2
AcDbHatch
  3
"ACAD_SEDONA"
 90
        0
280
               0
281
               1
  0
CLASS
  1
DICTIONARYVAR
  2
AcDbDictionaryVar
  3
"AutoCAD"
 90
        0
280
               0
281
               0
  0
CLASS
  1
RASTERVARIABLES
  2
AcDbRasterVariables
  3
ISM
 90
        0
280
               0
281
               0
  0
CLASS
  1
IMAGEDEF
  2
AcDbRasterImageDef
  3
ISM
 90
        0
280
               0
281
               0
  0
CLASS
  1
IMAGEDEF_REACTOR
  2
AcDbRasterImageDefReactor
  3
ISM
 90
        1
280
               0
281
               0
  0
CLASS
  1
IDBUFFER
  2
AcDbIdBuffer
  3
"Acad"
 90
        0
280
               0
281
               0
  0
CLASS
  1
SPATIAL_FILTER
  2
AcDbSpatialFilter
  3
"Acad"
 90
        0
280
               0
281
               0
  0
CLASS
  1
XRECORD
  2
AcDbXrecord
  3
"<Built In>"
 90
        0
280
               0
281
               0
  0
CLASS
  1
SORTENTSTABLE
  2
AcDbSortentsTable
  3
"AutoCAD"
 90
        0
280
               0
281
               0
  0
CLASS
  1
LAYER_INDEX
  2
AcDbLayerIndex
  3
"Acad"
 90
        0
280
               0
281
               0
  0
CLASS
  1
SPATIAL_INDEX
  2
AcDbSpatialIndex
  3
"Acad"
 90
        0
280
               0
281
               0
  0
CLASS
  1
OBJECT_PTR
  2
CAseDLPNTableRecord
  3
"ASE-LPNTableRecord"
 90
        1
280
               0
281
               0
  0
CLASS
  1
LAYOUT
  2
AcDbLayout
  3
"AutoCAD 2000"
 90
        0
280
               0
281
               0
  0
CLASS
  1
PLOTSETTINGS
  2
AcDbPlotSettings
  3
"AutoCAD 2000"
 90
        0
280
               0
281
               0
  0
CLASS
  1
ACDBDICTIONARYWDFLT
  2
AcDbDictionaryWithDefault
  3
"AutoCAD 2000"
 90
        0
280
               0
281
               0
  0
CLASS
  1
ACDBPLACEHOLDER
  2
AcDbPlaceHolder
  3
"AutoCAD 2000"
 90
        0
280
               0
281
               0
  0
CLASS
  1
VBA_PROJECT
  2
AcDbVbaProject
  3
"acadvba"
 90
        0
280
               0
281
               0
  0
CLASS
  1
WIPEOUT
  2
AcDbWipeout
  3
WipeOut|AutoCAD Express Tool|expresstools@autodesk.com
 90
      127
280
               0
281
               1
  0
CLASS
  1
WIPEOUTVARIABLES
  2
AcDbWipeoutVariables
  3
WipeOut|AutoCAD Express Tool|expresstools@autodesk.com
 90
        0
280
               0
281
               0
  0
CLASS
  1
RTEXT
  2
RText
  3
RText|AutoCAD Express Tool|expresstools@autodesk.com
 90
        0
280
               0
281
               1
  0
CLASS
  1
ARCALIGNEDTEXT
  2
AcDbArcAlignedText
  3
ATEXT|AutoCAD Express Tool|expresstools@autodesk.com
 90
        0
280
               0
281
               1
  0
ENDSEC
  0
SECTION
  2
TABLES
  0
TABLE
  2
VPORT
  5
7
100
AcDbSymbolTable
 70
               1
  0
VPORT
  5
15
100
AcDbSymbolTableRecord
100
AcDbViewportTableRecord
  2
*ACTIVE
 70
               0
 10
0.0
 20
0.0
 11
1.0
 21
1.0
 12
420.0
 22
297.0
 13
0.0
 23
0.0
 14
10.0
 24
10.0
 15
10.0
 25
10.0
 16
0.0
 26
0.0
 36
1.0
 17
0.0
 27
0.0
 37
0.0
 40
594.0
 41
1.4141414141414141
 42
50.0
 43
0.0
 44
0.0
 50
0.0
 51
0.0
 71
               0
 72
             100
 73
               1
 74
               1
 75
               0
 76
               0
 77
               0
 78
               0
  0
ENDTAB
  0
TABLE
  2
LTYPE
  5
4
100
AcDbSymbolTable
 70
              24
  0
LTYPE
  5
11
100
AcDbSymbolTableRecord
100
AcDbLinetypeTableRecord
  2
ByBlock
 70
              64
  3

 72
              65
 73
               0
 40
0.0
  0
LTYPE
  5
12
100
AcDbSymbolTableRecord
100
AcDbLinetypeTableRecord
  2
ByLayer
 70
              64
  3

 72
              65
 73
               0
 40
0.0
  0
LTYPE
  5
13
100
AcDbSymbolTableRecord
100
AcDbLinetypeTableRecord
  2
Continuous
 70
              64
  3
Solid line
 72
              65
 73
               0
 40
0.0
  0
LTYPE
  5
1D
100
AcDbSymbolTableRecord
100
AcDbLinetypeTableRecord
  2
DOT
 70
              64
  3
Dot . . . . . . . . . . . . . . . . . . . . . .
 72
              65
 73
               2
 40
6.3499999999999996
 49
0.35
 74
               0
 49
-6.0
 74
               0
  0
LTYPE
  5
1E
100
AcDbSymbolTableRecord
100
AcDbLinetypeTableRecord
  2
DASHED
 70
              64
  3
Dashed __ __ __ __ __ __ __ __ __ __ __ __ __ _
 72
              65
 73
               2
 40
12.699999999999999
 49
6.3499999999999996
 74
               0
 49
-6.3499999999999996
 74
               0
  0
LTYPE
  5
1F
100
AcDbSymbolTableRecord
100
AcDbLinetypeTableRecord
  2
DASHDOT
 70
              64
  3
Dash dot __ . __ . __ . __ . __ . __ . __ . __
 72
              65
 73
               4
 40
25.399999999999999
 49
12.699999999999999
 74
               0
 49
-6.0
 74
               0
 49
0.7
 74
               0
 49
-6.0
 74
               0
  0
LTYPE
  5
20
100
AcDbSymbolTableRecord
100
AcDbLinetypeTableRecord
  2
DIVIDE
 70
              64
  3
Divide ____ . . ____ . . ____ . . ____ . . ____
 72
              65
 73
               6
 40
31.75
 49
12.699999999999999
 74
               0
 49
-6.0
 74
               0
 49
0.875
 74
               0
 49
-6.0
 74
               0
 49
0.875
 74
               0
 49
-6.0
 74
               0
  0
LTYPE
  5
21
100
AcDbSymbolTableRecord
100
AcDbLinetypeTableRecord
  2
HIDDEN
 70
              64
  3
Hidden __ __ __ __ __ __ __ __ __ __ __ __ __ _
 72
              65
 73
               2
 40
9.5250000000000004
 49
6.3499999999999996
 74
               0
 49
-3.1749999999999998
 74
               0
  0
LTYPE
  5
22
100
AcDbSymbolTableRecord
100
AcDbLinetypeTableRecord
  2
CENTER
 70
              64
  3
Center ____ _ ____ _ ____ _ ____ _ ____ _ ____
 72
              65
 73
               4
 40
50.799999999999997
 49
31.75
 74
               0
 49
-6.3499999999999996
 74
               0
 49
6.3499999999999996
 74
               0
 49
-6.3499999999999996
 74
               0
  0
LTYPE
  5
23
100
AcDbSymbolTableRecord
100
AcDbLinetypeTableRecord
  2
PHANTOM
 70
              64
  3
Phantom ______  __  __  ______  __  __  ______
 72
              65
 73
               6
 40
63.5
 49
31.75
 74
               0
 49
-6.3499999999999996
 74
               0
 49
6.3499999999999996
 74
               0
 49
-6.3499999999999996
 74
               0
 49
6.3499999999999996
 74
               0
 49
-6.3499999999999996
 74
               0
  0
LTYPE
  5
24
100
AcDbSymbolTableRecord
100
AcDbLinetypeTableRecord
  2
ACAD_ISO02W100
 70
              64
  3
ISO dash __ __ __ __ __ __ __ __ __ __ __ __ __
 72
              65
 73
               2
 40
15.0
 49
12.0
 74
               0
 49
-3.0
 74
               0
  0
LTYPE
  5
25
100
AcDbSymbolTableRecord
100
AcDbLinetypeTableRecord
  2
ACAD_ISO03W100
 70
              64
  3
ISO dash space __ __ __ __ __ __ __ __ __ __ __ __ __ __
 72
              65
 73
               2
 40
30.0
 49
12.0
 74
               0
 49
-18.0
 74
               0
  0
LTYPE
  5
26
100
AcDbSymbolTableRecord
100
AcDbLinetypeTableRecord
  2
ACAD_ISO04W100
 70
              64
  3
ISO long-dash dot ____ . ____ . ____ . ____ . _
 72
              65
 73
               4
 40
30.0
 49
24.0
 74
               0
 49
-3.0
 74
               0
 49
0.0
 74
               0
 49
-3.0
 74
               0
  0
LTYPE
  5
27
100
AcDbSymbolTableRecord
100
AcDbLinetypeTableRecord
  2
ACAD_ISO05W100
 70
              64
  3
ISO long-dash double-dot ____ .. ____ .. ____ .
 72
              65
 73
               6
 40
33.0
 49
24.0
 74
               0
 49
-3.0
 74
               0
 49
0.0
 74
               0
 49
-3.0
 74
               0
 49
0.0
 74
               0
 49
-3.0
 74
               0
  0
LTYPE
  5
28
100
AcDbSymbolTableRecord
100
AcDbLinetypeTableRecord
  2
ACAD_ISO06W100
 70
              64
  3
ISO long-dash triple-dot ____ ... ____ ... ____
 72
              65
 73
               8
 40
36.0
 49
24.0
 74
               0
 49
-3.0
 74
               0
 49
0.0
 74
               0
 49
-3.0
 74
               0
 49
0.0
 74
               0
 49
-3.0
 74
               0
 49
0.0
 74
               0
 49
-3.0
 74
               0
  0
LTYPE
  5
29
100
AcDbSymbolTableRecord
100
AcDbLinetypeTableRecord
  2
ACAD_ISO07W100
 70
              64
  3
ISO dot . . . . . . . . . . . . . . . . . . . .
 72
              65
 73
               2
 40
3.0
 49
0.0
 74
               0
 49
-3.0
 74
               0
  0
LTYPE
  5
2A
100
AcDbSymbolTableRecord
100
AcDbLinetypeTableRecord
  2
ACAD_ISO08W100
 70
              64
  3
ISO long-dash short-dash ____ __ ____ __ ____ _
 72
              65
 73
               4
 40
36.0
 49
24.0
 74
               0
 49
-3.0
 74
               0
 49
6.0
 74
               0
 49
-3.0
 74
               0
  0
LTYPE
  5
2B
100
AcDbSymbolTableRecord
100
AcDbLinetypeTableRecord
  2
ACAD_ISO09W100
 70
              64
  3
ISO long-dash double-short-dash ____ __ __ ____
 72
              65
 73
               6
 40
45.0
 49
24.0
 74
               0
 49
-3.0
 74
               0
 49
6.0
 74
               0
 49
-3.0
 74
               0
 49
6.0
 74
               0
 49
-3.0
 74
               0
  0
LTYPE
  5
2C
100
AcDbSymbolTableRecord
100
AcDbLinetypeTableRecord
  2
ACAD_ISO10W100
 70
              64
  3
ISO dash dot __ . __ . __ . __ . __ . __ . __ .
 72
              65
 73
               4
 40
18.0
 49
12.0
 74
               0
 49
-3.0
 74
               0
 49
0.0
 74
               0
 49
-3.0
 74
               0
  0
LTYPE
  5
2D
100
AcDbSymbolTableRecord
100
AcDbLinetypeTableRecord
  2
ACAD_ISO11W100
 70
              64
  3
ISO double-dash dot __ __ . __ __ . __ __ . __ 
 72
              65
 73
               6
 40
33.0
 49
12.0
 74
               0
 49
-3.0
 74
               0
 49
12.0
 74
               0
 49
-3.0
 74
               0
 49
0.0
 74
               0
 49
-3.0
 74
               0
  0
LTYPE
  5
2E
100
AcDbSymbolTableRecord
100
AcDbLinetypeTableRecord
  2
ACAD_ISO12W100
 70
              64
  3
ISO dash double-dot __ . . __ . . __ . . __ . .
 72
              65
 73
               6
 40
21.0
 49
12.0
 74
               0
 49
-3.0
 74
               0
 49
0.0
 74
               0
 49
-3.0
 74
               0
 49
0.0
 74
               0
 49
-3.0
 74
               0
  0
LTYPE
  5
2F
100
AcDbSymbolTableRecord
100
AcDbLinetypeTableRecord
  2
ACAD_ISO13W100
 70
              64
  3
ISO double-dash double-dot __ __ . . __ __ . . 
 72
              65
 73
               8
 40
36.0
 49
12.0
 74
               0
 49
-3.0
 74
               0
 49
12.0
 74
               0
 49
-3.0
 74
               0
 49
0.0
 74
               0
 49
-3.0
 74
               0
 49
0.0
 74
               0
 49
-3.0
 74
               0
  0
LTYPE
  5
30
100
AcDbSymbolTableRecord
100
AcDbLinetypeTableRecord
  2
ACAD_ISO14W100
 70
              64
  3
ISO dash triple-dot __ . . . __ . . . __ . . . 
 72
              65
 73
               8
 40
24.0
 49
12.0
 74
               0
 49
-3.0
 74
               0
 49
0.0
 74
               0
 49
-3.0
 74
               0
 49
0.0
 74
               0
 49
-3.0
 74
               0
 49
0.0
 74
               0
 49
-3.0
 74
               0
  0
LTYPE
  5
31
100
AcDbSymbolTableRecord
100
AcDbLinetypeTableRecord
  2
ACAD_ISO15W100
 70
              64
  3
ISO double-dash double-dot __ __ . . __ __ . . 
 72
              65
 73
              10
 40
39.0
 49
12.0
 74
               0
 49
-3.0
 74
               0
 49
12.0
 74
               0
 49
-3.0
 74
               0
 49
0.0
 74
               0
 49
-3.0
 74
               0
 49
0.0
 74
               0
 49
-3.0
 74
               0
 49
0.0
 74
               0
 49
-3.0
 74
               0
  0
ENDTAB
  0
TABLE
  2
LAYER
  5
2
100
AcDbSymbolTable
 70
              16
  0
LAYER
  5
14
100
AcDbSymbolTableRecord
100
AcDbLayerTableRecord
  2
0
 70
               0
 62
               7
  6
Continuous
  0
LAYER
  5
35
100
AcDbSymbolTableRecord
100
AcDbLayerTableRecord
  2
Layer00001
 70
               0
 62
               7
  6
Continuous
  0
LAYER
  5
36
100
AcDbSymbolTableRecord
100
AcDbLayerTableRecord
  2
Layer00002
 70
               0
 62
               7
  6
Continuous
  0
LAYER
  5
37
100
AcDbSymbolTableRecord
100
AcDbLayerTableRecord
  2
Layer00003
 70
               0
 62
               7
  6
Continuous
  0
LAYER
  5
38
100
AcDbSymbolTableRecord
100
AcDbLayerTableRecord
  2
Layer00004
 70
               0
 62
               7
  6
Continuous
  0
LAYER
  5
39
100
AcDbSymbolTableRecord
100
AcDbLayerTableRecord
  2
Layer00005
 70
               0
 62
               7
  6
Continuous
  0
LAYER
  5
3A
100
AcDbSymbolTableRecord
100
AcDbLayerTableRecord
  2
Layer00006
 70
               0
 62
               7
  6
Continuous
  0
LAYER
  5
3B
100
AcDbSymbolTableRecord
100
AcDbLayerTableRecord
  2
Layer00007
 70
               0
 62
               7
  6
Continuous
  0
LAYER
  5
3C
100
AcDbSymbolTableRecord
100
AcDbLayerTableRecord
  2
Layer00008
 70
               0
 62
               7
  6
Continuous
  0
LAYER
  5
3D
100
AcDbSymbolTableRecord
100
AcDbLayerTableRecord
  2
Layer00009
 70
               0
 62
               7
  6
Continuous
  0
LAYER
  5
3E
100
AcDbSymbolTableRecord
100
AcDbLayerTableRecord
  2
Layer00010
 70
               0
 62
               7
  6
Continuous
  0
LAYER
  5
3F
100
AcDbSymbolTableRecord
100
AcDbLayerTableRecord
  2
Layer00011
 70
               0
 62
               7
  6
Continuous
  0
LAYER
  5
40
100
AcDbSymbolTableRecord
100
AcDbLayerTableRecord
  2
Layer00012
 70
               0
 62
               7
  6
Continuous
  0
LAYER
  5
41
100
AcDbSymbolTableRecord
100
AcDbLayerTableRecord
  2
Layer00013
 70
               0
 62
               7
  6
Continuous
  0
LAYER
  5
42
100
AcDbSymbolTableRecord
100
AcDbLayerTableRecord
  2
Layer00014
 70
               0
 62
               7
  6
Continuous
  0
LAYER
  5
43
100
AcDbSymbolTableRecord
100
AcDbLayerTableRecord
  2
図枠
 70
               0
 62
               7
  6
Continuous
  0
ENDTAB
  0
TABLE
  2
STYLE
  5
3
100
AcDbSymbolTable
 70
               4
  0
STYLE
  5
17
100
AcDbSymbolTableRecord
100
AcDbTextStyleTableRecord
  2
Standard
 70
               0
 40
0.0
 41
1.0
 50
0.0
 71
               0
 42
0.0
  3
txt.shx
  4
bigfont.shx
  0
STYLE
  5
32
100
AcDbSymbolTableRecord
100
AcDbTextStyleTableRecord
  2
STANDARD_T
 70
               4
 40
0.0
 41
1.0
 50
0.0
 71
               0
 42
0.0
  3
txt.shx
  4
bigfont.shx
  0
STYLE
  5
33
100
AcDbSymbolTableRecord
100
AcDbTextStyleTableRecord
  2
FontTableH_0
 70
               0
 40
0.0
 41
1.0
 50
0.0
 71
               0
 42
0.0
  3
MS Gothic.ttf
  4

1001
ACAD
1000
MS Gothic
1071
    32817
  0
STYLE
  5
34
100
AcDbSymbolTableRecord
100
AcDbTextStyleTableRecord
  2
FontTableV_0
 70
               0
 40
0.0
 41
1.0
 50
0.0
 71
               0
 42
0.0
  3
@MS Gothic.ttf
  4

1001
ACAD
1000
@MS Gothic
1071
    32817
  0
ENDTAB
  0
TABLE
  2
VIEW
  5
5
100
AcDbSymbolTable
 70
               0
  0
ENDTAB
  0
TABLE
  2
UCS
  5
6
100
AcDbSymbolTable
 70
               0
  0
ENDTAB
  0
TABLE
  2
APPID
  5
8
100
AcDbSymbolTable
 70
               1
  0
APPID
  5
16
100
AcDbSymbolTableRecord
100
AcDbRegAppTableRecord
  2
ACAD
 70
               0
  0
ENDTAB
  0
TABLE
  2
DIMSTYLE
  5
9
100
AcDbSymbolTable
 70
               1
  0
DIMSTYLE
105
18
100
AcDbSymbolTableRecord
100
AcDbDimStyleTableRecord
  2
Standard
 70
               0
  3

  4

  5

  6

  7

 40
1.0
 41
0.18
 42
0.0625
 43
0.38
 44
0.18
 45
0.0
 46
0.0
 47
0.0
 48
0.0
 71
               0
 72
               0
 73
               1
 74
               1
 75
               0
 76
               0
 77
               0
 78
               0
140
0.18
141
0.09
142
0.0
143
25.399999999999999
144
1.0
145
0.0
146
1.0
147
0.09
170
               0
171
               2
172
               0
173
               0
174
               0
175
               0
176
               0
177
               0
178
               0
270
               2
271
               4
272
               4
273
               2
274
               2
275
               0
280
               0
281
               0
282
               0
283
               1
284
               0
285
               0
286
               0
287
               0
288
               0
340
17
  0
ENDTAB
  0
TABLE
  2
BLOCK_RECORD
  5
1
100
AcDbSymbolTable
 70
               0
  0
BLOCK_RECORD
  5
A
100
AcDbSymbolTableRecord
100
AcDbBlockTableRecord
  2
*MODEL_SPACE
  0
BLOCK_RECORD
  5
B
100
AcDbSymbolTableRecord
100
AcDbBlockTableRecord
  2
*PAPER_SPACE
  0
ENDTAB
  0
ENDSEC
  0
SECTION
  2
BLOCKS
  0
BLOCK
  5
D
100
AcDbEntity
  8
0
100
AcDbBlockBegin
  2
*MODEL_SPACE
 70
               0
 10
0.0
 20
0.0
 30
0.0
  3
*MODEL_SPACE
  1

  0
ENDBLK
  5
E
100
AcDbEntity
  8
0
100
AcDbBlockEnd
  0
BLOCK
  5
F
100
AcDbEntity
 67
               1
  8
0
100
AcDbBlockBegin
  2
*PAPER_SPACE
 70
               0
 10
0.0
 20
0.0
 30
0.0
  3
*PAPER_SPACE
  1

  0
ENDBLK
  5
10
100
AcDbEntity
 67
               1
  8
0
100
AcDbBlockEnd
  0
ENDSEC
  0
SECTION
  2
ENTITIES
  0
LINE
  5
44
100
AcDbEntity
  8
0
  6
Continuous
 62
               4
100
AcDbLine
 10
281.74357949068548
 20
370.50834900793814
 30
0.0
 11
217.06600682615885
 21
357.36256663392624
 31
0.0
  0
LINE
  5
45
100
AcDbEntity
  8
0
  6
Continuous
 62
               4
100
AcDbLine
 10
219.02593327053845
 20
357.76092367556294
 30
0.0
 11
225.00128889508937
 21
328.3620270098686
 31
0.0
  0
LINE
  5
46
100
AcDbEntity
  8
0
  6
Continuous
 62
               4
100
AcDbLine
 10
225.00128889508937
 20
328.3620270098686
 30
0.0
 11
233.56596529027888
 21
286.22360845570745
 31
0.0
  0
LINE
  5
47
100
AcDbEntity
  8
0
  6
Continuous
 62
               4
100
AcDbLine
 10
259.08489376901173
 20
341.41223309246925
 30
0.0
 11
246.33746843663715
 21
404.12987931261603
 31
0.0
  0
LINE
  5
48
100
AcDbEntity
  8
0
  6
Continuous
 62
               4
100
AcDbLine
 10
276.13472214396768
 20
408.14530849278708
 30
0.0
 11
246.73582547827385
 21
402.16995286823646
 31
0.0
  0
LINE
  5
49
100
AcDbEntity
  8
0
  6
Continuous
 62
               4
100
AcDbLine
 10
419.7032859167266
 20
404.67147829728322
 30
0.0
 11
408.15093170926207
 21
461.50934518429165
 31
0.0
  0
LINE
  5
4A
100
AcDbEntity
  8
0
  6
Continuous
 62
               4
100
AcDbLine
 10
282.50843481015494
 20
376.78648538271375
 30
0.0
 11
270.95608060269041
 21
433.62435226972218
 31
0.0
  0
LINE
  5
4B
100
AcDbEntity
  8
0
  6
Continuous
 62
               4
100
AcDbLine
 10
408.54928875089877
 20
459.54941873991208
 30
0.0
 11
271.35443764432711
 21
431.66442582534262
 31
0.0
  0
LINE
  5
4C
100
AcDbEntity
  8
0
  6
Continuous
 62
               4
100
AcDbLine
 10
216.72589368078403
 20
265.37444473829737
 30
0.0
 11
233.14839618652709
 21
236.92983601092305
 31
0.0
  0
LINE
  5
4D
100
AcDbEntity
  8
0
  6
Continuous
 62
               4
100
AcDbLine
 10
216.72589368078403
 20
265.37444473829737
 30
0.0
 11
220.58261933890324
 21
260.77817807958343
 31
0.0
  0
LINE
  5
4E
100
AcDbEntity
  8
0
  6
Continuous
 62
               4
100
AcDbLine
 10
216.72589368078403
 20
265.37444473829737
 30
0.0
 11
218.77801454073804
 21
259.73628901358188
 31
0.0
  0
LINE
  5
4F
100
AcDbEntity
  8
0
  6
Continuous
 62
               4
100
AcDbLine
 10
214.60532874867559
 20
224.14317427246419
 30
0.0
 11
238.09478490611653
 21
183.45824276561495
 31
0.0
  0
LINE
  5
50
100
AcDbEntity
  8
0
  6
Continuous
 62
               4
100
AcDbLine
 10
214.60532874867559
 20
224.14317427246419
 30
0.0
 11
218.46205440679481
 21
219.54690761375036
 31
0.0
  0
LINE
  5
51
100
AcDbEntity
  8
0
  6
Continuous
 62
               4
100
AcDbLine
 10
214.60532874867559
 20
224.14317427246419
 30
0.0
 11
216.65744960862961
 21
218.50501854774882
 31
0.0
  0
LINE
  5
52
100
AcDbEntity
  8
0
  6
Continuous
 62
               4
100
AcDbLine
 10
433.62354707494745
 20
189.82592739121583
 30
0.0
 11
458.09732457856842
 21
147.43610130180832
 31
0.0
  0
LINE
  5
53
100
AcDbEntity
  8
0
  6
Continuous
 62
               4
100
AcDbLine
 10
433.62354707494745
 20
189.82592739121583
 30
0.0
 11
437.48027273306667
 21
185.229660732502
 31
0.0
  0
LINE
  5
54
100
AcDbEntity
  8
0
  6
Continuous
 62
               4
100
AcDbLine
 10
433.62354707494745
 20
189.82592739121583
 30
0.0
 11
435.67566793490147
 21
184.18777166650034
 31
0.0
  0
LINE
  5
55
100
AcDbEntity
  8
0
  6
Continuous
 62
               4
100
AcDbLine
 10
534.2888706875658
 20
310.91868951864546
 30
0.0
 11
579.80257018653583
 21
232.0866495460059
 31
0.0
  0
LINE
  5
56
100
AcDbEntity
  8
0
  6
Continuous
 62
               4
100
AcDbLine
 10
534.2888706875658
 20
310.91868951864546
 30
0.0
 11
538.14559634568491
 21
306.32242285993152
 31
0.0
  0
LINE
  5
57
100
AcDbEntity
  8
0
  6
Continuous
 62
               4
100
AcDbLine
 10
534.2888706875658
 20
310.91868951864546
 30
0.0
 11
536.34099154751971
 21
305.28053379392998
 31
0.0
  0
LINE
  5
58
100
AcDbEntity
  8
0
  6
Continuous
 62
               4
100
AcDbLine
 10
517.15473626176004
 20
266.21587462232753
 30
0.0
 11
564.45489445461089
 21
184.28959742626478
 31
0.0
  0
LINE
  5
59
100
AcDbEntity
  8
0
  6
Continuous
 62
               4
100
AcDbLine
 10
517.15473626176004
 20
266.21587462232753
 30
0.0
 11
521.01146191987914
 21
261.6196079636137
 31
0.0
  0
LINE
  5
5A
100
AcDbEntity
  8
0
  6
Continuous
 62
               4
100
AcDbLine
 10
517.15473626176004
 20
266.21587462232753
 30
0.0
 11
519.20685712171394
 21
260.57771889761204
 31
0.0
  0
LINE
  5
5B
100
AcDbEntity
  8
0
  6
Continuous
 62
               4
100
AcDbLine
 10
649.76071654534053
 20
321.49986509275288
 30
0.0
 11
675.54835034346434
 21
366.16535703808358
 31
0.0
  0
LINE
  5
5C
100
AcDbEntity
  8
0
  6
Continuous
 62
               4
100
AcDbLine
 10
649.76071654534053
 20
321.49986509275288
 30
0.0
 11
651.81283740529466
 21
327.13802081746837
 31
0.0
  0
LINE
  5
5D
100
AcDbEntity
  8
0
  6
Continuous
 62
               4
100
AcDbLine
 10
649.76071654534053
 20
321.49986509275288
 30
0.0
 11
653.61744220345986
 21
326.09613175146671
 31
0.0
  0
LINE
  5
5E
100
AcDbEntity
  8
0
  6
Continuous
 62
               4
100
AcDbLine
 10
650.09113854879047
 20
266.13562152573456
 30
0.0
 11
690.78983029659275
 21
336.62782343451227
 31
0.0
  0
LINE
  5
5F
100
AcDbEntity
  8
0
  6
Continuous
 62
               4
100
AcDbLine
 10
650.09113854879047
 20
266.13562152573456
 30
0.0
 11
652.14325940874437
 21
271.77377725045005
 31
0.0
  0
LINE
  5
60
100
AcDbEntity
  8
0
  6
Continuous
 62
               4
100
AcDbLine
 10
650.09113854879047
 20
266.13562152573456
 30
0.0
 11
653.94786420690957
 21
270.73188818444839
 31
0.0
  0
LINE
  5
61
100
AcDbEntity
  8
0
  6
Continuous
 62
               4
100
AcDbLine
 10
547.03880024278942
 20
320.43860010680032
 30
0.0
 11
587.02963045714409
 21
389.7047498749231
 31
0.0
  0
LINE
  5
62
100
AcDbEntity
  8
0
  6
Continuous
 62
               4
100
AcDbLine
 10
547.03880024278942
 20
320.43860010680032
 30
0.0
 11
549.09092110274332
 21
326.07675583151581
 31
0.0
  0
LINE
  5
63
100
AcDbEntity
  8
0
  6
Continuous
 62
               4
100
AcDbLine
 10
547.03880024278942
 20
320.43860010680032
 30
0.0
 11
550.89552590090852
 21
325.03486676551415
 31
0.0
  0
LINE
  5
64
100
AcDbEntity
  8
0
  6
Continuous
 62
               4
100
AcDbLine
 10
555.26439536826842
 20
355.27433528324616
 30
0.0
 11
586.14548324320413
 21
408.76194847563397
 31
0.0
  0
LINE
  5
65
100
AcDbEntity
  8
0
  6
Continuous
 62
               4
100
AcDbLine
 10
555.26439536826842
 20
355.27433528324616
 30
0.0
 11
557.31651622822233
 21
360.91249100796165
 31
0.0
  0
LINE
  5
66
100
AcDbEntity
  8
0
  6
Continuous
 62
               4
100
AcDbLine
 10
555.26439536826842
 20
355.27433528324616
 30
0.0
 11
559.12112102638753
 21
359.87060194195999
 31
0.0
  0
LINE
  5
67
100
AcDbEntity
  8
0
  6
Continuous
 62
               4
100
AcDbLine
 10
520.20819281279273
 20
371.70900149088277
 30
0.0
 11
556.91885906822404
 21
435.29374062499437
 31
0.0
  0
LINE
  5
68
100
AcDbEntity
  8
0
  6
Continuous
 62
               4
100
AcDbLine
 10
520.20819281279273
 20
371.70900149088277
 30
0.0
 11
522.26031367274663
 21
377.34715721559826
 31
0.0
  0
LINE
  5
69
100
AcDbEntity
  8
0
  6
Continuous
 62
               4
100
AcDbLine
 10
520.20819281279273
 20
371.70900149088277
 30
0.0
 11
524.06491847091183
 21
376.3052681495966
 31
0.0
  0
LINE
  5
6A
100
AcDbEntity
  8
0
  6
Continuous
 62
               4
100
AcDbLine
 10
408.13039472972071
 20
384.97168659991621
 30
0.0
 11
397.97229016798474
 21
434.94981093159561
 31
0.0
  0
LINE
  5
6B
100
AcDbEntity
  8
0
  6
Continuous
 62
               4
100
AcDbLine
 10
378.73149806402671
 20
378.99633097536559
 30
0.0
 11
368.57339350229074
 21
428.97445530704499
 31
0.0
  0
LINE
  5
6C
100
AcDbEntity
  8
0
  6
Continuous
 62
               4
100
AcDbLine
 10
398.37064720962144
 20
432.98988448721605
 30
0.0
 11
368.97175054392744
 21
427.01452886266543
 31
0.0
  0
LINE
  5
6D
100
AcDbEntity
  8
0
  6
Continuous
 62
               4
100
AcDbLine
 10
345.15775590505405
 20
328.29323602601505
 30
0.0
 11
326.43497494812885
 21
420.40977891185571
 31
0.0
  0
LINE
  5
6E
100
AcDbEntity
  8
0
  6
Continuous
 62
               4
100
AcDbLine
 10
368.97175054392744
 20
427.01452886266543
 30
0.0
 11
326.83333198976555
 21
418.44985246747615
 31
0.0
  0
LINE
  5
6F
100
AcDbEntity
  8
0
  6
Continuous
 62
               4
100
AcDbLine
 10
415.5
 20
352.71304737889375
 30
0.0
 11
415.5
 21
374.71304737889375
 31
0.0
  0
LINE
  5
70
100
AcDbEntity
  8
0
  6
Continuous
 62
               4
100
AcDbLine
 10
425.50000000000006
 20
352.71304737889375
 30
0.0
 11
425.50000000000006
 21
374.71304737889375
 31
0.0
  0
LINE
  5
71
100
AcDbEntity
  8
0
  6
Continuous
 62
               4
100
AcDbLine
 10
415.5
 20
372.71304737889375
 30
0.0
 11
425.50000000000006
 21
372.71304737889375
 31
0.0
  0
LINE
  5
72
100
AcDbEntity
  8
0
  6
Continuous
 62
               4
100
AcDbLine
 10
431.85383156233189
 20
342.31939236180699
 30
0.0
 11
498.97784209552714
 21
458.58158901308957
 31
0.0
  0
LINE
  5
73
100
AcDbEntity
  8
0
  6
Continuous
 62
               4
100
AcDbLine
 10
431.85383156233189
 20
342.31939236180699
 30
0.0
 11
433.90595242228591
 21
347.95754808652248
 31
0.0
  0
LINE
  5
74
100
AcDbEntity
  8
0
  6
Continuous
 62
               4
100
AcDbLine
 10
431.85383156233189
 20
342.31939236180699
 30
0.0
 11
435.71055722045111
 21
346.91565902052082
 31
0.0
  0
LINE
  5
75
100
AcDbEntity
  8
0
  6
Continuous
 62
               4
100
AcDbLine
 10
437.845565679375
 20
397.22612155639433
 30
0.0
 11
486.90455165519955
 21
482.19877783433094
 31
0.0
  0
LINE
  5
76
100
AcDbEntity
  8
0
  6
Continuous
 62
               4
100
AcDbLine
 10
437.845565679375
 20
397.22612155639433
 30
0.0
 11
439.89768653932902
 21
402.86427728110982
 31
0.0
  0
LINE
  5
77
100
AcDbEntity
  8
0
  6
Continuous
 62
               4
100
AcDbLine
 10
437.845565679375
 20
397.22612155639433
 30
0.0
 11
441.70229133749427
 21
401.82238821510816
 31
0.0
  0
LINE
  5
78
100
AcDbEntity
  8
0
  6
Continuous
 62
               4
100
AcDbLine
 10
2077.5
 20
1892.5
 30
0.0
 11
77.5
 21
1892.5
 31
0.0
  0
LINE
  5
79
100
AcDbEntity
  8
0
  6
Continuous
 62
               4
100
AcDbLine
 10
2077.5
 20
1892.5
 30
0.0
 11
2077.5
 21
2892.5
 31
0.0
  0
LINE
  5
7A
100
AcDbEntity
  8
0
  6
Continuous
 62
               3
100
AcDbLine
 10
417.58957249956393
 20
321.77502288141886
 30
0.0
 11
420.5
 21
310.13331287967492
 31
0.0
  0
LINE
  5
7B
100
AcDbEntity
  8
0
  6
Continuous
 62
               3
100
AcDbLine
 10
420.49999999999989
 20
263.74837459147614
 30
0.0
 11
420.5
 21
310.1333128796748
 31
0.0
  0
LINE
  5
7C
100
AcDbEntity
  8
0
  6
Continuous
 62
               3
100
AcDbLine
 10
375.50000000000011
 20
173.74837459147614
 30
0.0
 11
465.50000000000011
 21
173.74837459147614
 31
0.0
  0
LINE
  5
7D
100
AcDbEntity
  8
0
  6
Continuous
 62
               3
100
AcDbLine
 10
375.50000000000011
 20
252.49837459147614
 30
0.0
 11
375.50000000000011
 21
173.74837459147614
 31
0.0
  0
LINE
  5
7E
100
AcDbEntity
  8
0
  6
Continuous
 62
               7
100
AcDbLine
 10
375.50000000000011
 20
252.49837459147614
 30
0.0
 11
465.50000000000011
 21
173.74837459147614
 31
0.0
  0
LINE
  5
7F
100
AcDbEntity
  8
0
  6
Continuous
 62
               7
100
AcDbLine
 10
465.49999999999989
 20
252.49837459147614
 30
0.0
 11
375.49999999999989
 21
173.74837459147614
 31
0.0
  0
LINE
  5
80
100
AcDbEntity
  8
0
  6
Continuous
 62
               3
100
AcDbLine
 10
465.50000000000011
 20
252.49837459147636
 30
0.0
 11
465.50000000000011
 21
173.74837459147614
 31
0.0
  0
LINE
  5
81
100
AcDbEntity
  8
0
  6
Continuous
 62
               3
100
AcDbLine
 10
65.499999999999943
 20
174.99837459147602
 30
0.0
 11
420.49999999999989
 21
263.74837459147614
 31
0.0
  0
LINE
  5
82
100
AcDbEntity
  8
0
  6
Continuous
 62
               2
100
AcDbLine
 10
283.30514889342834
 20
372.86663249395451
 30
0.0
 11
420.5
 21
400.75162540852398
 31
0.0
  0
LINE
  5
83
100
AcDbEntity
  8
0
  6
Continuous
 62
               2
100
AcDbLine
 10
289.28050451797913
 20
343.46773582826063
 30
0.0
 11
283.30514889342828
 21
372.86663249395451
 31
0.0
  0
LINE
  5
84
100
AcDbEntity
  8
0
  6
Continuous
 62
               2
100
AcDbLine
 10
259.88160785228513
 20
337.49238020371001
 30
0.0
 11
289.28050451797913
 21
343.46773582826063
 31
0.0
  0
LINE
  5
85
100
AcDbEntity
  8
0
  6
Continuous
 62
               2
100
AcDbLine
 10
260.08078637310348
 20
336.51241698152023
 30
0.0
 11
270.03047584297559
 21
337.51425501888787
 31
0.0
  0
LINE
  5
86
100
AcDbEntity
  8
0
  6
Continuous
 62
               3
100
AcDbLine
 10
285.66343237944466
 20
371.30506309121154
 30
0.0
 11
291.63878800399544
 21
341.90616642551765
 31
0.0
  0
LINE
  5
87
100
AcDbEntity
  8
0
  6
Continuous
 62
               3
100
AcDbLine
 10
334.66159348893461
 20
381.26398913212927
 30
0.0
 11
285.66343237944466
 21
371.30506309121154
 31
0.0
  0
LINE
  5
88
100
AcDbEntity
  8
0
  6
Continuous
 62
               3
100
AcDbLine
 10
334.66159348893461
 20
381.26398913212927
 30
0.0
 11
340.63694911348534
 21
351.86509246643539
 31
0.0
  0
LINE
  5
89
100
AcDbEntity
  8
0
  6
Continuous
 62
               3
100
AcDbLine
 10
340.63694911348534
 20
351.86509246643539
 30
0.0
 11
291.63878800399544
 21
341.90616642551765
 31
0.0
  0
LINE
  5
8A
100
AcDbEntity
  8
0
  6
Continuous
 62
               7
100
AcDbLine
 10
330.83731689158748
 20
349.873307258252
 30
0.0
 11
295.46306460134315
 21
373.29684829939515
 31
0.0
  0
LINE
  5
8B
100
AcDbEntity
  8
0
  6
Continuous
 62
               7
100
AcDbLine
 10
328.0655623326922
 20
349.30994532730244
 30
0.0
 11
292.69131004244787
 21
372.73348636844571
 31
0.0
  0
LINE
  5
8C
100
AcDbEntity
  8
0
  6
Continuous
 62
               7
100
AcDbLine
 10
333.60907145048276
 20
350.43666918920144
 30
0.0
 11
298.23481916023837
 21
373.86021023034459
 31
0.0
  0
LINE
  5
8D
100
AcDbEntity
  8
0
  6
Continuous
 62
               7
100
AcDbLine
 10
325.29380777379703
 20
348.746583396353
 30
0.0
 11
289.91955548355259
 21
372.17012443749627
 31
0.0
  0
LINE
  5
8E
100
AcDbEntity
  8
0
  6
Continuous
 62
               7
100
AcDbLine
 10
336.38082600937787
 20
351.00003112015088
 30
0.0
 11
301.00657371913343
 21
374.42357216129403
 31
0.0
  0
LINE
  5
8F
100
AcDbEntity
  8
0
  6
Continuous
 62
               7
100
AcDbLine
 10
322.52205321490175
 20
348.18322146540368
 30
0.0
 11
287.14780092465736
 21
371.60676250654683
 31
0.0
  0
LINE
  5
90
100
AcDbEntity
  8
0
  6
Continuous
 62
               7
100
AcDbLine
 10
339.15258056827309
 20
351.56339305110021
 30
0.0
 11
303.77832827802871
 21
374.98693409224347
 31
0.0
  0
LINE
  5
91
100
AcDbEntity
  8
0
  6
Continuous
 62
               7
100
AcDbLine
 10
319.75029865600646
 20
347.61985953445412
 30
0.0
 11
285.92509489505892
 21
370.0176770775289
 31
0.0
  0
LINE
  5
92
100
AcDbEntity
  8
0
  6
Continuous
 62
               7
100
AcDbLine
 10
316.97854409711107
 20
347.05649760350468
 30
0.0
 11
286.48845682600836
 21
367.24592251863351
 31
0.0
  0
LINE
  5
93
100
AcDbEntity
  8
0
  6
Continuous
 62
               7
100
AcDbLine
 10
314.2067895382159
 20
346.49313567255524
 30
0.0
 11
287.0518187569578
 21
364.47416795973834
 31
0.0
  0
LINE
  5
94
100
AcDbEntity
  8
0
  6
Continuous
 62
               7
100
AcDbLine
 10
311.43503497932085
 20
345.9297737416058
 30
0.0
 11
287.6151806879073
 21
361.70241340084317
 31
0.0
  0
LINE
  5
95
100
AcDbEntity
  8
0
  6
Continuous
 62
               7
100
AcDbLine
 10
308.66328042042556
 20
345.36641181065647
 30
0.0
 11
288.17854261885674
 21
358.930658841948
 31
0.0
  0
LINE
  5
96
100
AcDbEntity
  8
0
  6
Continuous
 62
               7
100
AcDbLine
 10
305.89152586153023
 20
344.80304987970703
 30
0.0
 11
288.74190454980624
 21
356.15890428305249
 31
0.0
  0
LINE
  5
97
100
AcDbEntity
  8
0
  6
Continuous
 62
               7
100
AcDbLine
 10
303.119771302635
 20
344.23968794875748
 30
0.0
 11
289.30526648075562
 21
353.38714972415733
 31
0.0
  0
LINE
  5
98
100
AcDbEntity
  8
0
  6
Continuous
 62
               7
100
AcDbLine
 10
300.34801674373972
 20
343.67632601780804
 30
0.0
 11
289.86862841170512
 21
350.61539516526204
 31
0.0
  0
LINE
  5
99
100
AcDbEntity
  8
0
  6
Continuous
 62
               7
100
AcDbLine
 10
297.57626218484444
 20
343.11296408685848
 30
0.0
 11
290.43199034265461
 21
347.84364060636676
 31
0.0
  0
LINE
  5
9A
100
AcDbEntity
  8
0
  6
Continuous
 62
               7
100
AcDbLine
 10
294.8045076259491
 20
342.54960215590916
 30
0.0
 11
290.99535227360411
 21
345.07188604747137
 31
0.0
  0
LINE
  5
9B
100
AcDbEntity
  8
0
  6
Continuous
 62
               7
100
AcDbLine
 10
292.03275306705387
 20
341.98624022495972
 30
0.0
 11
291.5587142045535
 21
342.3001314885762
 31
0.0
  0
LINE
  5
9C
100
AcDbEntity
  8
0
  6
Continuous
 62
               7
100
AcDbLine
 10
335.30502921932595
 20
378.09826951017612
 30
0.0
 11
331.4958738669813
 21
380.62055340173799
 31
0.0
  0
LINE
  5
9D
100
AcDbEntity
  8
0
  6
Continuous
 62
               7
100
AcDbLine
 10
334.7416672883765
 20
380.87002406907118
 30
0.0
 11
334.26762842587658
 21
381.18391533268743
 31
0.0
  0
LINE
  5
9E
100
AcDbEntity
  8
0
  6
Continuous
 62
               7
100
AcDbLine
 10
339.24856273597214
 20
358.69598759790927
 30
0.0
 11
312.09359195471467
 21
376.67701988509191
 31
0.0
  0
LINE
  5
9F
100
AcDbEntity
  8
0
  6
Continuous
 62
               7
100
AcDbLine
 10
338.6852008050227
 20
361.46774215680432
 30
0.0
 11
314.86534651360972
 21
377.24038181604124
 31
0.0
  0
LINE
  5
A0
100
AcDbEntity
  8
0
  6
Continuous
 62
               7
100
AcDbLine
 10
338.12183887407326
 20
364.2394967156996
 30
0.0
 11
317.637101072505
 21
377.80374374699068
 31
0.0
  0
LINE
  5
A1
100
AcDbEntity
  8
0
  6
Continuous
 62
               7
100
AcDbLine
 10
337.55847694312376
 20
367.01125127459477
 30
0.0
 11
320.40885563140023
 21
378.36710567794012
 31
0.0
  0
LINE
  5
A2
100
AcDbEntity
  8
0
  6
Continuous
 62
               7
100
AcDbLine
 10
336.99511501217438
 20
369.78300583349028
 30
0.0
 11
323.18061019029551
 21
378.93046760888967
 31
0.0
  0
LINE
  5
A3
100
AcDbEntity
  8
0
  6
Continuous
 62
               7
100
AcDbLine
 10
336.43175308122488
 20
372.55476039238545
 30
0.0
 11
325.95236474919079
 21
379.49382953983911
 31
0.0
  0
LINE
  5
A4
100
AcDbEntity
  8
0
  6
Continuous
 62
               7
100
AcDbLine
 10
335.86839115027533
 20
375.32651495128061
 30
0.0
 11
328.72411930808602
 21
380.05719147078855
 31
0.0
  0
LINE
  5
A5
100
AcDbEntity
  8
0
  6
Continuous
 62
               7
100
AcDbLine
 10
340.37528659787102
 20
353.15247848011848
 30
0.0
 11
306.55008283692439
 21
375.55029602319303
 31
0.0
  0
LINE
  5
A6
100
AcDbEntity
  8
0
  6
Continuous
 62
               7
100
AcDbLine
 10
339.81192466692158
 20
355.92423303901376
 30
0.0
 11
309.32183739581944
 21
376.11365795414247
 31
0.0
  0
LINE
  5
A7
100
AcDbEntity
  8
0
  6
DASHED
 62
               6
100
AcDbLine
 10
300.00428587836683
 20
300.74771109354617
 30
0.0
 11
292.03714504563231
 21
339.94623998113832
 31
0.0
  0
LINE
  5
A8
100
AcDbEntity
  8
0
  6
DASHED
 62
               6
100
AcDbLine
 10
324.50336643311175
 20
305.72717411400504
 30
0.0
 11
300.00428587836683
 21
300.74771109354617
 31
0.0
  0
LINE
  5
A9
100
AcDbEntity
  8
0
  6
DASHED
 62
               6
100
AcDbLine
 10
316.53622560037718
 20
344.92570300159741
 30
0.0
 11
324.50336643311175
 21
305.72717411400504
 31
0.0
  0
LINE
  5
AA
100
AcDbEntity
  8
0
  6
DASHED
 62
               6
100
AcDbLine
 10
316.53622560037724
 20
344.92570300159718
 30
0.0
 11
292.03714504563231
 21
339.94623998113832
 31
0.0
  0
LINE
  5
AB
100
AcDbEntity
  8
0
  6
Continuous
 62
               2
100
AcDbLine
 10
289.87804008043418
 20
340.52784616169129
 30
0.0
 11
298.04435943398704
 21
300.34935405190936
 31
0.0
  0
LINE
  5
AC
100
AcDbEntity
  8
0
  6
Continuous
 62
               2
100
AcDbLine
 10
289.87804008043418
 20
340.52784616169129
 30
0.0
 11
316.33704707955889
 21
345.90566622378697
 31
0.0
  0
LINE
  5
AD
100
AcDbEntity
  8
0
  6
DASHED
 62
               6
100
AcDbLine
 10
323.00952752697401
 20
313.07689828042885
 30
0.0
 11
293.53098395177005
 21
332.59651581471508
 31
0.0
  0
LINE
  5
AE
100
AcDbEntity
  8
0
  6
DASHED
 62
               6
100
AcDbLine
 10
323.57288945792351
 20
310.30514372153357
 30
0.0
 11
294.09434588271949
 21
329.82476125581979
 31
0.0
  0
LINE
  5
AF
100
AcDbEntity
  8
0
  6
DASHED
 62
               6
100
AcDbLine
 10
322.44616559602457
 20
315.84865283932425
 30
0.0
 11
292.96762202082056
 21
335.36827037361036
 31
0.0
  0
LINE
  5
B0
100
AcDbEntity
  8
0
  6
DASHED
 62
               6
100
AcDbLine
 10
324.13625138887295
 20
307.53338916263817
 30
0.0
 11
294.65770781366899
 21
327.0530066969244
 31
0.0
  0
LINE
  5
B1
100
AcDbEntity
  8
0
  6
DASHED
 62
               6
100
AcDbLine
 10
321.88280366507496
 20
318.62040739821941
 30
0.0
 11
292.40426008987106
 21
338.14002493250575
 31
0.0
  0
LINE
  5
B2
100
AcDbEntity
  8
0
  6
DASHED
 62
               6
100
AcDbLine
 10
321.31944173412558
 20
321.39216195711435
 30
0.0
 11
293.00268455589475
 21
340.14248686784902
 31
0.0
  0
LINE
  5
B3
100
AcDbEntity
  8
0
  6
DASHED
 62
               6
100
AcDbLine
 10
320.75607980317614
 20
324.16391651601009
 30
0.0
 11
295.77443911479025
 21
340.70584879879846
 31
0.0
  0
LINE
  5
B4
100
AcDbEntity
  8
0
  6
DASHED
 62
               6
100
AcDbLine
 10
320.19271787222658
 20
326.93567107490537
 30
0.0
 11
298.54619367368559
 21
341.2692107297479
 31
0.0
  0
LINE
  5
B5
100
AcDbEntity
  8
0
  6
DASHED
 62
               6
100
AcDbLine
 10
319.62935594127708
 20
329.70742563380088
 30
0.0
 11
301.3179482325811
 21
341.83257266069745
 31
0.0
  0
LINE
  5
B6
100
AcDbEntity
  8
0
  6
DASHED
 62
               6
100
AcDbLine
 10
319.06599401032764
 20
332.47918019269605
 30
0.0
 11
304.08970279147621
 21
342.39593459164689
 31
0.0
  0
LINE
  5
B7
100
AcDbEntity
  8
0
  6
DASHED
 62
               6
100
AcDbLine
 10
318.50263207937815
 20
335.25093475159122
 30
0.0
 11
306.8614573503715
 21
342.95929652259633
 31
0.0
  0
LINE
  5
B8
100
AcDbEntity
  8
0
  6
DASHED
 62
               6
100
AcDbLine
 10
317.93927014842865
 20
338.02268931048673
 30
0.0
 11
309.63321190926683
 21
343.52265845354577
 31
0.0
  0
LINE
  5
B9
100
AcDbEntity
  8
0
  6
DASHED
 62
               6
100
AcDbLine
 10
317.37590821747921
 20
340.79444386938201
 30
0.0
 11
312.40496646816212
 21
344.08602038449521
 31
0.0
  0
LINE
  5
BA
100
AcDbEntity
  8
0
  6
DASHED
 62
               6
100
AcDbLine
 10
316.81254628652971
 20
343.56619842827729
 30
0.0
 11
315.17672102705745
 21
344.64938231544465
 31
0.0
  0
LINE
  5
BB
100
AcDbEntity
  8
0
  6
DASHED
 62
               6
100
AcDbLine
 10
323.53782692284943
 20
305.53092722729434
 30
0.0
 11
295.22106974461849
 21
324.28125213802912
 31
0.0
  0
LINE
  5
BC
100
AcDbEntity
  8
0
  6
DASHED
 62
               6
100
AcDbLine
 10
320.76607236395421
 20
304.9675652963449
 30
0.0
 11
295.78443167556799
 21
321.50949757913384
 31
0.0
  0
LINE
  5
BD
100
AcDbEntity
  8
0
  6
DASHED
 62
               6
100
AcDbLine
 10
317.99431780505898
 20
304.40420336539546
 30
0.0
 11
296.34779360651743
 21
318.73774302023844
 31
0.0
  0
LINE
  5
BE
100
AcDbEntity
  8
0
  6
DASHED
 62
               6
100
AcDbLine
 10
315.22256324616376
 20
303.84084143444602
 30
0.0
 11
296.91115553746693
 21
315.96598846134316
 31
0.0
  0
LINE
  5
BF
100
AcDbEntity
  8
0
  6
DASHED
 62
               6
100
AcDbLine
 10
312.45080868726831
 20
303.27747950349647
 30
0.0
 11
297.47451746841642
 21
313.19423390244776
 31
0.0
  0
LINE
  5
C0
100
AcDbEntity
  8
0
  6
DASHED
 62
               6
100
AcDbLine
 10
309.67905412837308
 20
302.71411757254714
 30
0.0
 11
298.03787939936586
 21
310.42247934355248
 31
0.0
  0
LINE
  5
C1
100
AcDbEntity
  8
0
  6
DASHED
 62
               6
100
AcDbLine
 10
306.90729956947769
 20
302.1507556415977
 30
0.0
 11
298.60124133031536
 21
307.6507247846572
 31
0.0
  0
LINE
  5
C2
100
AcDbEntity
  8
0
  6
DASHED
 62
               6
100
AcDbLine
 10
304.1355450105824
 20
301.58739371064814
 30
0.0
 11
299.16460326126486
 21
304.8789702257618
 31
0.0
  0
LINE
  5
C3
100
AcDbEntity
  8
0
  6
DASHED
 62
               6
100
AcDbLine
 10
301.36379045168724
 20
301.0240317796987
 30
0.0
 11
299.72796519221436
 21
302.10721566686652
 31
0.0
  0
LINE
  5
C4
100
AcDbEntity
  8
0
  6
Continuous
 62
               7
100
AcDbLine
 10
308.92313519452495
 20
376.03262132654027
 30
0.0
 11
298.63352136153213
 21
373.94124685794714
 31
0.0
  0
LINE
  5
C5
100
AcDbEntity
  8
0
  6
Continuous
 62
               7
100
AcDbLine
 10
298.53393210112318
 20
374.43122846904203
 30
0.0
 11
298.63352136153213
 21
373.94124685794714
 31
0.0
  0
LINE
  5
C6
100
AcDbEntity
  8
0
  6
Continuous
 62
               7
100
AcDbLine
 10
308.23397506261114
 20
376.91299528832121
 30
0.0
 11
298.92432445180839
 21
375.02079934054655
 31
0.0
  0
LINE
  5
C7
100
AcDbEntity
  8
0
  6
Continuous
 62
               7
100
AcDbLine
 10
308.82354593411577
 20
376.52260293763516
 30
0.0
 11
308.92313519452495
 21
376.03262132654027
 31
0.0
  0
LINE
  5
C8
100
AcDbEntity
  8
0
  6
Continuous
 62
               7
100
AcDbLine
 10
330.23721278306436
 20
254.84981480452711
 30
0.0
 11
305.73825472240787
 21
375.38529113388063
 31
0.0
  0
LINE
  5
C9
100
AcDbEntity
  8
0
  6
Continuous
 62
               7
100
AcDbLine
 10
328.6756433803277
 20
252.49153131851983
 30
0.0
 11
330.23721278306436
 21
254.84981480452711
 31
0.0
  0
LINE
  5
CA
100
AcDbEntity
  8
0
  6
Continuous
 62
               7
100
AcDbLine
 10
326.31735989430581
 20
254.05310072126736
 30
0.0
 11
328.6756433803277
 21
252.49153131851983
 31
0.0
  0
LINE
  5
CB
100
AcDbEntity
  8
0
  6
Continuous
 62
               7
100
AcDbLine
 10
326.31735989430581
 20
254.05310072126736
 30
0.0
 11
301.81840183364915
 21
374.58857705060723
 31
0.0
  0
LINE
  5
CC
100
AcDbEntity
  8
0
  6
Continuous
 62
               7
100
AcDbLine
 10
285.66988061962519
 20
360.61832072056131
 30
0.0
 11
287.76125508821843
 21
350.32870688756861
 31
0.0
  0
LINE
  5
CD
100
AcDbEntity
  8
0
  6
Continuous
 62
               7
100
AcDbLine
 10
287.27127347712349
 20
350.22911762715967
 30
0.0
 11
287.76125508821843
 21
350.32870688756861
 31
0.0
  0
LINE
  5
CE
100
AcDbEntity
  8
0
  6
Continuous
 62
               7
100
AcDbLine
 10
284.78950665784424
 20
359.92916058864751
 30
0.0
 11
286.68170260561908
 21
350.61950997784481
 31
0.0
  0
LINE
  5
CF
100
AcDbEntity
  8
0
  6
Continuous
 62
               7
100
AcDbLine
 10
285.1798990085303
 20
360.51873146015214
 30
0.0
 11
285.66988061962519
 21
360.61832072056131
 31
0.0
  0
LINE
  5
D0
100
AcDbEntity
  8
0
  6
Continuous
 62
               7
100
AcDbLine
 10
315.71610747798115
 20
363.40879587299503
 30
0.0
 11
286.31721081228488
 21
357.4334402484443
 31
0.0
  0
LINE
  5
D1
100
AcDbEntity
  8
0
  6
Continuous
 62
               7
100
AcDbLine
 10
318.07439096399503
 20
361.84722647025399
 30
0.0
 11
315.71610747798115
 21
363.40879587299503
 31
0.0
  0
LINE
  5
D2
100
AcDbEntity
  8
0
  6
Continuous
 62
               7
100
AcDbLine
 10
316.51282156125103
 20
359.48894298423625
 30
0.0
 11
318.07439096399503
 21
361.84722647025399
 31
0.0
  0
LINE
  5
D3
100
AcDbEntity
  8
0
  6
Continuous
 62
               7
100
AcDbLine
 10
316.51282156125103
 20
359.48894298423625
 30
0.0
 11
287.11392489555828
 21
353.51358735968552
 31
0.0
  0
LINE
  5
D4
100
AcDbEntity
  8
0
  6
Continuous
 62
               3
100
AcDbLine
 10
423.41042750043607
 20
321.77502288141886
 30
0.0
 11
420.5
 21
310.13331287967492
 31
0.0
  0
LINE
  5
D5
100
AcDbEntity
  8
0
  6
Continuous
 62
               3
100
AcDbLine
 10
775.5
 20
233.75262975652777
 30
0.0
 11
423.41042750043607
 21
321.77502288141886
 31
0.0
  0
LINE
  5
D6
100
AcDbEntity
  8
0
  6
Continuous
 62
               3
100
AcDbLine
 10
775.5
 20
221.3833128796748
 30
0.0
 11
420.5
 21
310.13331287967492
 31
0.0
  0
LINE
  5
D7
100
AcDbEntity
  8
0
  6
Continuous
 62
               7
100
AcDbLine
 10
775.5
 20
223.44486569248363
 30
0.0
 11
420.98507125007268
 21
312.0735978799654
 31
0.0
  0
LINE
  5
D8
100
AcDbEntity
  8
0
  6
Continuous
 62
               7
100
AcDbLine
 10
775.5
 20
225.50641850529246
 30
0.0
 11
421.47014250014536
 21
314.01388288025612
 31
0.0
  0
LINE
  5
D9
100
AcDbEntity
  8
0
  6
Continuous
 62
               7
100
AcDbLine
 10
775.5
 20
227.56797131810129
 30
0.0
 11
421.95521375021815
 21
315.95416788054661
 31
0.0
  0
LINE
  5
DA
100
AcDbEntity
  8
0
  6
Continuous
 62
               7
100
AcDbLine
 10
775.5
 20
229.62952413091
 30
0.0
 11
422.44028500029071
 21
317.89445288083743
 31
0.0
  0
LINE
  5
DB
100
AcDbEntity
  8
0
  6
Continuous
 62
               7
100
AcDbLine
 10
775.5
 20
231.69107694371894
 30
0.0
 11
422.92535625036339
 21
319.83473788112804
 31
0.0
  0
LINE
  5
DC
100
AcDbEntity
  8
0
  6
Continuous
 62
               3
100
AcDbLine
 10
775.5
 20
174.99837459147602
 30
0.0
 11
420.50000000000011
 21
263.74837459147614
 31
0.0
  0
LINE
  5
DD
100
AcDbEntity
  8
0
  6
DASHED
 62
               6
100
AcDbLine
 10
775.5
 20
234.78340616293224
 30
0.0
 11
420.49999999999989
 21
323.53340616293235
 31
0.0
  0
LINE
  5
DE
100
AcDbEntity
  8
0
  6
Continuous
 62
               2
100
AcDbLine
 10
557.6948511065716
 20
372.86663249395451
 30
0.0
 11
420.5
 21
400.75162540852398
 31
0.0
  0
LINE
  5
DF
100
AcDbEntity
  8
0
  6
Continuous
 62
               2
100
AcDbLine
 10
551.71949548202087
 20
343.46773582826063
 30
0.0
 11
557.69485110657183
 21
372.86663249395451
 31
0.0
  0
LINE
  5
E0
100
AcDbEntity
  8
0
  6
Continuous
 62
               2
100
AcDbLine
 10
581.11839214771499
 20
337.49238020371001
 30
0.0
 11
551.71949548202087
 21
343.46773582826063
 31
0.0
  0
LINE
  5
E1
100
AcDbEntity
  8
0
  6
Continuous
 62
               2
100
AcDbLine
 10
580.91921362689664
 20
336.51241698152023
 30
0.0
 11
570.96952415702435
 21
337.51425501888787
 31
0.0
  0
LINE
  5
E2
100
AcDbEntity
  8
0
  6
Continuous
 62
               3
100
AcDbLine
 10
555.33656762055534
 20
371.30506309121154
 30
0.0
 11
549.36121199600461
 21
341.90616642551765
 31
0.0
  0
LINE
  5
E3
100
AcDbEntity
  8
0
  6
Continuous
 62
               3
100
AcDbLine
 10
506.33840651106539
 20
381.26398913212927
 30
0.0
 11
555.33656762055534
 21
371.30506309121154
 31
0.0
  0
LINE
  5
E4
100
AcDbEntity
  8
0
  6
Continuous
 62
               3
100
AcDbLine
 10
506.33840651106539
 20
381.26398913212927
 30
0.0
 11
500.36305088651466
 21
351.86509246643539
 31
0.0
  0
LINE
  5
E5
100
AcDbEntity
  8
0
  6
Continuous
 62
               3
100
AcDbLine
 10
500.36305088651466
 20
351.86509246643539
 30
0.0
 11
549.36121199600461
 21
341.90616642551765
 31
0.0
  0
LINE
  5
E6
100
AcDbEntity
  8
0
  6
Continuous
 62
               7
100
AcDbLine
 10
510.16268310841252
 20
349.873307258252
 30
0.0
 11
545.53693539865685
 21
373.29684829939515
 31
0.0
  0
LINE
  5
E7
100
AcDbEntity
  8
0
  6
Continuous
 62
               7
100
AcDbLine
 10
512.93443766730775
 20
349.30994532730244
 30
0.0
 11
548.30868995755213
 21
372.73348636844571
 31
0.0
  0
LINE
  5
E8
100
AcDbEntity
  8
0
  6
Continuous
 62
               7
100
AcDbLine
 10
507.39092854951724
 20
350.43666918920144
 30
0.0
 11
542.76518083976157
 21
373.86021023034459
 31
0.0
  0
LINE
  5
E9
100
AcDbEntity
  8
0
  6
Continuous
 62
               7
100
AcDbLine
 10
515.70619222620303
 20
348.746583396353
 30
0.0
 11
551.08044451644741
 21
372.17012443749627
 31
0.0
  0
LINE
  5
EA
100
AcDbEntity
  8
0
  6
Continuous
 62
               7
100
AcDbLine
 10
504.61917399062213
 20
351.00003112015088
 30
0.0
 11
539.99342628086652
 21
374.42357216129403
 31
0.0
  0
LINE
  5
EB
100
AcDbEntity
  8
0
  6
Continuous
 62
               7
100
AcDbLine
 10
518.47794678509831
 20
348.18322146540368
 30
0.0
 11
553.8521990753427
 21
371.60676250654683
 31
0.0
  0
LINE
  5
EC
100
AcDbEntity
  8
0
  6
Continuous
 62
               7
100
AcDbLine
 10
501.84741943172691
 20
351.56339305110021
 30
0.0
 11
537.22167172197123
 21
374.98693409224347
 31
0.0
  0
LINE
  5
ED
100
AcDbEntity
  8
0
  6
Continuous
 62
               7
100
AcDbLine
 10
521.24970134399359
 20
347.61985953445412
 30
0.0
 11
555.07490510494108
 21
370.0176770775289
 31
0.0
  0
LINE
  5
EE
100
AcDbEntity
  8
0
  6
Continuous
 62
               7
100
AcDbLine
 10
524.02145590288887
 20
347.05649760350468
 30
0.0
 11
554.51154317399164
 21
367.24592251863351
 31
0.0
  0
LINE
  5
EF
100
AcDbEntity
  8
0
  6
Continuous
 62
               7
100
AcDbLine
 10
526.79321046178416
 20
346.49313567255524
 30
0.0
 11
553.9481812430422
 21
364.47416795973834
 31
0.0
  0
LINE
  5
F0
100
AcDbEntity
  8
0
  6
Continuous
 62
               7
100
AcDbLine
 10
529.56496502067921
 20
345.9297737416058
 30
0.0
 11
553.38481931209276
 21
361.70241340084317
 31
0.0
  0
LINE
  5
F1
100
AcDbEntity
  8
0
  6
Continuous
 62
               7
100
AcDbLine
 10
532.33671957957449
 20
345.36641181065647
 30
0.0
 11
552.82145738114332
 21
358.930658841948
 31
0.0
  0
LINE
  5
F2
100
AcDbEntity
  8
0
  6
Continuous
 62
               7
100
AcDbLine
 10
535.10847413846977
 20
344.80304987970703
 30
0.0
 11
552.25809545019388
 21
356.15890428305249
 31
0.0
  0
LINE
  5
F3
100
AcDbEntity
  8
0
  6
Continuous
 62
               7
100
AcDbLine
 10
537.88022869736506
 20
344.23968794875748
 30
0.0
 11
551.69473351924444
 21
353.38714972415733
 31
0.0
  0
LINE
  5
F4
100
AcDbEntity
  8
0
  6
Continuous
 62
               7
100
AcDbLine
 10
540.65198325626034
 20
343.67632601780804
 30
0.0
 11
551.131371588295
 21
350.61539516526204
 31
0.0
  0
LINE
  5
F5
100
AcDbEntity
  8
0
  6
Continuous
 62
               7
100
AcDbLine
 10
543.42373781515562
 20
343.11296408685848
 30
0.0
 11
550.56800965734533
 21
347.84364060636676
 31
0.0
  0
LINE
  5
F6
100
AcDbEntity
  8
0
  6
Continuous
 62
               7
100
AcDbLine
 10
546.1954923740509
 20
342.54960215590916
 30
0.0
 11
550.00464772639589
 21
345.07188604747137
 31
0.0
  0
LINE
  5
F7
100
AcDbEntity
  8
0
  6
Continuous
 62
               7
100
AcDbLine
 10
548.96724693294618
 20
341.98624022495972
 30
0.0
 11
549.44128579544645
 21
342.3001314885762
 31
0.0
  0
LINE
  5
F8
100
AcDbEntity
  8
0
  6
Continuous
 62
               7
100
AcDbLine
 10
505.69497078067405
 20
378.09826951017612
 30
0.0
 11
509.5041261330187
 21
380.62055340173799
 31
0.0
  0
LINE
  5
F9
100
AcDbEntity
  8
0
  6
Continuous
 62
               7
100
AcDbLine
 10
506.2583327116235
 20
380.87002406907118
 30
0.0
 11
506.73237157412342
 21
381.18391533268743
 31
0.0
  0
LINE
  5
FA
100
AcDbEntity
  8
0
  6
Continuous
 62
               7
100
AcDbLine
 10
501.75143726402786
 20
358.69598759790927
 30
0.0
 11
528.90640804528539
 21
376.67701988509191
 31
0.0
  0
LINE
  5
FB
100
AcDbEntity
  8
0
  6
Continuous
 62
               7
100
AcDbLine
 10
502.3147991949773
 20
361.46774215680432
 30
0.0
 11
526.13465348639033
 21
377.24038181604124
 31
0.0
  0
LINE
  5
FC
100
AcDbEntity
  8
0
  6
Continuous
 62
               7
100
AcDbLine
 10
502.87816112592674
 20
364.2394967156996
 30
0.0
 11
523.36289892749505
 21
377.80374374699068
 31
0.0
  0
LINE
  5
FD
100
AcDbEntity
  8
0
  6
Continuous
 62
               7
100
AcDbLine
 10
503.44152305687624
 20
367.01125127459477
 30
0.0
 11
520.59114436859977
 21
378.36710567794012
 31
0.0
  0
LINE
  5
FE
100
AcDbEntity
  8
0
  6
Continuous
 62
               7
100
AcDbLine
 10
504.00488498782562
 20
369.78300583349028
 30
0.0
 11
517.81938980970449
 21
378.93046760888967
 31
0.0
  0
LINE
  5
FF
100
AcDbEntity
  8
0
  6
Continuous
 62
               7
100
AcDbLine
 10
504.56824691877512
 20
372.55476039238545
 30
0.0
 11
515.04763525080921
 21
379.49382953983911
 31
0.0
  0
LINE
  5
100
100
AcDbEntity
  8
0
  6
Continuous
 62
               7
100
AcDbLine
 10
505.13160884972467
 20
375.32651495128061
 30
0.0
 11
512.27588069191393
 21
380.05719147078855
 31
0.0
  0
LINE
  5
101
100
AcDbEntity
  8
0
  6
Continuous
 62
               7
100
AcDbLine
 10
500.62471340212898
 20
353.15247848011848
 30
0.0
 11
534.44991716307572
 21
375.55029602319303
 31
0.0
  0
LINE
  5
102
100
AcDbEntity
  8
0
  6
Continuous
 62
               7
100
AcDbLine
 10
501.18807533307842
 20
355.92423303901376
 30
0.0
 11
531.67816260418067
 21
376.11365795414247
 31
0.0
  0
LINE
  5
103
100
AcDbEntity
  8
0
  6
DASHED
 62
               6
100
AcDbLine
 10
540.99571412163323
 20
300.74771109354617
 30
0.0
 11
548.96285495436769
 21
339.94623998113832
 31
0.0
  0
LINE
  5
104
100
AcDbEntity
  8
0
  6
DASHED
 62
               6
100
AcDbLine
 10
516.49663356688825
 20
305.72717411400504
 30
0.0
 11
540.99571412163323
 21
300.74771109354617
 31
0.0
  0
LINE
  5
105
100
AcDbEntity
  8
0
  6
DASHED
 62
               6
100
AcDbLine
 10
524.46377439962293
 20
344.92570300159741
 30
0.0
 11
516.49663356688825
 21
305.72717411400504
 31
0.0
  0
LINE
  5
106
100
AcDbEntity
  8
0
  6
DASHED
 62
               6
100
AcDbLine
 10
524.46377439962271
 20
344.92570300159718
 30
0.0
 11
548.96285495436769
 21
339.94623998113832
 31
0.0
  0
LINE
  5
107
100
AcDbEntity
  8
0
  6
Continuous
 62
               2
100
AcDbLine
 10
551.12195991956582
 20
340.52784616169129
 30
0.0
 11
542.95564056601302
 21
300.34935405190936
 31
0.0
  0
LINE
  5
108
100
AcDbEntity
  8
0
  6
Continuous
 62
               2
100
AcDbLine
 10
551.12195991956582
 20
340.52784616169129
 30
0.0
 11
524.66295292044106
 21
345.90566622378697
 31
0.0
  0
LINE
  5
109
100
AcDbEntity
  8
0
  6
DASHED
 62
               6
100
AcDbLine
 10
517.9904724730261
 20
313.07689828042885
 30
0.0
 11
547.46901604823006
 21
332.59651581471508
 31
0.0
  0
LINE
  5
10A
100
AcDbEntity
  8
0
  6
DASHED
 62
               6
100
AcDbLine
 10
517.42711054207643
 20
310.30514372153357
 30
0.0
 11
546.90565411728062
 21
329.82476125581979
 31
0.0
  0
LINE
  5
10B
100
AcDbEntity
  8
0
  6
DASHED
 62
               6
100
AcDbLine
 10
518.55383440397554
 20
315.84865283932425
 30
0.0
 11
548.0323779791795
 21
335.36827037361036
 31
0.0
  0
LINE
  5
10C
100
AcDbEntity
  8
0
  6
DASHED
 62
               6
100
AcDbLine
 10
516.86374861112699
 20
307.53338916263817
 30
0.0
 11
546.34229218633095
 21
327.0530066969244
 31
0.0
  0
LINE
  5
10D
100
AcDbEntity
  8
0
  6
DASHED
 62
               6
100
AcDbLine
 10
519.11719633492498
 20
318.62040739821941
 30
0.0
 11
548.59573991012894
 21
338.14002493250575
 31
0.0
  0
LINE
  5
10E
100
AcDbEntity
  8
0
  6
DASHED
 62
               6
100
AcDbLine
 10
519.68055826587442
 20
321.39216195711435
 30
0.0
 11
547.9973154441052
 21
340.14248686784902
 31
0.0
  0
LINE
  5
10F
100
AcDbEntity
  8
0
  6
DASHED
 62
               6
100
AcDbLine
 10
520.24392019682386
 20
324.16391651601009
 30
0.0
 11
545.22556088520969
 21
340.70584879879846
 31
0.0
  0
LINE
  5
110
100
AcDbEntity
  8
0
  6
DASHED
 62
               6
100
AcDbLine
 10
520.80728212777353
 20
326.93567107490537
 30
0.0
 11
542.45380632631441
 21
341.2692107297479
 31
0.0
  0
LINE
  5
111
100
AcDbEntity
  8
0
  6
DASHED
 62
               6
100
AcDbLine
 10
521.37064405872297
 20
329.70742563380088
 30
0.0
 11
539.6820517674189
 21
341.83257266069745
 31
0.0
  0
LINE
  5
112
100
AcDbEntity
  8
0
  6
DASHED
 62
               6
100
AcDbLine
 10
521.93400598967241
 20
332.47918019269605
 30
0.0
 11
536.91029720852384
 21
342.39593459164689
 31
0.0
  0
LINE
  5
113
100
AcDbEntity
  8
0
  6
DASHED
 62
               6
100
AcDbLine
 10
522.49736792062185
 20
335.25093475159122
 30
0.0
 11
534.13854264962856
 21
342.95929652259633
 31
0.0
  0
LINE
  5
114
100
AcDbEntity
  8
0
  6
DASHED
 62
               6
100
AcDbLine
 10
523.0607298515713
 20
338.02268931048673
 30
0.0
 11
531.36678809073328
 21
343.52265845354577
 31
0.0
  0
LINE
  5
115
100
AcDbEntity
  8
0
  6
DASHED
 62
               6
100
AcDbLine
 10
523.62409178252074
 20
340.79444386938201
 30
0.0
 11
528.595033531838
 21
344.08602038449521
 31
0.0
  0
LINE
  5
116
100
AcDbEntity
  8
0
  6
DASHED
 62
               6
100
AcDbLine
 10
524.1874537134704
 20
343.56619842827729
 30
0.0
 11
525.82327897294249
 21
344.64938231544465
 31
0.0
  0
LINE
  5
117
100
AcDbEntity
  8
0
  6
DASHED
 62
               6
100
AcDbLine
 10
517.46217307715051
 20
305.53092722729434
 30
0.0
 11
545.77893025538151
 21
324.28125213802912
 31
0.0
  0
LINE
  5
118
100
AcDbEntity
  8
0
  6
DASHED
 62
               6
100
AcDbLine
 10
520.23392763604579
 20
304.9675652963449
 30
0.0
 11
545.21556832443207
 21
321.50949757913384
 31
0.0
  0
LINE
  5
119
100
AcDbEntity
  8
0
  6
DASHED
 62
               6
100
AcDbLine
 10
523.00568219494107
 20
304.40420336539546
 30
0.0
 11
544.65220639348263
 21
318.73774302023844
 31
0.0
  0
LINE
  5
11A
100
AcDbEntity
  8
0
  6
DASHED
 62
               6
100
AcDbLine
 10
525.77743675383635
 20
303.84084143444602
 30
0.0
 11
544.08884446253319
 21
315.96598846134316
 31
0.0
  0
LINE
  5
11B
100
AcDbEntity
  8
0
  6
DASHED
 62
               6
100
AcDbLine
 10
528.54919131273164
 20
303.27747950349647
 30
0.0
 11
543.52548253158352
 21
313.19423390244776
 31
0.0
  0
LINE
  5
11C
100
AcDbEntity
  8
0
  6
DASHED
 62
               6
100
AcDbLine
 10
531.32094587162692
 20
302.71411757254714
 30
0.0
 11
542.96212060063408
 21
310.42247934355248
 31
0.0
  0
LINE
  5
11D
100
AcDbEntity
  8
0
  6
DASHED
 62
               6
100
AcDbLine
 10
534.09270043052243
 20
302.1507556415977
 30
0.0
 11
542.39875866968464
 21
307.6507247846572
 31
0.0
  0
LINE
  5
11E
100
AcDbEntity
  8
0
  6
DASHED
 62
               6
100
AcDbLine
 10
536.86445498941771
 20
301.58739371064814
 30
0.0
 11
541.8353967387352
 21
304.8789702257618
 31
0.0
  0
LINE
  5
11F
100
AcDbEntity
  8
0
  6
DASHED
 62
               6
100
AcDbLine
 10
539.63620954831276
 20
301.0240317796987
 30
0.0
 11
541.27203480778576
 21
302.10721566686652
 31
0.0
  0
LINE
  5
120
100
AcDbEntity
  8
0
  6
Continuous
 62
               7
100
AcDbLine
 10
532.076864805475
 20
376.03262132654027
 30
0.0
 11
542.36647863846792
 21
373.94124685794714
 31
0.0
  0
LINE
  5
121
100
AcDbEntity
  8
0
  6
Continuous
 62
               7
100
AcDbLine
 10
542.46606789887687
 20
374.43122846904203
 30
0.0
 11
542.36647863846792
 21
373.94124685794714
 31
0.0
  0
LINE
  5
122
100
AcDbEntity
  8
0
  6
Continuous
 62
               7
100
AcDbLine
 10
532.76602493738892
 20
376.91299528832121
 30
0.0
 11
542.07567554819161
 21
375.02079934054655
 31
0.0
  0
LINE
  5
123
100
AcDbEntity
  8
0
  6
Continuous
 62
               7
100
AcDbLine
 10
532.17645406588417
 20
376.52260293763516
 30
0.0
 11
532.076864805475
 21
376.03262132654027
 31
0.0
  0
LINE
  5
124
100
AcDbEntity
  8
0
  6
Continuous
 62
               7
100
AcDbLine
 10
510.76278721693564
 20
254.84981480452711
 30
0.0
 11
535.26174527759213
 21
375.38529113388063
 31
0.0
  0
LINE
  5
125
100
AcDbEntity
  8
0
  6
Continuous
 62
               7
100
AcDbLine
 10
512.32435661967224
 20
252.49153131851983
 30
0.0
 11
510.76278721693564
 21
254.84981480452711
 31
0.0
  0
LINE
  5
126
100
AcDbEntity
  8
0
  6
Continuous
 62
               7
100
AcDbLine
 10
514.68264010569419
 20
254.05310072126736
 30
0.0
 11
512.32435661967224
 21
252.49153131851983
 31
0.0
  0
LINE
  5
127
100
AcDbEntity
  8
0
  6
Continuous
 62
               7
100
AcDbLine
 10
514.68264010569419
 20
254.05310072126736
 30
0.0
 11
539.1815981663508
 21
374.58857705060723
 31
0.0
  0
LINE
  5
128
100
AcDbEntity
  8
0
  6
Continuous
 62
               7
100
AcDbLine
 10
555.33011938037475
 20
360.61832072056131
 30
0.0
 11
553.23874491178162
 21
350.32870688756861
 31
0.0
  0
LINE
  5
129
100
AcDbEntity
  8
0
  6
Continuous
 62
               7
100
AcDbLine
 10
553.72872652287651
 20
350.22911762715967
 30
0.0
 11
553.23874491178162
 21
350.32870688756861
 31
0.0
  0
LINE
  5
12A
100
AcDbEntity
  8
0
  6
Continuous
 62
               7
100
AcDbLine
 10
556.21049334215581
 20
359.92916058864751
 30
0.0
 11
554.31829739438103
 21
350.61950997784481
 31
0.0
  0
LINE
  5
12B
100
AcDbEntity
  8
0
  6
Continuous
 62
               7
100
AcDbLine
 10
555.82010099146964
 20
360.51873146015214
 30
0.0
 11
555.33011938037475
 21
360.61832072056131
 31
0.0
  0
LINE
  5
12C
100
AcDbEntity
  8
0
  6
Continuous
 62
               7
100
AcDbLine
 10
525.28389252201896
 20
363.40879587299503
 30
0.0
 11
554.68278918771512
 21
357.4334402484443
 31
0.0
  0
LINE
  5
12D
100
AcDbEntity
  8
0
  6
Continuous
 62
               7
100
AcDbLine
 10
522.92560903600497
 20
361.84722647025399
 30
0.0
 11
525.28389252201896
 21
363.40879587299503
 31
0.0
  0
LINE
  5
12E
100
AcDbEntity
  8
0
  6
Continuous
 62
               7
100
AcDbLine
 10
524.48717843874897
 20
359.48894298423625
 30
0.0
 11
522.92560903600497
 21
361.84722647025399
 31
0.0
  0
LINE
  5
12F
100
AcDbEntity
  8
0
  6
Continuous
 62
               7
100
AcDbLine
 10
524.48717843874897
 20
359.48894298423625
 30
0.0
 11
553.88607510444172
 21
353.51358735968552
 31
0.0
  0
LINE
  5
130
100
AcDbEntity
  8
0
  6
Continuous
 62
               2
100
AcDbLine
 10
345.95446998832745
 20
324.37338313725581
 30
0.0
 11
348.94214780060292
 21
309.67393480440876
 31
0.0
  0
LINE
  5
131
100
AcDbEntity
  8
0
  6
Continuous
 62
               2
100
AcDbLine
 10
379.52821214730011
 20
375.07647808660636
 30
0.0
 11
345.95446998832745
 21
324.37338313725581
 31
0.0
  0
LINE
  5
132
100
AcDbEntity
  8
0
  6
DASHED
 62
               2
100
AcDbLine
 10
360.65391832117552
 20
327.36106094953027
 30
0.0
 11
382.51588995957536
 21
360.37702975375942
 31
0.0
  0
LINE
  5
133
100
AcDbEntity
  8
0
  6
Continuous
 62
               2
100
AcDbLine
 10
360.65391832117507
 20
327.36106094953016
 30
0.0
 11
348.94214780060292
 21
309.67393480440876
 31
0.0
  0
LINE
  5
134
100
AcDbEntity
  8
0
  6
DASHED
 62
               2
100
AcDbLine
 10
367.81644162672865
 20
357.38935194148416
 30
0.0
 11
382.51588995957536
 21
360.37702975375942
 31
0.0
  0
LINE
  5
135
100
AcDbEntity
  8
0
  6
DASHED
 62
               2
100
AcDbLine
 10
382.51588995957536
 20
360.37702975375942
 30
0.0
 11
379.52821214730011
 21
375.07647808660636
 31
0.0
  0
LINE
  5
136
100
AcDbEntity
  8
0
  6
Continuous
 62
               2
100
AcDbLine
 10
408.92710881299411
 20
381.05183371115697
 30
0.0
 11
379.52821214730011
 21
375.07647808660636
 31
0.0
  0
LINE
  5
137
100
AcDbEntity
  8
0
  6
Continuous
 62
               2
100
AcDbLine
 10
402.79233687533645
 20
335.92573734472046
 30
0.0
 11
345.95446998832745
 21
324.37338313725581
 31
0.0
  0
LINE
  5
138
100
AcDbEntity
  8
0
  6
Continuous
 62
               2
100
AcDbLine
 10
415.49999999999994
 20
348.71304737889375
 30
0.0
 11
408.92710881299411
 21
381.05183371115697
 31
0.0
  0
LINE
  5
139
100
AcDbEntity
  8
0
  6
Continuous
 62
               2
100
AcDbLine
 10
415.5
 20
348.71304737889375
 30
0.0
 11
402.79233687533628
 21
335.92573734472035
 31
0.0
  0
LINE
  5
13A
100
AcDbEntity
  8
0
  6
Continuous
 62
               3
100
AcDbLine
 10
417.58957249956393
 20
321.77502288141886
 30
0.0
 11
65.499999999999943
 21
233.75262975652777
 31
0.0
  0
LINE
  5
13B
100
AcDbEntity
  8
0
  6
Continuous
 62
               3
100
AcDbLine
 10
420.5
 20
310.13331287967492
 30
0.0
 11
65.499999999999943
 21
221.3833128796748
 31
0.0
  0
LINE
  5
13C
100
AcDbEntity
  8
0
  6
Continuous
 62
               7
100
AcDbLine
 10
420.01492874992732
 20
312.0735978799654
 30
0.0
 11
65.499999999999943
 21
223.44486569248363
 31
0.0
  0
LINE
  5
13D
100
AcDbEntity
  8
0
  6
Continuous
 62
               7
100
AcDbLine
 10
419.52985749985464
 20
314.01388288025612
 30
0.0
 11
65.499999999999943
 21
225.50641850529246
 31
0.0
  0
LINE
  5
13E
100
AcDbEntity
  8
0
  6
Continuous
 62
               7
100
AcDbLine
 10
419.04478624978185
 20
315.95416788054661
 30
0.0
 11
65.499999999999943
 21
227.56797131810129
 31
0.0
  0
LINE
  5
13F
100
AcDbEntity
  8
0
  6
Continuous
 62
               7
100
AcDbLine
 10
418.55971499970929
 20
317.89445288083743
 30
0.0
 11
65.499999999999943
 21
229.62952413091
 31
0.0
  0
LINE
  5
140
100
AcDbEntity
  8
0
  6
Continuous
 62
               7
100
AcDbLine
 10
418.07464374963661
 20
319.83473788112804
 30
0.0
 11
65.499999999999943
 21
231.69107694371894
 31
0.0
  0
LINE
  5
141
100
AcDbEntity
  8
0
  6
DASHED
 62
               6
100
AcDbLine
 10
420.50000000000011
 20
323.53340616293235
 30
0.0
 11
65.499999999999943
 21
234.78340616293224
 31
0.0
  0
LINE
  5
142
100
AcDbEntity
  8
0
  6
Continuous
 62
               2
100
AcDbLine
 10
65.499999999999943
 20
295.94322794539653
 30
0.0
 11
367.81644162672865
 21
357.38935194148416
 31
0.0
  0
LINE
  5
143
100
AcDbEntity
  8
0
  6
Continuous
 62
               2
100
AcDbLine
 10
65.499999999999943
 20
252.06403020988
 30
0.0
 11
348.94214780060292
 21
309.67393480440876
 31
0.0
  0
LINE
  5
144
100
AcDbEntity
  8
0
  6
Continuous
 62
               2
100
AcDbLine
 10
495.04553001167255
 20
324.37338313725581
 30
0.0
 11
492.05785219939708
 21
309.67393480440876
 31
0.0
  0
LINE
  5
145
100
AcDbEntity
  8
0
  6
Continuous
 62
               2
100
AcDbLine
 10
461.47178785269989
 20
375.07647808660636
 30
0.0
 11
495.04553001167255
 21
324.37338313725581
 31
0.0
  0
LINE
  5
146
100
AcDbEntity
  8
0
  6
DASHED
 62
               2
100
AcDbLine
 10
480.34608167882448
 20
327.36106094953027
 30
0.0
 11
458.48411004042464
 21
360.37702975375942
 31
0.0
  0
LINE
  5
147
100
AcDbEntity
  8
0
  6
Continuous
 62
               2
100
AcDbLine
 10
480.34608167882493
 20
327.36106094953016
 30
0.0
 11
492.05785219939708
 21
309.67393480440876
 31
0.0
  0
LINE
  5
148
100
AcDbEntity
  8
0
  6
DASHED
 62
               2
100
AcDbLine
 10
473.18355837327135
 20
357.38935194148416
 30
0.0
 11
458.48411004042464
 21
360.37702975375942
 31
0.0
  0
LINE
  5
149
100
AcDbEntity
  8
0
  6
DASHED
 62
               2
100
AcDbLine
 10
458.48411004042464
 20
360.37702975375942
 30
0.0
 11
461.47178785269989
 21
375.07647808660636
 31
0.0
  0
LINE
  5
14A
100
AcDbEntity
  8
0
  6
Continuous
 62
               2
100
AcDbLine
 10
432.07289118700589
 20
381.05183371115697
 30
0.0
 11
461.47178785269989
 21
375.07647808660636
 31
0.0
  0
LINE
  5
14B
100
AcDbEntity
  8
0
  6
Continuous
 62
               2
100
AcDbLine
 10
438.20766312466355
 20
335.92573734472046
 30
0.0
 11
495.04553001167255
 21
324.37338313725581
 31
0.0
  0
LINE
  5
14C
100
AcDbEntity
  8
0
  6
Continuous
 62
               2
100
AcDbLine
 10
425.50000000000006
 20
348.71304737889375
 30
0.0
 11
432.07289118700589
 21
381.05183371115697
 31
0.0
  0
LINE
  5
14D
100
AcDbEntity
  8
0
  6
Continuous
 62
               2
100
AcDbLine
 10
425.5
 20
348.71304737889375
 30
0.0
 11
438.20766312466372
 21
335.92573734472035
 31
0.0
  0
LINE
  5
14E
100
AcDbEntity
  8
0
  6
Continuous
 62
               2
100
AcDbLine
 10
775.5
 20
295.94322794539653
 30
0.0
 11
473.18355837327135
 21
357.38935194148416
 31
0.0
  0
LINE
  5
14F
100
AcDbEntity
  8
0
  6
Continuous
 62
               2
100
AcDbLine
 10
775.5
 20
252.06403020988
 30
0.0
 11
492.05785219939708
 21
309.67393480440876
 31
0.0
  0
LINE
  5
150
100
AcDbEntity
  8
0
  6
DASHDOT
 62
               4
100
AcDbLine
 10
420.5
 20
500.75162540852386
 30
0.0
 11
420.5
 21
123.74837459147614
 31
0.0
  0
LINE
  5
151
100
AcDbEntity
  8
0
  6
Continuous
 62
               4
100
AcDbLine
 10
404.0
 20
36.0
 30
0.0
 11
404.0
 21
20.0
 31
0.0
  0
LINE
  5
152
100
AcDbEntity
  8
0
  6
Continuous
 62
               4
100
AcDbLine
 10
404.0
 20
20.0
 30
0.0
 11
436.0
 21
20.0
 31
0.0
  0
LINE
  5
153
100
AcDbEntity
  8
0
  6
Continuous
 62
               4
100
AcDbLine
 10
436.0
 20
20.0
 30
0.0
 11
436.0
 21
36.0
 31
0.0
  0
LINE
  5
154
100
AcDbEntity
  8
0
  6
Continuous
 62
               4
100
AcDbLine
 10
436.0
 20
36.0
 30
0.0
 11
404.0
 21
36.0
 31
0.0
  0
CIRCLE
  5
155
100
AcDbEntity
  8
0
  6
Continuous
 62
               4
100
AcDbCircle
 10
219.02593327053845
 20
357.76092367556294
 30
0.0
 40
1.0
  0
CIRCLE
  5
156
100
AcDbEntity
  8
0
  6
Continuous
 62
               4
100
AcDbCircle
 10
225.00128889508937
 20
328.3620270098686
 30
0.0
 40
1.0
  0
CIRCLE
  5
157
100
AcDbEntity
  8
0
  6
Continuous
 62
               4
100
AcDbCircle
 10
225.00128889508937
 20
328.3620270098686
 30
0.0
 40
1.0
  0
CIRCLE
  5
158
100
AcDbEntity
  8
0
  6
Continuous
 62
               4
100
AcDbCircle
 10
233.56596529027888
 20
286.22360845570745
 30
0.0
 40
1.0
  0
CIRCLE
  5
159
100
AcDbEntity
  8
0
  6
Continuous
 62
               4
100
AcDbCircle
 10
276.13472214396768
 20
408.14530849278708
 30
0.0
 40
1.0
  0
CIRCLE
  5
15A
100
AcDbEntity
  8
0
  6
Continuous
 62
               4
100
AcDbCircle
 10
246.73582547827385
 20
402.16995286823646
 30
0.0
 40
1.0
  0
CIRCLE
  5
15B
100
AcDbEntity
  8
0
  6
Continuous
 62
               4
100
AcDbCircle
 10
408.54928875089877
 20
459.54941873991208
 30
0.0
 40
1.0
  0
CIRCLE
  5
15C
100
AcDbEntity
  8
0
  6
Continuous
 62
               4
100
AcDbCircle
 10
271.35443764432711
 20
431.66442582534262
 30
0.0
 40
1.0
  0
CIRCLE
  5
15D
100
AcDbEntity
  8
0
  6
Continuous
 62
               4
100
AcDbCircle
 10
398.37064720962144
 20
432.98988448721605
 30
0.0
 40
1.0
  0
CIRCLE
  5
15E
100
AcDbEntity
  8
0
  6
Continuous
 62
               4
100
AcDbCircle
 10
368.97175054392744
 20
427.01452886266543
 30
0.0
 40
1.0
  0
CIRCLE
  5
15F
100
AcDbEntity
  8
0
  6
Continuous
 62
               4
100
AcDbCircle
 10
368.97175054392744
 20
427.01452886266543
 30
0.0
 40
1.0
  0
CIRCLE
  5
160
100
AcDbEntity
  8
0
  6
Continuous
 62
               4
100
AcDbCircle
 10
326.83333198976555
 20
418.44985246747615
 30
0.0
 40
1.0
  0
CIRCLE
  5
161
100
AcDbEntity
  8
0
  6
Continuous
 62
               4
100
AcDbCircle
 10
415.5
 20
372.71304737889375
 30
0.0
 40
1.0
  0
CIRCLE
  5
162
100
AcDbEntity
  8
0
  6
Continuous
 62
               4
100
AcDbCircle
 10
425.50000000000006
 20
372.71304737889375
 30
0.0
 40
1.0
  0
ARC
  5
163
100
AcDbEntity
  8
0
  6
Continuous
 62
               2
100
AcDbCircle
 10
259.9811971126943
 20
337.00239859261512
 30
0.0
 40
0.499999999999991
100
AcDbArc
 50
101.48892528535549
 51
281.48892528535549
  0
ARC
  5
164
100
AcDbEntity
  8
0
  6
Continuous
 62
               7
100
AcDbCircle
 10
299.02391371221785
 20
374.5308177294512
 30
0.0
 40
0.5
100
AcDbArc
 50
101.48892528535566
 51
191.48892528535569
  0
ARC
  5
165
100
AcDbEntity
  8
0
  6
Continuous
 62
               7
100
AcDbCircle
 10
308.33356432302088
 20
376.42301367722598
 30
0.0
 40
0.5
100
AcDbArc
 50
11.488925285355469
 51
101.48892528535566
  0
ARC
  5
166
100
AcDbEntity
  8
0
  6
Continuous
 62
               7
100
AcDbCircle
 10
287.17168421671437
 20
350.71909923825433
 30
0.0
 40
0.5
100
AcDbArc
 50
191.48892528535615
 51
281.48892528535617
  0
ARC
  5
167
100
AcDbEntity
  8
0
  6
Continuous
 62
               7
100
AcDbCircle
 10
285.27948826893947
 20
360.02874984905725
 30
0.0
 40
0.5
100
AcDbArc
 50
101.48892528535595
 51
191.48892528535615
  0
ARC
  5
168
100
AcDbEntity
  8
0
  6
Continuous
 62
               2
100
AcDbCircle
 10
581.01880288730581
 20
337.00239859261512
 30
0.0
 40
0.499999999999991
100
AcDbArc
 50
258.51107471464451
 51
78.511074714644508
  0
ARC
  5
169
100
AcDbEntity
  8
0
  6
Continuous
 62
               7
100
AcDbCircle
 10
541.97608628778221
 20
374.5308177294512
 30
0.0
 40
0.5
100
AcDbArc
 50
348.51107471464422
 51
78.511074714644352
  0
ARC
  5
16A
100
AcDbEntity
  8
0
  6
Continuous
 62
               7
100
AcDbCircle
 10
532.66643567697906
 20
376.42301367722598
 30
0.0
 40
0.5
100
AcDbArc
 50
78.511074714644323
 51
168.51107471464459
  0
ARC
  5
16B
100
AcDbEntity
  8
0
  6
Continuous
 62
               7
100
AcDbCircle
 10
553.82831578328569
 20
350.71909923825433
 30
0.0
 40
0.5
100
AcDbArc
 50
258.51107471464383
 51
348.51107471464383
  0
ARC
  5
16C
100
AcDbEntity
  8
0
  6
Continuous
 62
               7
100
AcDbCircle
 10
555.72051173106047
 20
360.02874984905725
 30
0.0
 40
0.5
100
AcDbArc
 50
348.51107471464383
 51
78.511074714644053
  0
TEXT
  5
16D
100
AcDbEntity
  8
0
 62
               7
100
AcDbText
 10
221.21689699954044
 20
346.98132823147495
 30
0.0
 40
8.0000000000000444
  1
30
 50
281.48892528535612
 41
0.7695
  7
FontTableH_0
 72
               5
 11
222.81032516608735
 21
339.14162245395659
 31
0.0
100
AcDbText
  0
TEXT
  5
16E
100
AcDbEntity
  8
0
 62
               7
100
AcDbText
 10
228.4869130094107
 20
311.21267062154715
 30
0.0
 40
7.9999999999999902
  1
43
 50
281.48892528535572
 41
0.7695
  7
FontTableH_0
 72
               5
 11
230.08034117595756
 21
303.37296484402879
 31
0.0
100
AcDbText
  0
TEXT
  5
16F
100
AcDbEntity
  8
0
 62
               7
100
AcDbText
 10
257.51542092236161
 20
404.36091659723832
 30
0.0
 40
7.999999999999968
  1
30
 50
11.488925285355299
 41
0.7695
  7
FontTableH_0
 72
               5
 11
265.35512669987997
 21
405.95434476378512
 31
0.0
100
AcDbText
  0
TEXT
  5
170
100
AcDbEntity
  8
0
 62
               7
100
AcDbText
 10
334.07208386447411
 20
444.41185115771725
 30
0.0
 40
7.999999999999968
  1
140
 50
11.488925285355299
 41
0.7695
  7
FontTableH_0
 72
               5
 11
345.83164253075171
 21
446.80199340753745
 31
0.0
100
AcDbText
  0
TEXT
  5
171
100
AcDbEntity
  8
0
 62
               7
100
AcDbText
 10
235.79909447153668
 20
236.92983601092305
 30
0.0
 40
7.999999999999944
  1
野地板 12
 41
0.7695
  7
FontTableH_0
 72
               5
 11
271.7990944715367
 21
236.92983601092305
 31
0.0
100
AcDbText
  0
TEXT
  5
172
100
AcDbEntity
  8
0
 62
               7
100
AcDbText
 10
241.16354792675784
 20
183.45824276561495
 30
0.0
 40
8.0
  1
たる木
 41
0.7695
  7
FontTableH_0
 72
               5
 11
265.16354792675781
 21
183.45824276561495
 31
0.0
100
AcDbText
  0
TEXT
  5
173
100
AcDbEntity
  8
0
 62
               7
100
AcDbText
 10
459.73870779074321
 20
147.43610130180832
 30
0.0
 40
8.0
  1
棟木
 41
0.7695
  7
FontTableH_0
 72
               5
 11
475.73870779074321
 21
147.43610130180832
 31
0.0
100
AcDbText
  0
TEXT
  5
174
100
AcDbEntity
  8
0
 62
               7
100
AcDbText
 10
581.93032523138345
 20
232.0866495460059
 30
0.0
 40
8.0
  1
棟ケミカル面戸
 41
0.7695
  7
FontTableH_0
 72
               5
 11
637.93032523138345
 21
232.0866495460059
 31
0.0
100
AcDbText
  0
TEXT
  5
175
100
AcDbEntity
  8
0
 62
               7
100
AcDbText
 10
565.93573549443363
 20
184.28959742626478
 30
0.0
 40
8.0
  1
ステンレス釘 125
 41
0.7695
  7
FontTableH_0
 72
               5
 11
629.93573549443363
 21
184.28959742626478
 31
0.0
100
AcDbText
  0
TEXT
  5
176
100
AcDbEntity
  8
0
 62
               7
100
AcDbText
 10
678.78491449953731
 20
366.16535703808358
 30
0.0
 40
8.0
  1
フィンルーフ本体
 41
0.7695
  7
FontTableH_0
 72
               5
 11
742.78491449953731
 21
366.16535703808358
 31
0.0
100
AcDbText
  0
TEXT
  5
177
100
AcDbEntity
  8
0
 62
               7
100
AcDbText
 10
691.89489339246256
 20
336.62782343451227
 30
0.0
 40
8.0
  1
アスファルトルーフィング 22kg
 41
0.7695
  7
FontTableH_0
 72
               5
 11
807.89489339246256
 21
336.62782343451227
 31
0.0
100
AcDbText
  0
TEXT
  5
178
100
AcDbEntity
  8
0
 62
               7
100
AcDbText
 10
588.68989493138224
 20
389.7047498749231
 30
0.0
 40
7.9999999999998863
  1
棟面戸
 41
0.7695
  7
FontTableH_0
 72
               5
 11
612.68989493138224
 21
389.7047498749231
 31
0.0
100
AcDbText
  0
TEXT
  5
179
100
AcDbEntity
  8
0
 62
               7
100
AcDbText
 10
587.78399463011624
 20
408.76194847563397
 30
0.0
 40
8.0
  1
カラーステンレスくぎ 32
 41
0.7695
  7
FontTableH_0
 72
               5
 11
679.78399463011624
 21
408.76194847563397
 31
0.0
100
AcDbText
  0
TEXT
  5
17A
100
AcDbEntity
  8
0
 62
               7
100
AcDbText
 10
559.26738970946121
 20
435.29374062499437
 30
0.0
 40
8.0
  1
通し桟木 30X50
 41
0.7695
  7
FontTableH_0
 72
               5
 11
615.26738970946121
 21
435.29374062499437
 31
0.0
100
AcDbText
  0
TEXT
  5
17B
100
AcDbEntity
  8
0
 62
               7
100
AcDbText
 10
379.75134598801526
 20
429.20549259166728
 30
0.0
 40
8.0000000000000782
  1
30
 50
11.488925285355299
 41
0.7695
  7
FontTableH_0
 72
               5
 11
387.59105176553362
 21
430.79892075821408
 31
0.0
100
AcDbText
  0
TEXT
  5
17C
100
AcDbEntity
  8
0
 62
               7
100
AcDbText
 10
343.98268837808735
 20
421.93547658179739
 30
0.0
 40
8.0000000000000782
  1
43
 50
11.488925285355299
 41
0.7695
  7
FontTableH_0
 72
               5
 11
351.82239415560571
 21
423.52890474834419
 31
0.0
100
AcDbText
  0
TEXT
  5
17D
100
AcDbEntity
  8
0
 62
               7
100
AcDbText
 10
416.50000000000006
 20
372.71304737889375
 30
0.0
 40
8.0
  1
10
 41
0.7695
  7
FontTableH_0
 72
               5
 11
424.50000000000006
 21
372.71304737889375
 31
0.0
100
AcDbText
  0
TEXT
  5
17E
100
AcDbEntity
  8
0
 62
               7
100
AcDbText
 10
500.5377917300861
 20
458.58158901308957
 30
0.0
 40
8.0
  1
水返し
 41
0.7695
  7
FontTableH_0
 72
               5
 11
524.53779173008616
 21
458.58158901308957
 31
0.0
100
AcDbText
  0
TEXT
  5
17F
100
AcDbEntity
  8
0
 62
               7
100
AcDbText
 10
489.63755073566705
 20
482.19877783433094
 30
0.0
 40
8.0
  1
棟包み
 41
0.7695
  7
FontTableH_0
 72
               5
 11
513.63755073566699
 21
482.19877783433094
 31
0.0
100
AcDbText
  0
TEXT
  5
180
100
AcDbEntity
  8
図枠
 62
               7
100
AcDbText
 10
408.0
 20
24.0
 30
0.0
 40
8.0
  1
棟納め
 41
0.7695
  7
FontTableH_0
 72
               5
 11
432.0
 21
24.0
 31
0.0
100
AcDbText
  0
ENDSEC
  0
SECTION
  2
OBJECTS
  0
DICTIONARY
  5
19
100
AcDbDictionary
  3
ACAD_GROUP
350
1A
  3
ACAD_MLINESTYLE
350
1B
  3
DWGPROPS
350
181
  0
DICTIONARY
  5
1A
102
{ACAD_REACTORS
330
19
102
}
100
AcDbDictionary
  0
DICTIONARY
  5
1B
102
{ACAD_REACTORS
330
19
102
}
100
AcDbDictionary
  3
STANDARD
350
1C
  0
MLINESTYLE
  5
1C
102
{ACAD_REACTORS
330
1B
102
}
100
AcDbMlineStyle
  2
Standard
 70
               0
  3

 62
               0
 51
90.0
 52
90.0
 71
               2
 49
0.5
 62
             256
  6
ByLayer
 49
-0.5
 62
             256
  6
ByLayer
  0
XRECORD
  5
181
100
AcDbXrecord
  1
DWGPROPS COOKIE
  2

  3

  4

  6

  7

  0
ENDSEC
  0
EOF
