  0
SECTION
  2
HEADER
  9
$ACADVER
  1
AC1014
  9
$ACADMAINTVER
 70
               0
  9
$DWGCODEPAGE
  3
ANSI_932
  9
$INSBASE
 10
0.0
 20
0.0
 30
0.0
  9
$EXTMIN
 10
0.0
 20
0.0
 30
0.0
  9
$EXTMAX
 10
840.0
 20
594.0
 30
0.0
  9
$LIMMIN
 10
0.0
 20
0.0
  9
$LIMMAX
 10
840.0
 20
594.0
  9
$ORTHOMODE
 70
               0
  9
$REGENMODE
 70
               1
  9
$FILLMODE
 70
               1
  9
$QTEXTMODE
 70
               0
  9
$MIRRTEXT
 70
               1
  9
$DRAGMODE
 70
               2
  9
$LTSCALE
 40
2.0
  9
$OSMODE
 70
               0
  9
$ATTMODE
 70
               1
  9
$TEXTSIZE
 40
0.2
  9
$TRACEWID
 40
0.05
  9
$TEXTSTYLE
  7
Standard
  9
$CLAYER
  8
0
  9
$CELTYPE
  6
Continuous
  9
$CECOLOR
 62
             256
  9
$CELTSCALE
 40
1.0
  9
$DELOBJ
 70
               1
  9
$DISPSILH
 70
               0
  9
$DIMSCALE
 40
1.0
  9
$DIMASZ
 40
0.18
  9
$DIMEXO
 40
0.0625
  9
$DIMDLI
 40
0.38
  9
$DIMRND
 40
0.0
  9
$DIMDLE
 40
0.0
  9
$DIMEXE
 40
0.18
  9
$DIMTP
 40
0.0
  9
$DIMTM
 40
0.0
  9
$DIMTXT
 40
0.18
  9
$DIMCEN
 40
0.09
  9
$DIMTSZ
 40
0.0
  9
$DIMTOL
 70
               0
  9
$DIMLIM
 70
               0
  9
$DIMTIH
 70
               1
  9
$DIMTOH
 70
               1
  9
$DIMSE1
 70
               0
  9
$DIMSE2
 70
               0
  9
$DIMTAD
 70
               0
  9
$DIMZIN
 70
               0
  9
$DIMBLK
  1

  9
$DIMASO
 70
               1
  9
$DIMSHO
 70
               1
  9
$DIMPOST
  1

  9
$DIMAPOST
  1

  9
$DIMALT
 70
               0
  9
$DIMALTD
 70
               2
  9
$DIMALTF
 40
25.399999999999999
  9
$DIMLFAC
 40
1.0
  9
$DIMTOFL
 70
               0
  9
$DIMTVP
 40
0.0
  9
$DIMTIX
 70
               0
  9
$DIMSOXD
 70
               0
  9
$DIMSAH
 70
               0
  9
$DIMBLK1
  1

  9
$DIMBLK2
  1

  9
$DIMSTYLE
  2
Standard
  9
$DIMCLRD
 70
               0
  9
$DIMCLRE
 70
               0
  9
$DIMCLRT
 70
               0
  9
$DIMTFAC
 40
1.0
  9
$DIMGAP
 40
0.09
  9
$DIMJUST
 70
               0
  9
$DIMSD1
 70
               0
  9
$DIMSD2
 70
               0
  9
$DIMTOLJ
 70
               1
  9
$DIMTZIN
 70
               0
  9
$DIMALTZ
 70
               0
  9
$DIMALTTZ
 70
               0
  9
$DIMFIT
 70
               3
  9
$DIMUPT
 70
               0
  9
$DIMUNIT
 70
               2
  9
$DIMDEC
 70
               4
  9
$DIMTDEC
 70
               4
  9
$DIMALTU
 70
               2
  9
$DIMALTTD
 70
               2
  9
$DIMTXSTY
  7
Standard
  9
$DIMAUNIT
 70
               0
  9
$LUNITS
 70
               2
  9
$LUPREC
 70
               4
  9
$SKETCHINC
 40
0.1
  9
$FILLETRAD
 40
0.0
  9
$AUNITS
 70
               0
  9
$AUPREC
 70
               0
  9
$MENU
  1
acad
  9
$ELEVATION
 40
0.0
  9
$PELEVATION
 40
0.0
  9
$THICKNESS
 40
0.0
  9
$LIMCHECK
 70
               0
  9
$BLIPMODE
 70
               1
  9
$CHAMFERA
 40
0.0
  9
$CHAMFERB
 40
0.0
  9
$CHAMFERC
 40
0.0
  9
$CHAMFERD
 40
0.0
  9
$SKPOLY
 70
               0
  9
$TDCREATE
 40
0.000000000
  9
$TDUPDATE
 40
0.000000000
  9
$TDINDWG
 40
0.0000000000
  9
$TDUSRTIMER
 40
0.0000000000
  9
$USRTIMER
 70
               1
  9
$ANGBASE
 50
0.0
  9
$ANGDIR
 70
               0
  9
$PDMODE
 70
               0
  9
$PDSIZE
 40
0.0
  9
$PLINEWID
 40
0.0
  9
$COORDS
 70
               0
  9
$SPLFRAME
 70
               0
  9
$SPLINETYPE
 70
               6
  9
$SPLINESEGS
 70
               8
  9
$ATTDIA
 70
               0
  9
$ATTREQ
 70
               1
  9
$HANDLING
 70
               1
  9
$HANDSEED
  5
17E
  9
$SURFTAB1
 70
               6
  9
$SURFTAB2
 70
               6
  9
$SURFTYPE
 70
               6
  9
$SURFU
 70
               6
  9
$SURFV
 70
               6
  9
$UCSNAME
  2

  9
$UCSORG
 10
0.0
 20
0.0
 30
0.0
  9
$UCSXDIR
 10
1.0
 20
0.0
 30
0.0
  9
$UCSYDIR
 10
0.0
 20
1.0
 30
0.0
  9
$PUCSNAME
  2

  9
$PUCSORG
 10
0.0
 20
0.0
 30
0.0
  9
$PUCSXDIR
 10
1.0
 20
0.0
 30
0.0
  9
$PUCSYDIR
 10
0.0
 20
1.0
 30
0.0
  9
$USERI1
 70
               0
  9
$USERI2
 70
               0
  9
$USERI3
 70
               0
  9
$USERI4
 70
               0
  9
$USERI5
 70
               0
  9
$USERR1
 40
0.0
  9
$USERR2
 40
0.0
  9
$USERR3
 40
0.0
  9
$USERR4
 40
0.0
  9
$USERR5
 40
0.0
  9
$WORLDVIEW
 70
               1
  9
$SHADEDGE
 70
               3
  9
$SHADEDIF
 70
              70
  9
$TILEMODE
 70
               1
  9
$MAXACTVP
 70
              16
  9
$PINSBASE
 10
0.0
 20
0.0
 30
0.0
  9
$PLIMCHECK
 70
               0
  9
$PEXTMIN
 10
1.0000000000000000E+20
 20
1.0000000000000000E+20
 30
1.0000000000000000E+20
  9
$PEXTMAX
 10
-1.0000000000000000E+20
 20
-1.0000000000000000E+20
 30
-1.0000000000000000E+20
  9
$PLIMMIN
 10
0.0
 20
0.0
  9
$PLIMMAX
 10
12.0
 20
9.0
  9
$UNITMODE
 70
               0
  9
$VISRETAIN
 70
               0
  9
$PLINEGEN
 70
               1
  9
$PSLTSCALE
 70
               0
  9
$TREEDEPTH
 70
            3020
  9
$PICKSTYLE
 70
               1
  9
$CMLSTYLE
  2
Standard
  9
$CMLJUST
 70
               0
  9
$CMLSCALE
 40
1.0
  9
$PROXYGRAPHICS
 70
               0
  9
$MEASUREMENT
 70
               0
  0
ENDSEC
  0
SECTION
  2
CLASSES
  0
CLASS
  1
LWPOLYLINE
  2
AcDbPolyline
  3
"AutoCAD"
 90
        0
280
               0
281
               1
  0
CLASS
  1
IMAGE
  2
AcDbRasterImage
  3
ISM
 90
      127
280
               0
281
               1
  0
CLASS
  1
OLE2FRAME
  2
AcDbOle2Frame
  3
""
 90
        0
280
               0
281
               1
  0
CLASS
  1
HATCH
  2
AcDbHatch
  3
"ACAD_SEDONA"
 90
        0
280
               0
281
               1
  0
CLASS
  1
DICTIONARYVAR
  2
AcDbDictionaryVar
  3
"AutoCAD"
 90
        0
280
               0
281
               0
  0
CLASS
  1
RASTERVARIABLES
  2
AcDbRasterVariables
  3
ISM
 90
        0
280
               0
281
               0
  0
CLASS
  1
IMAGEDEF
  2
AcDbRasterImageDef
  3
ISM
 90
        0
280
               0
281
               0
  0
CLASS
  1
IMAGEDEF_REACTOR
  2
AcDbRasterImageDefReactor
  3
ISM
 90
        1
280
               0
281
               0
  0
CLASS
  1
IDBUFFER
  2
AcDbIdBuffer
  3
"Acad"
 90
        0
280
               0
281
               0
  0
CLASS
  1
SPATIAL_FILTER
  2
AcDbSpatialFilter
  3
"Acad"
 90
        0
280
               0
281
               0
  0
CLASS
  1
XRECORD
  2
AcDbXrecord
  3
"<Built In>"
 90
        0
280
               0
281
               0
  0
CLASS
  1
SORTENTSTABLE
  2
AcDbSortentsTable
  3
"AutoCAD"
 90
        0
280
               0
281
               0
  0
CLASS
  1
LAYER_INDEX
  2
AcDbLayerIndex
  3
"Acad"
 90
        0
280
               0
281
               0
  0
CLASS
  1
SPATIAL_INDEX
  2
AcDbSpatialIndex
  3
"Acad"
 90
        0
280
               0
281
               0
  0
CLASS
  1
OBJECT_PTR
  2
CAseDLPNTableRecord
  3
"ASE-LPNTableRecord"
 90
        1
280
               0
281
               0
  0
CLASS
  1
LAYOUT
  2
AcDbLayout
  3
"AutoCAD 2000"
 90
        0
280
               0
281
               0
  0
CLASS
  1
PLOTSETTINGS
  2
AcDbPlotSettings
  3
"AutoCAD 2000"
 90
        0
280
               0
281
               0
  0
CLASS
  1
ACDBDICTIONARYWDFLT
  2
AcDbDictionaryWithDefault
  3
"AutoCAD 2000"
 90
        0
280
               0
281
               0
  0
CLASS
  1
ACDBPLACEHOLDER
  2
AcDbPlaceHolder
  3
"AutoCAD 2000"
 90
        0
280
               0
281
               0
  0
CLASS
  1
VBA_PROJECT
  2
AcDbVbaProject
  3
"acadvba"
 90
        0
280
               0
281
               0
  0
CLASS
  1
WIPEOUT
  2
AcDbWipeout
  3
WipeOut|AutoCAD Express Tool|expresstools@autodesk.com
 90
      127
280
               0
281
               1
  0
CLASS
  1
WIPEOUTVARIABLES
  2
AcDbWipeoutVariables
  3
WipeOut|AutoCAD Express Tool|expresstools@autodesk.com
 90
        0
280
               0
281
               0
  0
CLASS
  1
RTEXT
  2
RText
  3
RText|AutoCAD Express Tool|expresstools@autodesk.com
 90
        0
280
               0
281
               1
  0
CLASS
  1
ARCALIGNEDTEXT
  2
AcDbArcAlignedText
  3
ATEXT|AutoCAD Express Tool|expresstools@autodesk.com
 90
        0
280
               0
281
               1
  0
ENDSEC
  0
SECTION
  2
TABLES
  0
TABLE
  2
VPORT
  5
7
100
AcDbSymbolTable
 70
               1
  0
VPORT
  5
15
100
AcDbSymbolTableRecord
100
AcDbViewportTableRecord
  2
*ACTIVE
 70
               0
 10
0.0
 20
0.0
 11
1.0
 21
1.0
 12
420.0
 22
297.0
 13
0.0
 23
0.0
 14
10.0
 24
10.0
 15
10.0
 25
10.0
 16
0.0
 26
0.0
 36
1.0
 17
0.0
 27
0.0
 37
0.0
 40
594.0
 41
1.4141414141414141
 42
50.0
 43
0.0
 44
0.0
 50
0.0
 51
0.0
 71
               0
 72
             100
 73
               1
 74
               1
 75
               0
 76
               0
 77
               0
 78
               0
  0
ENDTAB
  0
TABLE
  2
LTYPE
  5
4
100
AcDbSymbolTable
 70
              24
  0
LTYPE
  5
11
100
AcDbSymbolTableRecord
100
AcDbLinetypeTableRecord
  2
ByBlock
 70
              64
  3

 72
              65
 73
               0
 40
0.0
  0
LTYPE
  5
12
100
AcDbSymbolTableRecord
100
AcDbLinetypeTableRecord
  2
ByLayer
 70
              64
  3

 72
              65
 73
               0
 40
0.0
  0
LTYPE
  5
13
100
AcDbSymbolTableRecord
100
AcDbLinetypeTableRecord
  2
Continuous
 70
              64
  3
Solid line
 72
              65
 73
               0
 40
0.0
  0
LTYPE
  5
1D
100
AcDbSymbolTableRecord
100
AcDbLinetypeTableRecord
  2
DOT
 70
              64
  3
Dot . . . . . . . . . . . . . . . . . . . . . .
 72
              65
 73
               2
 40
6.3499999999999996
 49
0.35
 74
               0
 49
-6.0
 74
               0
  0
LTYPE
  5
1E
100
AcDbSymbolTableRecord
100
AcDbLinetypeTableRecord
  2
DASHED
 70
              64
  3
Dashed __ __ __ __ __ __ __ __ __ __ __ __ __ _
 72
              65
 73
               2
 40
12.699999999999999
 49
6.3499999999999996
 74
               0
 49
-6.3499999999999996
 74
               0
  0
LTYPE
  5
1F
100
AcDbSymbolTableRecord
100
AcDbLinetypeTableRecord
  2
DASHDOT
 70
              64
  3
Dash dot __ . __ . __ . __ . __ . __ . __ . __
 72
              65
 73
               4
 40
25.399999999999999
 49
12.699999999999999
 74
               0
 49
-6.0
 74
               0
 49
0.7
 74
               0
 49
-6.0
 74
               0
  0
LTYPE
  5
20
100
AcDbSymbolTableRecord
100
AcDbLinetypeTableRecord
  2
DIVIDE
 70
              64
  3
Divide ____ . . ____ . . ____ . . ____ . . ____
 72
              65
 73
               6
 40
31.75
 49
12.699999999999999
 74
               0
 49
-6.0
 74
               0
 49
0.875
 74
               0
 49
-6.0
 74
               0
 49
0.875
 74
               0
 49
-6.0
 74
               0
  0
LTYPE
  5
21
100
AcDbSymbolTableRecord
100
AcDbLinetypeTableRecord
  2
HIDDEN
 70
              64
  3
Hidden __ __ __ __ __ __ __ __ __ __ __ __ __ _
 72
              65
 73
               2
 40
9.5250000000000004
 49
6.3499999999999996
 74
               0
 49
-3.1749999999999998
 74
               0
  0
LTYPE
  5
22
100
AcDbSymbolTableRecord
100
AcDbLinetypeTableRecord
  2
CENTER
 70
              64
  3
Center ____ _ ____ _ ____ _ ____ _ ____ _ ____
 72
              65
 73
               4
 40
50.799999999999997
 49
31.75
 74
               0
 49
-6.3499999999999996
 74
               0
 49
6.3499999999999996
 74
               0
 49
-6.3499999999999996
 74
               0
  0
LTYPE
  5
23
100
AcDbSymbolTableRecord
100
AcDbLinetypeTableRecord
  2
PHANTOM
 70
              64
  3
Phantom ______  __  __  ______  __  __  ______
 72
              65
 73
               6
 40
63.5
 49
31.75
 74
               0
 49
-6.3499999999999996
 74
               0
 49
6.3499999999999996
 74
               0
 49
-6.3499999999999996
 74
               0
 49
6.3499999999999996
 74
               0
 49
-6.3499999999999996
 74
               0
  0
LTYPE
  5
24
100
AcDbSymbolTableRecord
100
AcDbLinetypeTableRecord
  2
ACAD_ISO02W100
 70
              64
  3
ISO dash __ __ __ __ __ __ __ __ __ __ __ __ __
 72
              65
 73
               2
 40
15.0
 49
12.0
 74
               0
 49
-3.0
 74
               0
  0
LTYPE
  5
25
100
AcDbSymbolTableRecord
100
AcDbLinetypeTableRecord
  2
ACAD_ISO03W100
 70
              64
  3
ISO dash space __ __ __ __ __ __ __ __ __ __ __ __ __ __
 72
              65
 73
               2
 40
30.0
 49
12.0
 74
               0
 49
-18.0
 74
               0
  0
LTYPE
  5
26
100
AcDbSymbolTableRecord
100
AcDbLinetypeTableRecord
  2
ACAD_ISO04W100
 70
              64
  3
ISO long-dash dot ____ . ____ . ____ . ____ . _
 72
              65
 73
               4
 40
30.0
 49
24.0
 74
               0
 49
-3.0
 74
               0
 49
0.0
 74
               0
 49
-3.0
 74
               0
  0
LTYPE
  5
27
100
AcDbSymbolTableRecord
100
AcDbLinetypeTableRecord
  2
ACAD_ISO05W100
 70
              64
  3
ISO long-dash double-dot ____ .. ____ .. ____ .
 72
              65
 73
               6
 40
33.0
 49
24.0
 74
               0
 49
-3.0
 74
               0
 49
0.0
 74
               0
 49
-3.0
 74
               0
 49
0.0
 74
               0
 49
-3.0
 74
               0
  0
LTYPE
  5
28
100
AcDbSymbolTableRecord
100
AcDbLinetypeTableRecord
  2
ACAD_ISO06W100
 70
              64
  3
ISO long-dash triple-dot ____ ... ____ ... ____
 72
              65
 73
               8
 40
36.0
 49
24.0
 74
               0
 49
-3.0
 74
               0
 49
0.0
 74
               0
 49
-3.0
 74
               0
 49
0.0
 74
               0
 49
-3.0
 74
               0
 49
0.0
 74
               0
 49
-3.0
 74
               0
  0
LTYPE
  5
29
100
AcDbSymbolTableRecord
100
AcDbLinetypeTableRecord
  2
ACAD_ISO07W100
 70
              64
  3
ISO dot . . . . . . . . . . . . . . . . . . . .
 72
              65
 73
               2
 40
3.0
 49
0.0
 74
               0
 49
-3.0
 74
               0
  0
LTYPE
  5
2A
100
AcDbSymbolTableRecord
100
AcDbLinetypeTableRecord
  2
ACAD_ISO08W100
 70
              64
  3
ISO long-dash short-dash ____ __ ____ __ ____ _
 72
              65
 73
               4
 40
36.0
 49
24.0
 74
               0
 49
-3.0
 74
               0
 49
6.0
 74
               0
 49
-3.0
 74
               0
  0
LTYPE
  5
2B
100
AcDbSymbolTableRecord
100
AcDbLinetypeTableRecord
  2
ACAD_ISO09W100
 70
              64
  3
ISO long-dash double-short-dash ____ __ __ ____
 72
              65
 73
               6
 40
45.0
 49
24.0
 74
               0
 49
-3.0
 74
               0
 49
6.0
 74
               0
 49
-3.0
 74
               0
 49
6.0
 74
               0
 49
-3.0
 74
               0
  0
LTYPE
  5
2C
100
AcDbSymbolTableRecord
100
AcDbLinetypeTableRecord
  2
ACAD_ISO10W100
 70
              64
  3
ISO dash dot __ . __ . __ . __ . __ . __ . __ .
 72
              65
 73
               4
 40
18.0
 49
12.0
 74
               0
 49
-3.0
 74
               0
 49
0.0
 74
               0
 49
-3.0
 74
               0
  0
LTYPE
  5
2D
100
AcDbSymbolTableRecord
100
AcDbLinetypeTableRecord
  2
ACAD_ISO11W100
 70
              64
  3
ISO double-dash dot __ __ . __ __ . __ __ . __ 
 72
              65
 73
               6
 40
33.0
 49
12.0
 74
               0
 49
-3.0
 74
               0
 49
12.0
 74
               0
 49
-3.0
 74
               0
 49
0.0
 74
               0
 49
-3.0
 74
               0
  0
LTYPE
  5
2E
100
AcDbSymbolTableRecord
100
AcDbLinetypeTableRecord
  2
ACAD_ISO12W100
 70
              64
  3
ISO dash double-dot __ . . __ . . __ . . __ . .
 72
              65
 73
               6
 40
21.0
 49
12.0
 74
               0
 49
-3.0
 74
               0
 49
0.0
 74
               0
 49
-3.0
 74
               0
 49
0.0
 74
               0
 49
-3.0
 74
               0
  0
LTYPE
  5
2F
100
AcDbSymbolTableRecord
100
AcDbLinetypeTableRecord
  2
ACAD_ISO13W100
 70
              64
  3
ISO double-dash double-dot __ __ . . __ __ . . 
 72
              65
 73
               8
 40
36.0
 49
12.0
 74
               0
 49
-3.0
 74
               0
 49
12.0
 74
               0
 49
-3.0
 74
               0
 49
0.0
 74
               0
 49
-3.0
 74
               0
 49
0.0
 74
               0
 49
-3.0
 74
               0
  0
LTYPE
  5
30
100
AcDbSymbolTableRecord
100
AcDbLinetypeTableRecord
  2
ACAD_ISO14W100
 70
              64
  3
ISO dash triple-dot __ . . . __ . . . __ . . . 
 72
              65
 73
               8
 40
24.0
 49
12.0
 74
               0
 49
-3.0
 74
               0
 49
0.0
 74
               0
 49
-3.0
 74
               0
 49
0.0
 74
               0
 49
-3.0
 74
               0
 49
0.0
 74
               0
 49
-3.0
 74
               0
  0
LTYPE
  5
31
100
AcDbSymbolTableRecord
100
AcDbLinetypeTableRecord
  2
ACAD_ISO15W100
 70
              64
  3
ISO double-dash double-dot __ __ . . __ __ . . 
 72
              65
 73
              10
 40
39.0
 49
12.0
 74
               0
 49
-3.0
 74
               0
 49
12.0
 74
               0
 49
-3.0
 74
               0
 49
0.0
 74
               0
 49
-3.0
 74
               0
 49
0.0
 74
               0
 49
-3.0
 74
               0
 49
0.0
 74
               0
 49
-3.0
 74
               0
  0
ENDTAB
  0
TABLE
  2
LAYER
  5
2
100
AcDbSymbolTable
 70
              16
  0
LAYER
  5
14
100
AcDbSymbolTableRecord
100
AcDbLayerTableRecord
  2
0
 70
               0
 62
               7
  6
Continuous
  0
LAYER
  5
35
100
AcDbSymbolTableRecord
100
AcDbLayerTableRecord
  2
Layer00001
 70
               0
 62
               7
  6
Continuous
  0
LAYER
  5
36
100
AcDbSymbolTableRecord
100
AcDbLayerTableRecord
  2
Layer00002
 70
               0
 62
               7
  6
Continuous
  0
LAYER
  5
37
100
AcDbSymbolTableRecord
100
AcDbLayerTableRecord
  2
Layer00003
 70
               0
 62
               7
  6
Continuous
  0
LAYER
  5
38
100
AcDbSymbolTableRecord
100
AcDbLayerTableRecord
  2
Layer00004
 70
               0
 62
               7
  6
Continuous
  0
LAYER
  5
39
100
AcDbSymbolTableRecord
100
AcDbLayerTableRecord
  2
Layer00005
 70
               0
 62
               7
  6
Continuous
  0
LAYER
  5
3A
100
AcDbSymbolTableRecord
100
AcDbLayerTableRecord
  2
Layer00006
 70
               0
 62
               7
  6
Continuous
  0
LAYER
  5
3B
100
AcDbSymbolTableRecord
100
AcDbLayerTableRecord
  2
Layer00007
 70
               0
 62
               7
  6
Continuous
  0
LAYER
  5
3C
100
AcDbSymbolTableRecord
100
AcDbLayerTableRecord
  2
Layer00008
 70
               0
 62
               7
  6
Continuous
  0
LAYER
  5
3D
100
AcDbSymbolTableRecord
100
AcDbLayerTableRecord
  2
Layer00009
 70
               0
 62
               7
  6
Continuous
  0
LAYER
  5
3E
100
AcDbSymbolTableRecord
100
AcDbLayerTableRecord
  2
Layer00010
 70
               0
 62
               7
  6
Continuous
  0
LAYER
  5
3F
100
AcDbSymbolTableRecord
100
AcDbLayerTableRecord
  2
Layer00011
 70
               0
 62
               7
  6
Continuous
  0
LAYER
  5
40
100
AcDbSymbolTableRecord
100
AcDbLayerTableRecord
  2
Layer00012
 70
               0
 62
               7
  6
Continuous
  0
LAYER
  5
41
100
AcDbSymbolTableRecord
100
AcDbLayerTableRecord
  2
Layer00013
 70
               0
 62
               7
  6
Continuous
  0
LAYER
  5
42
100
AcDbSymbolTableRecord
100
AcDbLayerTableRecord
  2
Layer00014
 70
               0
 62
               7
  6
Continuous
  0
LAYER
  5
43
100
AcDbSymbolTableRecord
100
AcDbLayerTableRecord
  2
図枠
 70
               0
 62
               7
  6
Continuous
  0
ENDTAB
  0
TABLE
  2
STYLE
  5
3
100
AcDbSymbolTable
 70
               4
  0
STYLE
  5
17
100
AcDbSymbolTableRecord
100
AcDbTextStyleTableRecord
  2
Standard
 70
               0
 40
0.0
 41
1.0
 50
0.0
 71
               0
 42
0.0
  3
txt.shx
  4
bigfont.shx
  0
STYLE
  5
32
100
AcDbSymbolTableRecord
100
AcDbTextStyleTableRecord
  2
STANDARD_T
 70
               4
 40
0.0
 41
1.0
 50
0.0
 71
               0
 42
0.0
  3
txt.shx
  4
bigfont.shx
  0
STYLE
  5
33
100
AcDbSymbolTableRecord
100
AcDbTextStyleTableRecord
  2
FontTableH_0
 70
               0
 40
0.0
 41
1.0
 50
0.0
 71
               0
 42
0.0
  3
MS Gothic.ttf
  4

1001
ACAD
1000
MS Gothic
1071
    32817
  0
STYLE
  5
34
100
AcDbSymbolTableRecord
100
AcDbTextStyleTableRecord
  2
FontTableV_0
 70
               0
 40
0.0
 41
1.0
 50
0.0
 71
               0
 42
0.0
  3
@MS Gothic.ttf
  4

1001
ACAD
1000
@MS Gothic
1071
    32817
  0
ENDTAB
  0
TABLE
  2
VIEW
  5
5
100
AcDbSymbolTable
 70
               0
  0
ENDTAB
  0
TABLE
  2
UCS
  5
6
100
AcDbSymbolTable
 70
               0
  0
ENDTAB
  0
TABLE
  2
APPID
  5
8
100
AcDbSymbolTable
 70
               1
  0
APPID
  5
16
100
AcDbSymbolTableRecord
100
AcDbRegAppTableRecord
  2
ACAD
 70
               0
  0
ENDTAB
  0
TABLE
  2
DIMSTYLE
  5
9
100
AcDbSymbolTable
 70
               1
  0
DIMSTYLE
105
18
100
AcDbSymbolTableRecord
100
AcDbDimStyleTableRecord
  2
Standard
 70
               0
  3

  4

  5

  6

  7

 40
1.0
 41
0.18
 42
0.0625
 43
0.38
 44
0.18
 45
0.0
 46
0.0
 47
0.0
 48
0.0
 71
               0
 72
               0
 73
               1
 74
               1
 75
               0
 76
               0
 77
               0
 78
               0
140
0.18
141
0.09
142
0.0
143
25.399999999999999
144
1.0
145
0.0
146
1.0
147
0.09
170
               0
171
               2
172
               0
173
               0
174
               0
175
               0
176
               0
177
               0
178
               0
270
               2
271
               4
272
               4
273
               2
274
               2
275
               0
280
               0
281
               0
282
               0
283
               1
284
               0
285
               0
286
               0
287
               0
288
               0
340
17
  0
ENDTAB
  0
TABLE
  2
BLOCK_RECORD
  5
1
100
AcDbSymbolTable
 70
               0
  0
BLOCK_RECORD
  5
A
100
AcDbSymbolTableRecord
100
AcDbBlockTableRecord
  2
*MODEL_SPACE
  0
BLOCK_RECORD
  5
B
100
AcDbSymbolTableRecord
100
AcDbBlockTableRecord
  2
*PAPER_SPACE
  0
ENDTAB
  0
ENDSEC
  0
SECTION
  2
BLOCKS
  0
BLOCK
  5
D
100
AcDbEntity
  8
0
100
AcDbBlockBegin
  2
*MODEL_SPACE
 70
               0
 10
0.0
 20
0.0
 30
0.0
  3
*MODEL_SPACE
  1

  0
ENDBLK
  5
E
100
AcDbEntity
  8
0
100
AcDbBlockEnd
  0
BLOCK
  5
F
100
AcDbEntity
 67
               1
  8
0
100
AcDbBlockBegin
  2
*PAPER_SPACE
 70
               0
 10
0.0
 20
0.0
 30
0.0
  3
*PAPER_SPACE
  1

  0
ENDBLK
  5
10
100
AcDbEntity
 67
               1
  8
0
100
AcDbBlockEnd
  0
ENDSEC
  0
SECTION
  2
ENTITIES
  0
LINE
  5
44
100
AcDbEntity
  8
0
  6
Continuous
 62
               4
100
AcDbLine
 10
388.41630463968812
 20
237.70869131363986
 30
0.0
 11
404.83880714543119
 21
209.26408258626554
 31
0.0
  0
LINE
  5
45
100
AcDbEntity
  8
0
  6
Continuous
 62
               4
100
AcDbLine
 10
388.41630463968812
 20
237.70869131363986
 30
0.0
 11
392.27303029780734
 21
233.11242465492592
 31
0.0
  0
LINE
  5
46
100
AcDbEntity
  8
0
  6
Continuous
 62
               4
100
AcDbLine
 10
388.41630463968812
 20
237.70869131363986
 30
0.0
 11
390.46842549964214
 21
232.07053558892437
 31
0.0
  0
LINE
  5
47
100
AcDbEntity
  8
0
  6
Continuous
 62
               4
100
AcDbLine
 10
386.29573970757968
 20
196.47742084780668
 30
0.0
 11
409.78519586502063
 21
155.79248934095745
 31
0.0
  0
LINE
  5
48
100
AcDbEntity
  8
0
  6
Continuous
 62
               4
100
AcDbLine
 10
386.29573970757968
 20
196.47742084780668
 30
0.0
 11
390.1524653656989
 21
191.88115418909285
 31
0.0
  0
LINE
  5
49
100
AcDbEntity
  8
0
  6
Continuous
 62
               4
100
AcDbLine
 10
386.29573970757968
 20
196.47742084780668
 30
0.0
 11
388.3478605675337
 21
190.83926512309131
 31
0.0
  0
LINE
  5
4A
100
AcDbEntity
  8
0
  6
Continuous
 62
               4
100
AcDbLine
 10
579.82080568862489
 20
357.30593317525864
 30
0.0
 11
572.05284337670901
 21
395.52449884066112
 31
0.0
  0
LINE
  5
4B
100
AcDbEntity
  8
0
  6
Continuous
 62
               4
100
AcDbLine
 10
550.421909022931
 20
351.33057755070803
 30
0.0
 11
542.65394671101512
 21
389.54914321611051
 31
0.0
  0
LINE
  5
4C
100
AcDbEntity
  8
0
  6
Continuous
 62
               4
100
AcDbLine
 10
572.45120041834571
 20
393.56457239628145
 30
0.0
 11
543.05230375265182
 21
387.58921677173083
 31
0.0
  0
LINE
  5
4D
100
AcDbEntity
  8
0
  6
Continuous
 62
               4
100
AcDbLine
 10
516.84816686395834
 20
300.6274826013576
 30
0.0
 11
500.51552815685312
 21
380.98446682092123
 31
0.0
  0
LINE
  5
4E
100
AcDbEntity
  8
0
  6
Continuous
 62
               4
100
AcDbLine
 10
543.05230375265182
 20
387.58921677173083
 30
0.0
 11
500.91388519848982
 21
379.02454037654155
 31
0.0
  0
LINE
  5
4F
100
AcDbEntity
  8
0
  6
Continuous
 62
               4
100
AcDbLine
 10
389.30155760417307
 20
299.19421966254725
 30
0.0
 11
397.86623399936258
 21
257.05580110838605
 31
0.0
  0
LINE
  5
50
100
AcDbEntity
  8
0
  6
Continuous
 62
               4
100
AcDbLine
 10
586.39369687563089
 20
363.74411228368439
 30
0.0
 11
574.84134266816636
 21
420.58197917069282
 31
0.0
  0
LINE
  5
51
100
AcDbEntity
  8
0
  6
Continuous
 62
               4
100
AcDbLine
 10
449.19884576905901
 20
335.85911936911492
 30
0.0
 11
437.64649156159447
 21
392.69698625612335
 31
0.0
  0
LINE
  5
52
100
AcDbEntity
  8
0
  6
Continuous
 62
               4
100
AcDbLine
 10
575.23969970980306
 20
418.62205272631326
 30
0.0
 11
438.04484860323117
 21
390.73705981174379
 31
0.0
  0
LINE
  5
53
100
AcDbEntity
  8
0
  6
Continuous
 62
               4
100
AcDbLine
 10
448.43399044958943
 20
329.58098299433931
 30
0.0
 11
383.75641778506275
 21
316.43520062032741
 31
0.0
  0
LINE
  5
54
100
AcDbEntity
  8
0
  6
Continuous
 62
               4
100
AcDbLine
 10
385.71634422944231
 20
316.83355766196411
 30
0.0
 11
389.30155760417296
 21
299.19421966254725
 31
0.0
  0
LINE
  5
55
100
AcDbEntity
  8
0
  6
Continuous
 62
               4
100
AcDbLine
 10
210.42245906877605
 20
266.91864693143731
 30
0.0
 11
202.05696119440512
 21
308.07710226340913
 31
0.0
  0
LINE
  5
56
100
AcDbEntity
  8
0
  6
Continuous
 62
               4
100
AcDbLine
 10
545.44244600247202
 20
375.82965810545335
 30
0.0
 11
202.45531823604182
 21
306.11717581902957
 31
0.0
  0
LINE
  5
57
100
AcDbEntity
  8
0
  6
Continuous
 62
               4
100
AcDbLine
 10
176.84871690980327
 20
216.2155519820864
 30
0.0
 11
159.91854264024312
 21
299.51242586821985
 31
0.0
  0
LINE
  5
58
100
AcDbEntity
  8
0
  6
Continuous
 62
               4
100
AcDbLine
 10
202.45531823604182
 20
306.11717581902957
 30
0.0
 11
160.31689968187982
 21
297.55249942384017
 31
0.0
  0
LINE
  5
59
100
AcDbEntity
  8
0
  6
Continuous
 62
               4
100
AcDbLine
 10
182.79287345604735
 20
173.83883520405936
 30
0.0
 11
216.04677964569353
 21
116.24138013346303
 31
0.0
  0
LINE
  5
5A
100
AcDbEntity
  8
0
  6
Continuous
 62
               4
100
AcDbLine
 10
182.79287345604735
 20
173.83883520405936
 30
0.0
 11
186.64959911416659
 21
169.24256854534551
 31
0.0
  0
LINE
  5
5B
100
AcDbEntity
  8
0
  6
Continuous
 62
               4
100
AcDbLine
 10
182.79287345604735
 20
173.83883520405936
 30
0.0
 11
184.84499431600136
 21
168.2006794793439
 31
0.0
  0
LINE
  5
5C
100
AcDbEntity
  8
0
  6
Continuous
 62
               4
100
AcDbLine
 10
271.64406148484056
 20
215.73106536975891
 30
0.0
 11
203.46117904621917
 21
333.8272819599469
 31
0.0
  0
LINE
  5
5D
100
AcDbEntity
  8
0
  6
Continuous
 62
               4
100
AcDbLine
 10
271.64406148484056
 20
215.73106536975891
 30
0.0
 11
267.78733582672135
 21
220.32733202847277
 31
0.0
  0
LINE
  5
5E
100
AcDbEntity
  8
0
  6
Continuous
 62
               4
100
AcDbLine
 10
271.64406148484056
 20
215.73106536975891
 30
0.0
 11
269.59194062488655
 21
221.36922109447437
 31
0.0
  0
LINE
  5
5F
100
AcDbEntity
  8
0
  6
Continuous
 62
               4
100
AcDbLine
 10
273.31649706332098
 20
265.94058104670495
 30
0.0
 11
219.62242772194855
 21
358.9414372110885
 31
0.0
  0
LINE
  5
60
100
AcDbEntity
  8
0
  6
Continuous
 62
               4
100
AcDbLine
 10
273.31649706332098
 20
265.94058104670495
 30
0.0
 11
269.45977140520176
 21
270.53684770541878
 31
0.0
  0
LINE
  5
61
100
AcDbEntity
  8
0
  6
Continuous
 62
               4
100
AcDbLine
 10
273.31649706332098
 20
265.94058104670495
 30
0.0
 11
271.26437620336696
 21
271.57873677142032
 31
0.0
  0
LINE
  5
62
100
AcDbEntity
  8
0
  6
Continuous
 62
               4
100
AcDbLine
 10
458.26146846629428
 20
291.27079275947898
 30
0.0
 11
409.36676458114709
 21
375.95890410958913
 31
0.0
  0
LINE
  5
63
100
AcDbEntity
  8
0
  6
Continuous
 62
               4
100
AcDbLine
 10
458.26146846629428
 20
291.27079275947898
 30
0.0
 11
454.40474280817506
 21
295.86705941819281
 31
0.0
  0
LINE
  5
64
100
AcDbEntity
  8
0
  6
Continuous
 62
               4
100
AcDbLine
 10
458.26146846629428
 20
291.27079275947898
 30
0.0
 11
456.20934760634026
 21
296.90894848419435
 31
0.0
  0
LINE
  5
65
100
AcDbEntity
  8
0
  6
Continuous
 62
               4
100
AcDbLine
 10
450.00911588265245
 20
326.23817528831529
 30
0.0
 11
410.28163582522774
 21
395.0481892044541
 31
0.0
  0
LINE
  5
66
100
AcDbEntity
  8
0
  6
Continuous
 62
               4
100
AcDbLine
 10
450.00911588265245
 20
326.23817528831529
 30
0.0
 11
446.15239022453324
 21
330.83444194702912
 31
0.0
  0
LINE
  5
67
100
AcDbEntity
  8
0
  6
Continuous
 62
               4
100
AcDbLine
 10
450.00911588265245
 20
326.23817528831529
 30
0.0
 11
447.95699502269844
 21
331.87633101303066
 31
0.0
  0
LINE
  5
68
100
AcDbEntity
  8
0
  6
Continuous
 62
               4
100
AcDbLine
 10
463.89664508241788
 20
329.89204226127805
 30
0.0
 11
412.35486965979175
 21
419.16501600557052
 31
0.0
  0
LINE
  5
69
100
AcDbEntity
  8
0
  6
Continuous
 62
               4
100
AcDbLine
 10
463.89664508241788
 20
329.89204226127805
 30
0.0
 11
460.0399194242986
 21
334.48830891999188
 31
0.0
  0
LINE
  5
6A
100
AcDbEntity
  8
0
  6
Continuous
 62
               4
100
AcDbLine
 10
463.89664508241788
 20
329.89204226127805
 30
0.0
 11
461.84452422246386
 21
335.53019798599342
 31
0.0
  0
LINE
  5
6B
100
AcDbEntity
  8
0
  6
Continuous
 62
               4
100
AcDbLine
 10
513.23697658996912
 20
344.79314870270292
 30
0.0
 11
459.53688938878855
 21
437.80442810602716
 31
0.0
  0
LINE
  5
6C
100
AcDbEntity
  8
0
  6
Continuous
 62
               4
100
AcDbLine
 10
513.23697658996912
 20
344.79314870270292
 30
0.0
 11
509.38025093184973
 21
349.38941536141675
 31
0.0
  0
LINE
  5
6D
100
AcDbEntity
  8
0
  6
Continuous
 62
               4
100
AcDbLine
 10
513.23697658996912
 20
344.79314870270292
 30
0.0
 11
511.18485573001493
 21
350.4313044274183
 31
0.0
  0
LINE
  5
6E
100
AcDbEntity
  8
0
  6
Continuous
 62
               4
100
AcDbLine
 10
591.19041095890407
 20
459.82425939492504
 30
0.0
 11
637.19041095890407
 21
459.82425939492504
 31
0.0
  0
LINE
  5
6F
100
AcDbEntity
  8
0
  6
Continuous
 62
               4
100
AcDbLine
 10
591.19041095890429
 20
359.82425939492515
 30
0.0
 11
637.19041095890407
 21
359.82425939492515
 31
0.0
  0
LINE
  5
70
100
AcDbEntity
  8
0
  6
Continuous
 62
               4
100
AcDbLine
 10
635.19041095890407
 20
459.82425939492504
 30
0.0
 11
635.19041095890407
 21
359.82425939492515
 31
0.0
  0
LINE
  5
71
100
AcDbEntity
  8
0
  6
Continuous
 62
               4
100
AcDbLine
 10
578.60462452127717
 20
375.97288931445968
 30
0.0
 11
534.1113148940824
 21
453.03756218565462
 31
0.0
  0
LINE
  5
72
100
AcDbEntity
  8
0
  6
Continuous
 62
               4
100
AcDbLine
 10
578.60462452127717
 20
375.97288931445968
 30
0.0
 11
574.74789886315807
 21
380.56915597317351
 31
0.0
  0
LINE
  5
73
100
AcDbEntity
  8
0
  6
Continuous
 62
               4
100
AcDbLine
 10
578.60462452127717
 20
375.97288931445968
 30
0.0
 11
576.55250366132327
 21
381.61104503917505
 31
0.0
  0
LINE
  5
74
100
AcDbEntity
  8
0
  6
Continuous
 62
               4
100
AcDbLine
 10
580.83657939657223
 20
314.65363893714954
 30
0.0
 11
626.80127603167898
 21
235.04044901065447
 31
0.0
  0
LINE
  5
75
100
AcDbEntity
  8
0
  6
Continuous
 62
               4
100
AcDbLine
 10
580.83657939657223
 20
314.65363893714954
 30
0.0
 11
584.69330505469156
 21
310.05737227843571
 31
0.0
  0
LINE
  5
76
100
AcDbEntity
  8
0
  6
Continuous
 62
               4
100
AcDbLine
 10
580.83657939657223
 20
314.65363893714954
 30
0.0
 11
582.88870025652636
 21
309.01548321243416
 31
0.0
  0
LINE
  5
77
100
AcDbEntity
  8
0
  6
Continuous
 62
               4
100
AcDbLine
 10
589.19041095890407
 20
319.23330488260336
 30
0.0
 11
624.9990437006295
 21
257.2109336243588
 31
0.0
  0
LINE
  5
78
100
AcDbEntity
  8
0
  6
Continuous
 62
               4
100
AcDbLine
 10
589.19041095890407
 20
319.23330488260336
 30
0.0
 11
593.04713661702317
 21
314.63703822388942
 31
0.0
  0
LINE
  5
79
100
AcDbEntity
  8
0
  6
Continuous
 62
               4
100
AcDbLine
 10
589.19041095890407
 20
319.23330488260336
 30
0.0
 11
591.24253181885797
 21
313.59514915788787
 31
0.0
  0
LINE
  5
7A
100
AcDbEntity
  8
0
  6
Continuous
 62
               4
100
AcDbLine
 10
623.81055803948948
 20
329.51772586180169
 30
0.0
 11
644.74444836498674
 21
293.25916421796609
 31
0.0
  0
LINE
  5
7B
100
AcDbEntity
  8
0
  6
Continuous
 62
               4
100
AcDbLine
 10
623.81055803948948
 20
329.51772586180169
 30
0.0
 11
627.66728369760881
 21
324.92145920308786
 31
0.0
  0
LINE
  5
7C
100
AcDbEntity
  8
0
  6
Continuous
 62
               4
100
AcDbLine
 10
623.81055803948948
 20
329.51772586180169
 30
0.0
 11
625.86267889944361
 21
323.87957013708632
 31
0.0
  0
LINE
  5
7D
100
AcDbEntity
  8
0
  6
Continuous
 62
               4
100
AcDbLine
 10
595.93646176856078
 20
411.34801505510455
 30
0.0
 11
644.6462715086243
 21
326.98014975830091
 31
0.0
  0
LINE
  5
7E
100
AcDbEntity
  8
0
  6
Continuous
 62
               4
100
AcDbLine
 10
595.93646176856078
 20
411.34801505510455
 30
0.0
 11
599.79318742668011
 21
406.75174839639072
 31
0.0
  0
LINE
  5
7F
100
AcDbEntity
  8
0
  6
Continuous
 62
               4
100
AcDbLine
 10
595.93646176856078
 20
411.34801505510455
 30
0.0
 11
597.98858262851491
 21
405.70985933038918
 31
0.0
  0
LINE
  5
80
100
AcDbEntity
  8
0
  6
Continuous
 62
               4
100
AcDbLine
 10
603.82387615212269
 20
441.0830539093385
 30
0.0
 11
626.66313975308776
 21
480.64181887366811
 31
0.0
  0
LINE
  5
81
100
AcDbEntity
  8
0
  6
Continuous
 62
               4
100
AcDbLine
 10
603.82387615212269
 20
441.0830539093385
 30
0.0
 11
605.87599701207682
 21
446.72120963405388
 31
0.0
  0
LINE
  5
82
100
AcDbEntity
  8
0
  6
Continuous
 62
               4
100
AcDbLine
 10
603.82387615212269
 20
441.0830539093385
 30
0.0
 11
607.68060181024202
 21
445.67932056805233
 31
0.0
  0
LINE
  5
83
100
AcDbEntity
  8
0
  6
Continuous
 62
               4
100
AcDbLine
 10
589.19041095890407
 20
468.54255136986302
 30
0.0
 11
617.96318229373264
 21
518.37845319634721
 31
0.0
  0
LINE
  5
84
100
AcDbEntity
  8
0
  6
Continuous
 62
               4
100
AcDbLine
 10
589.19041095890407
 20
468.54255136986302
 30
0.0
 11
591.24253181885797
 21
474.18070709457839
 31
0.0
  0
LINE
  5
85
100
AcDbEntity
  8
0
  6
Continuous
 62
               4
100
AcDbLine
 10
589.19041095890407
 20
468.54255136986302
 30
0.0
 11
593.04713661702317
 21
473.13881802857685
 31
0.0
  0
LINE
  5
86
100
AcDbEntity
  8
0
  6
Continuous
 62
               4
100
AcDbLine
 10
584.19041095890407
 20
429.1490804160324
 30
0.0
 11
555.0840969992405
 21
479.56269501522075
 31
0.0
  0
LINE
  5
87
100
AcDbEntity
  8
0
  6
Continuous
 62
               4
100
AcDbLine
 10
584.19041095890407
 20
429.1490804160324
 30
0.0
 11
580.33368530078474
 21
433.74534707474635
 31
0.0
  0
LINE
  5
88
100
AcDbEntity
  8
0
  6
Continuous
 62
               4
100
AcDbLine
 10
584.19041095890407
 20
429.1490804160324
 30
0.0
 11
582.13829009894994
 21
434.78723614074789
 31
0.0
  0
LINE
  5
89
100
AcDbEntity
  8
0
  6
Continuous
 62
               4
100
AcDbLine
 10
574.13858130390668
 20
480.92522513952309
 30
0.0
 11
553.21350153831077
 21
517.16852644596656
 31
0.0
  0
LINE
  5
8A
100
AcDbEntity
  8
0
  6
Continuous
 62
               4
100
AcDbLine
 10
574.13858130390668
 20
480.92522513952309
 30
0.0
 11
570.28185564578735
 21
485.52149179823692
 31
0.0
  0
LINE
  5
8B
100
AcDbEntity
  8
0
  6
Continuous
 62
               4
100
AcDbLine
 10
574.13858130390668
 20
480.92522513952309
 30
0.0
 11
572.08646044395255
 21
486.56338086423847
 31
0.0
  0
LINE
  5
8C
100
AcDbEntity
  8
0
  6
Continuous
 62
               4
100
AcDbLine
 10
606.40479452054797
 20
180.55068493150685
 30
0.0
 11
626.95806865830878
 21
144.95136986301372
 31
0.0
  0
LINE
  5
8D
100
AcDbEntity
  8
0
  6
Continuous
 62
               4
100
AcDbLine
 10
606.40479452054797
 20
180.55068493150685
 30
0.0
 11
610.26152017866707
 21
175.95441827279299
 31
0.0
  0
LINE
  5
8E
100
AcDbEntity
  8
0
  6
Continuous
 62
               4
100
AcDbLine
 10
606.40479452054797
 20
180.55068493150685
 30
0.0
 11
608.45691538050187
 21
174.91252920679139
 31
0.0
  0
LINE
  5
8F
100
AcDbEntity
  8
0
  6
Continuous
 62
               4
100
AcDbLine
 10
708.682191780822
 20
200.32808219178085
 30
0.0
 11
727.93049613205835
 21
166.98904109589043
 31
0.0
  0
LINE
  5
90
100
AcDbEntity
  8
0
  6
Continuous
 62
               4
100
AcDbLine
 10
708.682191780822
 20
200.32808219178085
 30
0.0
 11
712.5389174389411
 21
195.73181553306699
 31
0.0
  0
LINE
  5
91
100
AcDbEntity
  8
0
  6
Continuous
 62
               4
100
AcDbLine
 10
708.682191780822
 20
200.32808219178085
 30
0.0
 11
710.7343126407759
 21
194.68992646706539
 31
0.0
  0
LINE
  5
92
100
AcDbEntity
  8
0
  6
Continuous
 62
               4
100
AcDbLine
 10
2077.5
 20
1892.5
 30
0.0
 11
77.5
 21
1892.5
 31
0.0
  0
LINE
  5
93
100
AcDbEntity
  8
0
  6
Continuous
 62
               4
100
AcDbLine
 10
2077.5
 20
1892.5
 30
0.0
 11
2077.5
 21
2892.5
 31
0.0
  0
LINE
  5
94
100
AcDbEntity
  8
0
  6
Continuous
 62
               2
100
AcDbLine
 10
517.64488094723174
 20
296.70762971259836
 30
0.0
 11
520.63255875950722
 21
282.00818137975131
 31
0.0
  0
LINE
  5
95
100
AcDbEntity
  8
0
  6
Continuous
 62
               2
100
AcDbLine
 10
551.2186231062044
 20
347.4107246619489
 30
0.0
 11
517.64488094723174
 21
296.70762971259836
 31
0.0
  0
LINE
  5
96
100
AcDbEntity
  8
0
  6
DASHED
 62
               2
100
AcDbLine
 10
532.34432928007982
 20
299.69530752487282
 30
0.0
 11
554.20630091847966
 21
332.71127632910196
 31
0.0
  0
LINE
  5
97
100
AcDbEntity
  8
0
  6
Continuous
 62
               2
100
AcDbLine
 10
532.34432928007936
 20
299.6953075248727
 30
0.0
 11
520.63255875950722
 21
282.00818137975131
 31
0.0
  0
LINE
  5
98
100
AcDbEntity
  8
0
  6
DASHED
 62
               2
100
AcDbLine
 10
539.50685258563294
 20
329.72359851682671
 30
0.0
 11
554.20630091847966
 21
332.71127632910196
 31
0.0
  0
LINE
  5
99
100
AcDbEntity
  8
0
  6
DASHED
 62
               2
100
AcDbLine
 10
554.20630091847966
 20
332.71127632910196
 30
0.0
 11
551.2186231062044
 21
347.4107246619489
 31
0.0
  0
LINE
  5
9A
100
AcDbEntity
  8
0
  6
Continuous
 62
               2
100
AcDbLine
 10
580.61751977189829
 20
353.38608028649952
 30
0.0
 11
551.2186231062044
 21
347.4107246619489
 31
0.0
  0
LINE
  5
9B
100
AcDbEntity
  8
0
  6
Continuous
 62
               2
100
AcDbLine
 10
574.48274783424063
 20
308.25998392006301
 30
0.0
 11
517.64488094723174
 21
296.70762971259836
 31
0.0
  0
LINE
  5
9C
100
AcDbEntity
  8
0
  6
Continuous
 62
               2
100
AcDbLine
 10
587.19041095890407
 20
321.0472939542363
 30
0.0
 11
580.61751977189829
 21
353.38608028649952
 31
0.0
  0
LINE
  5
9D
100
AcDbEntity
  8
0
  6
Continuous
 62
               2
100
AcDbLine
 10
587.19041095890429
 20
321.0472939542363
 30
0.0
 11
574.4827478342404
 21
308.25998392006289
 31
0.0
  0
LINE
  5
9E
100
AcDbEntity
  8
0
  6
Continuous
 62
               2
100
AcDbLine
 10
424.18187656136882
 20
308.32457285638867
 30
0.0
 11
453.58077322706282
 21
314.29992848093929
 31
0.0
  0
LINE
  5
9F
100
AcDbEntity
  8
0
  6
Continuous
 62
               2
100
AcDbLine
 10
424.38105508218717
 20
307.34460963419889
 30
0.0
 11
434.33074455205934
 21
308.34644767156652
 31
0.0
  0
LINE
  5
A0
100
AcDbEntity
  8
0
  6
Continuous
 62
               7
100
AcDbLine
 10
472.9635491295092
 20
316.19860446333513
 30
0.0
 11
452.47881132794038
 21
329.76285149462666
 31
0.0
  0
LINE
  5
A1
100
AcDbEntity
  8
0
  6
Continuous
 62
               7
100
AcDbLine
 10
470.19179457061392
 20
315.63524253238569
 30
0.0
 11
453.04217325888993
 21
326.99109693573115
 31
0.0
  0
LINE
  5
A2
100
AcDbEntity
  8
0
  6
Continuous
 62
               7
100
AcDbLine
 10
467.42004001171864
 20
315.07188060143613
 30
0.0
 11
453.60553518983926
 21
324.21934237683598
 31
0.0
  0
LINE
  5
A3
100
AcDbEntity
  8
0
  6
Continuous
 62
               7
100
AcDbLine
 10
464.64828545282336
 20
314.50851867048669
 30
0.0
 11
454.16889712078881
 21
321.4475878179407
 31
0.0
  0
LINE
  5
A4
100
AcDbEntity
  8
0
  6
Continuous
 62
               7
100
AcDbLine
 10
461.87653089392808
 20
313.94515673953714
 30
0.0
 11
454.73225905173837
 21
318.67583325904542
 31
0.0
  0
LINE
  5
A5
100
AcDbEntity
  8
0
  6
Continuous
 62
               7
100
AcDbLine
 10
459.1047763350328
 20
313.38179480858781
 30
0.0
 11
455.29562098268781
 21
315.90407870015002
 31
0.0
  0
LINE
  5
A6
100
AcDbEntity
  8
0
  6
Continuous
 62
               7
100
AcDbLine
 10
456.33302177613751
 20
312.81843287763837
 30
0.0
 11
455.85898291363725
 21
313.13232414125486
 31
0.0
  0
LINE
  5
A7
100
AcDbEntity
  8
0
  6
DASHED
 62
               6
100
AcDbLine
 10
464.30455458745047
 20
271.57990374622483
 30
0.0
 11
456.33741375471601
 21
310.77843263381698
 31
0.0
  0
LINE
  5
A8
100
AcDbEntity
  8
0
  6
DASHED
 62
               6
100
AcDbLine
 10
488.80363514219545
 20
276.5593667666837
 30
0.0
 11
464.30455458745047
 21
271.57990374622483
 31
0.0
  0
LINE
  5
A9
100
AcDbEntity
  8
0
  6
DASHED
 62
               6
100
AcDbLine
 10
480.83649430946087
 20
315.75789565427607
 30
0.0
 11
488.80363514219545
 21
276.5593667666837
 31
0.0
  0
LINE
  5
AA
100
AcDbEntity
  8
0
  6
DASHED
 62
               6
100
AcDbLine
 10
480.83649430946099
 20
315.75789565427584
 30
0.0
 11
456.33741375471601
 21
310.77843263381698
 31
0.0
  0
LINE
  5
AB
100
AcDbEntity
  8
0
  6
Continuous
 62
               2
100
AcDbLine
 10
454.17830878951787
 20
311.36003881436994
 30
0.0
 11
462.34462814307068
 21
271.18154670458802
 31
0.0
  0
LINE
  5
AC
100
AcDbEntity
  8
0
  6
Continuous
 62
               2
100
AcDbLine
 10
454.17830878951787
 20
311.36003881436994
 30
0.0
 11
480.63731578864264
 21
316.73785887646562
 31
0.0
  0
LINE
  5
AD
100
AcDbEntity
  8
0
  6
DASHED
 62
               6
100
AcDbLine
 10
487.30979623605771
 20
283.90909093310751
 30
0.0
 11
457.83125266085375
 21
303.42870846739373
 31
0.0
  0
LINE
  5
AE
100
AcDbEntity
  8
0
  6
DASHED
 62
               6
100
AcDbLine
 10
487.87315816700726
 20
281.13733637421223
 30
0.0
 11
458.39461459180319
 21
300.65695390849845
 31
0.0
  0
LINE
  5
AF
100
AcDbEntity
  8
0
  6
DASHED
 62
               6
100
AcDbLine
 10
486.74643430510827
 20
286.6808454920029
 30
0.0
 11
457.2678907299042
 21
306.20046302628901
 31
0.0
  0
LINE
  5
B0
100
AcDbEntity
  8
0
  6
DASHED
 62
               6
100
AcDbLine
 10
488.4365200979567
 20
278.36558181531683
 30
0.0
 11
458.95797652275274
 21
297.88519934960306
 31
0.0
  0
LINE
  5
B1
100
AcDbEntity
  8
0
  6
DASHED
 62
               6
100
AcDbLine
 10
486.18307237415871
 20
289.45260005089807
 30
0.0
 11
456.70452879895475
 21
308.97221758518441
 31
0.0
  0
LINE
  5
B2
100
AcDbEntity
  8
0
  6
DASHED
 62
               6
100
AcDbLine
 10
485.61971044320927
 20
292.22435460979301
 30
0.0
 11
457.3029532649785
 21
310.97467952052767
 31
0.0
  0
LINE
  5
B3
100
AcDbEntity
  8
0
  6
DASHED
 62
               6
100
AcDbLine
 10
485.05634851225983
 20
294.99610916868875
 30
0.0
 11
460.07470782387401
 21
311.53804145147711
 31
0.0
  0
LINE
  5
B4
100
AcDbEntity
  8
0
  6
DASHED
 62
               6
100
AcDbLine
 10
484.49298658131028
 20
297.76786372758403
 30
0.0
 11
462.84646238276929
 21
312.10140338242655
 31
0.0
  0
LINE
  5
B5
100
AcDbEntity
  8
0
  6
DASHED
 62
               6
100
AcDbLine
 10
483.92962465036072
 20
300.53961828647954
 30
0.0
 11
465.6182169416648
 21
312.66476531337611
 31
0.0
  0
LINE
  5
B6
100
AcDbEntity
  8
0
  6
DASHED
 62
               6
100
AcDbLine
 10
483.36626271941128
 20
303.31137284537471
 30
0.0
 11
468.38997150055985
 21
313.22812724432555
 31
0.0
  0
LINE
  5
B7
100
AcDbEntity
  8
0
  6
DASHED
 62
               6
100
AcDbLine
 10
482.80290078846184
 20
306.08312740426987
 30
0.0
 11
471.16172605945513
 21
313.79148917527499
 31
0.0
  0
LINE
  5
B8
100
AcDbEntity
  8
0
  6
DASHED
 62
               6
100
AcDbLine
 10
482.2395388575124
 20
308.85488196316538
 30
0.0
 11
473.93348061835053
 21
314.35485110622443
 31
0.0
  0
LINE
  5
B9
100
AcDbEntity
  8
0
  6
DASHED
 62
               6
100
AcDbLine
 10
481.67617692656296
 20
311.62663652206066
 30
0.0
 11
476.70523517724581
 21
314.91821303717387
 31
0.0
  0
LINE
  5
BA
100
AcDbEntity
  8
0
  6
DASHED
 62
               6
100
AcDbLine
 10
481.11281499561341
 20
314.39839108095595
 30
0.0
 11
479.47698973614121
 21
315.48157496812331
 31
0.0
  0
LINE
  5
BB
100
AcDbEntity
  8
0
  6
DASHED
 62
               6
100
AcDbLine
 10
487.83809563193319
 20
276.363119879973
 30
0.0
 11
459.52133845370219
 21
295.11344479070777
 31
0.0
  0
LINE
  5
BC
100
AcDbEntity
  8
0
  6
DASHED
 62
               6
100
AcDbLine
 10
485.0663410730379
 20
275.79975794902356
 30
0.0
 11
460.08470038465163
 21
292.34169023181249
 31
0.0
  0
LINE
  5
BD
100
AcDbEntity
  8
0
  6
DASHED
 62
               6
100
AcDbLine
 10
482.29458651414262
 20
275.23639601807412
 30
0.0
 11
460.64806231560107
 21
289.5699356729171
 31
0.0
  0
LINE
  5
BE
100
AcDbEntity
  8
0
  6
DASHED
 62
               6
100
AcDbLine
 10
479.52283195524745
 20
274.67303408712468
 30
0.0
 11
461.21142424655062
 21
286.79818111402182
 31
0.0
  0
LINE
  5
BF
100
AcDbEntity
  8
0
  6
DASHED
 62
               6
100
AcDbLine
 10
476.75107739635206
 20
274.10967215617512
 30
0.0
 11
461.77478617750018
 21
284.02642655512642
 31
0.0
  0
LINE
  5
C0
100
AcDbEntity
  8
0
  6
DASHED
 62
               6
100
AcDbLine
 10
473.97932283745678
 20
273.5463102252258
 30
0.0
 11
462.33814810844962
 21
281.25467199623114
 31
0.0
  0
LINE
  5
C1
100
AcDbEntity
  8
0
  6
DASHED
 62
               6
100
AcDbLine
 10
471.20756827856138
 20
272.98294829427635
 30
0.0
 11
462.90151003939906
 21
278.48291743733586
 31
0.0
  0
LINE
  5
C2
100
AcDbEntity
  8
0
  6
DASHED
 62
               6
100
AcDbLine
 10
468.4358137196661
 20
272.4195863633268
 30
0.0
 11
463.4648719703485
 21
275.71116287844046
 31
0.0
  0
LINE
  5
C3
100
AcDbEntity
  8
0
  6
DASHED
 62
               6
100
AcDbLine
 10
465.66405916077093
 20
271.85622443237736
 30
0.0
 11
464.02823390129805
 21
272.93940831954518
 31
0.0
  0
LINE
  5
C4
100
AcDbEntity
  8
0
  6
Continuous
 62
               3
100
AcDbLine
 10
501.35200444783862
 20
340.33662311853044
 30
0.0
 11
452.35384333834878
 21
330.37769707761271
 31
0.0
  0
LINE
  5
C5
100
AcDbEntity
  8
0
  6
Continuous
 62
               7
100
AcDbLine
 10
465.5977705498388
 20
333.0695387427682
 30
0.0
 11
486.82232192398538
 21
319.01541411808233
 31
0.0
  0
LINE
  5
C6
100
AcDbEntity
  8
0
  6
Continuous
 62
               7
100
AcDbLine
 10
462.82601599094352
 20
332.50617681181888
 30
0.0
 11
484.0505673650901
 21
318.45205218713278
 31
0.0
  0
LINE
  5
C7
100
AcDbEntity
  8
0
  6
Continuous
 62
               7
100
AcDbLine
 10
460.05426143204812
 20
331.94281488086932
 30
0.0
 11
481.27881280619482
 21
317.88869025618334
 31
0.0
  0
LINE
  5
C8
100
AcDbEntity
  8
0
  6
Continuous
 62
               7
100
AcDbLine
 10
457.28250687315295
 20
331.37945294991988
 30
0.0
 11
478.50705824729954
 21
317.3253283252339
 31
0.0
  0
LINE
  5
C9
100
AcDbEntity
  8
0
  6
Continuous
 62
               7
100
AcDbLine
 10
454.5107523142579
 20
330.81609101897044
 30
0.0
 11
475.73530368840449
 21
316.76196639428446
 31
0.0
  0
LINE
  5
CA
100
AcDbEntity
  8
0
  6
Continuous
 62
               7
100
AcDbLine
 10
471.14127966762925
 20
334.19626260466708
 30
0.0
 11
492.36583104177595
 21
320.1421379799811
 31
0.0
  0
LINE
  5
CB
100
AcDbEntity
  8
0
  6
Continuous
 62
               7
100
AcDbLine
 10
468.36952510873408
 20
333.63290067371764
 30
0.0
 11
489.59407648288067
 21
319.57877604903166
 31
0.0
  0
LINE
  5
CC
100
AcDbEntity
  8
0
  6
Continuous
 62
               7
100
AcDbLine
 10
473.91303422652453
 20
334.75962453561664
 30
0.0
 11
495.13758560067123
 21
320.70549991093066
 31
0.0
  0
LINE
  5
CD
100
AcDbEntity
  8
0
  6
Continuous
 62
               7
100
AcDbLine
 10
476.6847887854197
 20
335.32298646656596
 30
0.0
 11
497.90934015956651
 21
321.2688618418801
 31
0.0
  0
LINE
  5
CE
100
AcDbEntity
  8
0
  6
Continuous
 62
               7
100
AcDbLine
 10
479.45654334431487
 20
335.88634839751541
 30
0.0
 11
500.68109471846157
 21
321.83222377282954
 31
0.0
  0
LINE
  5
CF
100
AcDbEntity
  8
0
  6
Continuous
 62
               7
100
AcDbLine
 10
482.22829790321015
 20
336.44971032846496
 30
0.0
 11
503.45284927735685
 21
322.39558570377886
 31
0.0
  0
LINE
  5
D0
100
AcDbEntity
  8
0
  6
Continuous
 62
               7
100
AcDbLine
 10
490.54356157989611
 20
338.13979612131328
 30
0.0
 11
503.5488314450559
 21
329.52818025058792
 31
0.0
  0
LINE
  5
D1
100
AcDbEntity
  8
0
  6
Continuous
 62
               7
100
AcDbLine
 10
493.31531613879116
 20
338.70315805226272
 30
0.0
 11
502.98546951410646
 21
332.29993480948298
 31
0.0
  0
LINE
  5
D2
100
AcDbEntity
  8
0
  6
Continuous
 62
               7
100
AcDbLine
 10
496.08707069768644
 20
339.26651998321216
 30
0.0
 11
502.42210758315701
 21
335.07168936837826
 31
0.0
  0
LINE
  5
D3
100
AcDbEntity
  8
0
  6
Continuous
 62
               7
100
AcDbLine
 10
498.85882525658161
 20
339.8298819141616
 30
0.0
 11
501.85874565220746
 21
337.84344392727343
 31
0.0
  0
LINE
  5
D4
100
AcDbEntity
  8
0
  6
Continuous
 62
               7
100
AcDbLine
 10
485.00005246210554
 20
337.0130722594144
 30
0.0
 11
504.67555530695478
 21
323.98467113279713
 31
0.0
  0
LINE
  5
D5
100
AcDbEntity
  8
0
  6
Continuous
 62
               7
100
AcDbLine
 10
487.77180702100082
 20
337.57643419036384
 30
0.0
 11
504.11219337600534
 21
326.75642569169241
 31
0.0
  0
LINE
  5
D6
100
AcDbEntity
  8
0
  6
Continuous
 62
               7
100
AcDbLine
 10
450.88948984443329
 20
326.9273354202291
 30
0.0
 11
452.98086431302664
 21
316.6377215872364
 31
0.0
  0
LINE
  5
D7
100
AcDbEntity
  8
0
  6
Continuous
 62
               7
100
AcDbLine
 10
452.49088270193164
 20
316.53813232682745
 30
0.0
 11
452.98086431302664
 21
316.6377215872364
 31
0.0
  0
LINE
  5
D8
100
AcDbEntity
  8
0
  6
Continuous
 62
               7
100
AcDbLine
 10
450.00911588265245
 20
326.23817528831529
 30
0.0
 11
451.90131183042723
 21
316.9285246775126
 31
0.0
  0
LINE
  5
D9
100
AcDbEntity
  8
0
  6
Continuous
 62
               7
100
AcDbLine
 10
450.39950823333839
 20
326.82774615981992
 30
0.0
 11
450.88948984443329
 21
326.9273354202291
 31
0.0
  0
LINE
  5
DA
100
AcDbEntity
  8
0
  6
Continuous
 62
               7
100
AcDbLine
 10
480.93571670278931
 20
329.71781057266281
 30
0.0
 11
451.53682003709304
 21
323.74245494811208
 31
0.0
  0
LINE
  5
DB
100
AcDbEntity
  8
0
  6
Continuous
 62
               7
100
AcDbLine
 10
483.29400018880318
 20
328.15624116992177
 30
0.0
 11
480.93571670278931
 21
329.71781057266281
 31
0.0
  0
LINE
  5
DC
100
AcDbEntity
  8
0
  6
Continuous
 62
               7
100
AcDbLine
 10
481.73243078605918
 20
325.79795768390403
 30
0.0
 11
483.29400018880318
 21
328.15624116992177
 31
0.0
  0
LINE
  5
DD
100
AcDbEntity
  8
0
  6
Continuous
 62
               7
100
AcDbLine
 10
481.73243078605918
 20
325.79795768390403
 30
0.0
 11
452.33353412036644
 21
319.8226020593533
 31
0.0
  0
LINE
  5
DE
100
AcDbEntity
  8
0
  6
Continuous
 62
               2
100
AcDbLine
 10
449.99555985233229
 20
331.93926648035568
 30
0.0
 11
453.58077322706282
 21
314.29992848093929
 31
0.0
  0
LINE
  5
DF
100
AcDbEntity
  8
0
  6
Continuous
 62
               2
100
AcDbLine
 10
449.99555985233229
 20
331.93926648035568
 30
0.0
 11
587.19041095890429
 21
359.82425939492515
 31
0.0
  0
LINE
  5
E0
100
AcDbEntity
  8
0
  6
Continuous
 62
               7
100
AcDbLine
 10
491.31895207993517
 20
338.29739502845365
 30
0.0
 11
481.02933824694236
 21
336.20602055986052
 31
0.0
  0
LINE
  5
E1
100
AcDbEntity
  8
0
  6
Continuous
 62
               7
100
AcDbLine
 10
480.92974898653341
 20
336.69600217095541
 30
0.0
 11
481.02933824694236
 21
336.20602055986052
 31
0.0
  0
LINE
  5
E2
100
AcDbEntity
  8
0
  6
Continuous
 62
               7
100
AcDbLine
 10
490.62979194802136
 20
339.1777689902346
 30
0.0
 11
481.32014133721856
 21
337.28557304245993
 31
0.0
  0
LINE
  5
E3
100
AcDbEntity
  8
0
  6
Continuous
 62
               7
100
AcDbLine
 10
491.219362819526
 20
338.78737663954854
 30
0.0
 11
491.31895207993517
 21
338.29739502845365
 31
0.0
  0
LINE
  5
E4
100
AcDbEntity
  8
0
  6
Continuous
 62
               7
100
AcDbLine
 10
503.73371375925734
 20
240.81695497792487
 30
0.0
 11
484.21421871905937
 21
336.85335075252061
 31
0.0
  0
LINE
  5
E5
100
AcDbEntity
  8
0
  6
Continuous
 62
               7
100
AcDbLine
 10
506.09199724527804
 20
239.25538557517808
 30
0.0
 11
503.73371375925734
 21
240.81695497792487
 31
0.0
  0
LINE
  5
E6
100
AcDbEntity
  8
0
  6
Continuous
 62
               7
100
AcDbLine
 10
507.65356664801595
 20
241.61366906118712
 30
0.0
 11
506.09199724527804
 21
239.25538557517808
 31
0.0
  0
LINE
  5
E7
100
AcDbEntity
  8
0
  6
Continuous
 62
               7
100
AcDbLine
 10
507.65356664801595
 20
241.61366906118712
 30
0.0
 11
488.13407160781804
 21
337.65006483579401
 31
0.0
  0
LINE
  5
E8
100
AcDbEntity
  8
0
  6
Continuous
 62
               2
100
AcDbLine
 10
211.21917315204945
 20
262.99879404267801
 30
0.0
 11
539.50685258563294
 21
329.72359851682671
 31
0.0
  0
LINE
  5
E9
100
AcDbEntity
  8
0
  6
Continuous
 62
               2
100
AcDbLine
 10
177.64543099307673
 20
212.29569909332733
 30
0.0
 11
520.63255875950722
 21
282.00818137975131
 31
0.0
  0
LINE
  5
EA
100
AcDbEntity
  8
0
  6
Continuous
 62
               2
100
AcDbLine
 10
177.64543099307667
 20
212.29569909332724
 30
0.0
 11
180.63310880535192
 21
197.59625076048019
 31
0.0
  0
LINE
  5
EB
100
AcDbEntity
  8
0
  6
Continuous
 62
               2
100
AcDbLine
 10
211.21917315204934
 20
262.9987940426779
 30
0.0
 11
177.64543099307667
 21
212.29569909332724
 31
0.0
  0
LINE
  5
EC
100
AcDbEntity
  8
0
  6
DASHED
 62
               2
100
AcDbLine
 10
192.34487932592418
 20
215.28337690560181
 30
0.0
 11
214.20685096432447
 21
248.29934570983096
 31
0.0
  0
LINE
  5
ED
100
AcDbEntity
  8
0
  6
Continuous
 62
               2
100
AcDbLine
 10
192.34487932592373
 20
215.2833769056017
 30
0.0
 11
180.63310880535192
 21
197.59625076048019
 31
0.0
  0
LINE
  5
EE
100
AcDbEntity
  8
0
  6
DASHED
 62
               2
100
AcDbLine
 10
214.20685096432447
 20
248.29934570983096
 30
0.0
 11
211.21917315204934
 21
262.9987940426779
 31
0.0
  0
LINE
  5
EF
100
AcDbEntity
  8
0
  6
DASHED
 62
               2
100
AcDbLine
 10
199.50740263147759
 20
245.31166789755559
 30
0.0
 11
214.2068509643243
 21
248.29934570983085
 31
0.0
  0
LINE
  5
F0
100
AcDbEntity
  8
0
  6
Continuous
 62
               7
100
AcDbLine
 10
170.18102095415674
 20
241.80944412049382
 30
0.0
 11
159.99452470263083
 21
239.26282005761186
 31
0.0
  0
LINE
  5
F1
100
AcDbEntity
  8
0
  6
Continuous
 62
               7
100
AcDbLine
 10
159.87325689011294
 20
239.74789130768465
 30
0.0
 11
159.99452470263083
 21
239.26282005761186
 31
0.0
  0
LINE
  5
F2
100
AcDbEntity
  8
0
  6
Continuous
 62
               7
100
AcDbLine
 10
170.05975314163851
 20
242.2945153705665
 30
0.0
 11
170.18102095415674
 21
241.80944412049382
 31
0.0
  0
LINE
  5
F3
100
AcDbEntity
  8
0
  6
Continuous
 62
               7
100
AcDbLine
 10
161.20720282781241
 20
239.56598958890731
 30
0.0
 11
161.69227407788509
 21
237.62570458861671
 31
0.0
  0
LINE
  5
F4
100
AcDbEntity
  8
0
  6
Continuous
 62
               7
100
AcDbLine
 10
168.96834282897515
 20
241.50627458919837
 30
0.0
 11
169.53973426459658
 21
239.22070884671257
 31
0.0
  0
LINE
  5
F5
100
AcDbEntity
  8
0
  6
Continuous
 62
               7
100
AcDbLine
 10
179.6399103305734
 20
174.08137082910127
 30
0.0
 11
163.6541391245633
 21
238.02445565314076
 31
0.0
  0
LINE
  5
F6
100
AcDbEntity
  8
0
  6
Continuous
 62
               7
100
AcDbLine
 10
182.06526658094009
 20
172.6261570788804
 30
0.0
 11
179.63991033057715
 21
174.081370829099
 31
0.0
  0
LINE
  5
F7
100
AcDbEntity
  8
0
  6
Continuous
 62
               7
100
AcDbLine
 10
183.5204803311546
 20
175.05151332923833
 30
0.0
 11
182.06526658094009
 21
172.6261570788804
 31
0.0
  0
LINE
  5
F8
100
AcDbEntity
  8
0
  6
Continuous
 62
               7
100
AcDbLine
 10
183.5204803311546
 20
175.05151332923833
 30
0.0
 11
167.57786921791836
 21
238.82195778218863
 31
0.0
  0
LINE
  5
F9
100
AcDbEntity
  8
0
  6
Continuous
 62
               2
100
AcDbLine
 10
101.51108041249773
 20
225.39381581572027
 30
0.0
 11
199.50740263147759
 21
245.31166789755559
 31
0.0
  0
LINE
  5
FA
100
AcDbEntity
  8
0
  6
Continuous
 62
               2
100
AcDbLine
 10
101.51108041249773
 20
181.51461808020375
 30
0.0
 11
180.63310880535187
 21
197.59625076048016
 31
0.0
  0
LINE
  5
FB
100
AcDbEntity
  8
0
  6
DASHED
 62
               6
100
AcDbLine
 10
589.19041095890407
 20
295.11765273827478
 30
0.0
 11
101.51108041249773
 21
173.19782010167316
 31
0.0
  0
LINE
  5
FC
100
AcDbEntity
  8
0
  6
Continuous
 62
               3
100
AcDbLine
 10
596.279983458468
 20
295.85926945676141
 30
0.0
 11
599.19041095890407
 21
284.21755945501747
 31
0.0
  0
LINE
  5
FD
100
AcDbEntity
  8
0
  6
Continuous
 62
               3
100
AcDbLine
 10
596.279983458468
 20
295.8592694567613
 30
0.0
 11
101.51108041249776
 21
172.16704369526866
 31
0.0
  0
LINE
  5
FE
100
AcDbEntity
  8
0
  6
Continuous
 62
               7
100
AcDbLine
 10
598.70533970883139
 20
286.15784445530784
 30
0.0
 11
101.51108041249776
 21
161.85927963122461
 31
0.0
  0
LINE
  5
FF
100
AcDbEntity
  8
0
  6
Continuous
 62
               7
100
AcDbLine
 10
598.22026845875871
 20
288.09812945559855
 30
0.0
 11
101.51108041249773
 21
163.92083244403338
 31
0.0
  0
LINE
  5
100
100
AcDbEntity
  8
0
  6
Continuous
 62
               7
100
AcDbLine
 10
597.73519720868603
 20
290.03841445588915
 30
0.0
 11
101.51108041249773
 21
165.98238525684229
 31
0.0
  0
LINE
  5
101
100
AcDbEntity
  8
0
  6
Continuous
 62
               7
100
AcDbLine
 10
597.25012595861335
 20
291.97869945617987
 30
0.0
 11
101.51108041249773
 21
168.04393806965092
 31
0.0
  0
LINE
  5
102
100
AcDbEntity
  8
0
  6
Continuous
 62
               7
100
AcDbLine
 10
596.76505470854067
 20
293.91898445647047
 30
0.0
 11
101.51108041249773
 21
170.10549088245989
 31
0.0
  0
LINE
  5
103
100
AcDbEntity
  8
0
  6
Continuous
 62
               3
100
AcDbLine
 10
590.19041095890407
 20
297.85926945676141
 30
0.0
 11
599.19041095890407
 21
297.85926945676141
 31
0.0
  0
LINE
  5
104
100
AcDbEntity
  8
0
  6
Continuous
 62
               2
100
AcDbLine
 10
587.19041095890407
 20
459.82425939492504
 30
0.0
 11
587.19041095890407
 21
359.82425939492515
 31
0.0
  0
LINE
  5
105
100
AcDbEntity
  8
0
  6
Continuous
 62
               2
100
AcDbLine
 10
586.19041095890384
 20
459.82425939492504
 30
0.0
 11
584.45392918223456
 21
449.97618186480287
 31
0.0
  0
LINE
  5
106
100
AcDbEntity
  8
0
  6
DASHED
 62
               6
100
AcDbLine
 10
589.19041095890407
 20
425.11765273827478
 30
0.0
 11
589.19041095890407
 21
295.11765273827478
 31
0.0
  0
LINE
  5
107
100
AcDbEntity
  8
0
  6
DIVIDE
 62
               4
100
AcDbLine
 10
588.19041095890407
 20
425.11765273827478
 30
0.0
 11
588.19041095890407
 21
329.82425939492504
 31
0.0
  0
LINE
  5
108
100
AcDbEntity
  8
0
  6
DIVIDE
 62
               4
100
AcDbLine
 10
589.19041095890407
 20
436.54770504103527
 30
0.0
 11
588.19041095890407
 21
425.11765273827478
 31
0.0
  0
LINE
  5
109
100
AcDbEntity
  8
0
  6
Continuous
 62
               7
100
AcDbLine
 10
587.13498830404842
 20
444.33305390933907
 30
0.0
 11
587.13498830404887
 21
433.83305390933907
 31
0.0
  0
LINE
  5
10A
100
AcDbEntity
  8
0
  6
Continuous
 62
               7
100
AcDbLine
 10
586.63498830404887
 20
433.8330539093393
 30
0.0
 11
587.13498830404887
 21
433.83305390933907
 31
0.0
  0
LINE
  5
10B
100
AcDbEntity
  8
0
  6
Continuous
 62
               7
100
AcDbLine
 10
586.13498830404797
 20
443.83305390933862
 30
0.0
 11
586.13498830404842
 21
434.33305390933884
 31
0.0
  0
LINE
  5
10C
100
AcDbEntity
  8
0
  6
Continuous
 62
               7
100
AcDbLine
 10
586.63498830404842
 20
444.33305390933907
 30
0.0
 11
587.13498830404842
 21
444.33305390933907
 31
0.0
  0
LINE
  5
10D
100
AcDbEntity
  8
0
  6
Continuous
 62
               7
100
AcDbLine
 10
610.13498830404842
 20
437.0830539093393
 30
0.0
 11
587.13498830404842
 21
437.0830539093393
 31
0.0
  0
LINE
  5
10E
100
AcDbEntity
  8
0
  6
Continuous
 62
               7
100
AcDbLine
 10
612.13498830404887
 20
439.08305390933975
 30
0.0
 11
610.13498830404887
 21
437.08305390933998
 31
0.0
  0
LINE
  5
10F
100
AcDbEntity
  8
0
  6
Continuous
 62
               7
100
AcDbLine
 10
610.13498830404978
 20
441.08305390933839
 30
0.0
 11
612.13498830404887
 21
439.08305390933975
 31
0.0
  0
LINE
  5
110
100
AcDbEntity
  8
0
  6
Continuous
 62
               7
100
AcDbLine
 10
610.13498830404978
 20
441.08305390933839
 30
0.0
 11
587.13498830404842
 21
441.08305390933884
 31
0.0
  0
LINE
  5
111
100
AcDbEntity
  8
0
  6
Continuous
 62
               6
100
AcDbLine
 10
567.19041095890407
 20
376.37126477871772
 30
0.0
 11
587.19041095890407
 21
364.82425939492515
 31
0.0
  0
LINE
  5
112
100
AcDbEntity
  8
0
  6
Continuous
 62
               7
100
AcDbLine
 10
587.19041095890407
 20
381.73024862734002
 30
0.0
 11
567.19041095890407
 21
376.3712647787176
 31
0.0
  0
LINE
  5
113
100
AcDbEntity
  8
0
  6
Continuous
 62
               3
100
AcDbLine
 10
608.89183596035718
 20
286.64291570538063
 30
0.0
 11
101.51108041249773
 21
159.79772681841573
 31
0.0
  0
LINE
  5
114
100
AcDbEntity
  8
0
  6
Continuous
 62
               3
100
AcDbLine
 10
619.80593908699234
 20
242.98650319884072
 30
0.0
 11
608.89183596035718
 21
286.64291570538063
 31
0.0
  0
LINE
  5
115
100
AcDbEntity
  8
0
  6
Continuous
 62
               3
100
AcDbLine
 10
619.80593908699234
 20
242.98650319884072
 30
0.0
 11
101.51108041249776
 21
113.41278853021689
 31
0.0
  0
LINE
  5
116
100
AcDbEntity
  8
0
  6
Continuous
 62
               3
100
AcDbLine
 10
629.19041095890384
 20
313.38608028649941
 30
0.0
 11
599.19041095890407
 21
313.38608028649952
 31
0.0
  0
LINE
  5
117
100
AcDbEntity
  8
0
  6
Continuous
 62
               3
100
AcDbLine
 10
629.19041095890384
 20
353.38608028649952
 30
0.0
 11
629.19041095890384
 21
313.38608028649941
 31
0.0
  0
LINE
  5
118
100
AcDbEntity
  8
0
  6
Continuous
 62
               3
100
AcDbLine
 10
629.19041095890384
 20
353.38608028649952
 30
0.0
 11
599.19041095890407
 21
353.38608028649952
 31
0.0
  0
LINE
  5
119
100
AcDbEntity
  8
0
  6
Continuous
 62
               7
100
AcDbLine
 10
599.19041095890407
 20
353.38608028649952
 30
0.0
 11
629.19041095890384
 21
313.38608028649941
 31
0.0
  0
LINE
  5
11A
100
AcDbEntity
  8
0
  6
Continuous
 62
               7
100
AcDbLine
 10
599.19041095890407
 20
313.38608028649952
 30
0.0
 11
629.19041095890384
 21
353.38608028649952
 31
0.0
  0
LINE
  5
11B
100
AcDbEntity
  8
0
  6
Continuous
 62
               3
100
AcDbLine
 10
612.69041095890407
 20
145.58262116681865
 30
0.0
 11
612.69041095890407
 21
235.58262116681868
 31
0.0
  0
LINE
  5
11C
100
AcDbEntity
  8
0
  6
Continuous
 62
               3
100
AcDbLine
 10
567.69041095890384
 20
145.58262116681865
 30
0.0
 11
612.69041095890407
 21
145.58262116681865
 31
0.0
  0
LINE
  5
11D
100
AcDbEntity
  8
0
  6
Continuous
 62
               7
100
AcDbLine
 10
567.69041095890384
 20
145.58262116681865
 30
0.0
 11
612.69041095890407
 21
235.58262116681868
 31
0.0
  0
LINE
  5
11E
100
AcDbEntity
  8
0
  6
Continuous
 62
               3
100
AcDbLine
 10
590.19041095890407
 20
235.58262116681863
 30
0.0
 11
612.69041095890407
 21
235.58262116681868
 31
0.0
  0
LINE
  5
11F
100
AcDbEntity
  8
0
  6
Continuous
 62
               3
100
AcDbLine
 10
567.69041095890407
 20
229.9576211668186
 30
0.0
 11
567.69041095890384
 21
145.58262116681865
 31
0.0
  0
LINE
  5
120
100
AcDbEntity
  8
0
  6
Continuous
 62
               7
100
AcDbLine
 10
570.19041095890407
 20
230.58262116681863
 30
0.0
 11
612.69041095890407
 21
145.58262116681865
 31
0.0
  0
LINE
  5
121
100
AcDbEntity
  8
0
  6
Continuous
 62
               6
100
AcDbLine
 10
583.64504703900343
 20
366.87117620845487
 30
0.0
 11
587.19041095890407
 21
370.41654012835539
 31
0.0
  0
LINE
  5
122
100
AcDbEntity
  8
0
  6
Continuous
 62
               6
100
AcDbLine
 10
585.43819798333948
 20
365.83590002804482
 30
0.0
 11
587.19041095890407
 21
367.58811300360918
 31
0.0
  0
LINE
  5
123
100
AcDbEntity
  8
0
  6
Continuous
 62
               6
100
AcDbLine
 10
578.26559420599506
 20
369.97700474968525
 30
0.0
 11
587.19041095890407
 21
378.90182150259403
 31
0.0
  0
LINE
  5
124
100
AcDbEntity
  8
0
  6
Continuous
 62
               6
100
AcDbLine
 10
580.05874515033133
 20
368.94172856927509
 30
0.0
 11
587.19041095890407
 21
376.07339437784782
 31
0.0
  0
LINE
  5
125
100
AcDbEntity
  8
0
  6
Continuous
 62
               6
100
AcDbLine
 10
581.85189609466738
 20
367.90645238886503
 30
0.0
 11
587.19041095890407
 21
373.24496725310161
 31
0.0
  0
LINE
  5
126
100
AcDbEntity
  8
0
  6
Continuous
 62
               6
100
AcDbLine
 10
576.47244326165901
 20
371.0122809300953
 30
0.0
 11
587.19041095890407
 21
381.73024862734025
 31
0.0
  0
LINE
  5
127
100
AcDbEntity
  8
0
  6
Continuous
 62
               6
100
AcDbLine
 10
571.41690826700801
 20
377.50375131923641
 30
0.0
 11
579.86990288321567
 21
369.05075670302864
 31
0.0
  0
LINE
  5
128
100
AcDbEntity
  8
0
  6
Continuous
 62
               6
100
AcDbLine
 10
573.64761841030872
 20
378.10146830068169
 30
0.0
 11
586.56203331311826
 21
365.18705339787226
 31
0.0
  0
LINE
  5
129
100
AcDbEntity
  8
0
  6
Continuous
 62
               6
100
AcDbLine
 10
575.59930104343471
 20
378.62442008610964
 30
0.0
 11
571.09299042865064
 21
374.11810947132557
 31
0.0
  0
LINE
  5
12A
100
AcDbEntity
  8
0
  6
Continuous
 62
               6
100
AcDbLine
 10
571.73559773827856
 20
377.58914390569959
 30
0.0
 11
569.29983948431459
 21
375.15338565173562
 31
0.0
  0
LINE
  5
12B
100
AcDbEntity
  8
0
  6
Continuous
 62
               6
100
AcDbLine
 10
569.1861981237073
 20
376.90603433779103
 30
0.0
 11
573.17777245331308
 21
372.91446000818502
 31
0.0
  0
LINE
  5
12C
100
AcDbEntity
  8
0
  6
Continuous
 62
               6
100
AcDbLine
 10
567.87189443312218
 20
376.55386772528954
 30
0.0
 11
567.50668853997831
 21
376.18866183214578
 31
0.0
  0
LINE
  5
12D
100
AcDbEntity
  8
0
  6
Continuous
 62
               6
100
AcDbLine
 10
578.1090386969106
 20
379.29690226357246
 30
0.0
 11
587.19041095890407
 21
370.215530001579
 31
0.0
  0
LINE
  5
12E
100
AcDbEntity
  8
0
  6
Continuous
 62
               6
100
AcDbLine
 10
580.33974884021131
 20
379.89461924501785
 30
0.0
 11
587.19041095890407
 21
373.04395712632521
 31
0.0
  0
LINE
  5
12F
100
AcDbEntity
  8
0
  6
Continuous
 62
               6
100
AcDbLine
 10
583.32670765374746
 20
380.69497244692985
 30
0.0
 11
574.67929231732296
 21
372.04755711050535
 31
0.0
  0
LINE
  5
130
100
AcDbEntity
  8
0
  6
Continuous
 62
               6
100
AcDbLine
 10
579.46300434859108
 20
379.65969626651969
 30
0.0
 11
572.88614137298669
 21
373.08283329091552
 31
0.0
  0
LINE
  5
131
100
AcDbEntity
  8
0
  6
Continuous
 62
               6
100
AcDbLine
 10
582.57045898351225
 20
380.49233622646324
 30
0.0
 11
587.19041095890407
 21
375.87238425107142
 31
0.0
  0
LINE
  5
132
100
AcDbEntity
  8
0
  6
Continuous
 62
               6
100
AcDbLine
 10
584.80116912681297
 20
381.09005320790862
 30
0.0
 11
587.19041095890407
 21
378.70081137581764
 31
0.0
  0
LINE
  5
133
100
AcDbEntity
  8
0
  6
Continuous
 62
               6
100
AcDbLine
 10
587.19041095890407
 20
367.3871028768329
 30
0.0
 11
575.87832855360966
 21
378.69918528212708
 31
0.0
  0
LINE
  5
134
100
AcDbEntity
  8
0
  6
Continuous
 62
               3
100
AcDbLine
 10
599.19041095890384
 20
539.82425939492509
 30
0.0
 11
599.19041095890407
 21
284.21755945501735
 31
0.0
  0
LINE
  5
135
100
AcDbEntity
  8
0
  6
Continuous
 62
               3
100
AcDbLine
 10
590.19041095890429
 20
539.82425939492509
 30
0.0
 11
590.19041095890407
 21
297.85926945676141
 31
0.0
  0
LINE
  5
136
100
AcDbEntity
  8
0
  6
Continuous
 62
               7
100
AcDbLine
 10
594.69041095890429
 20
539.82425939492509
 30
0.0
 11
594.69041095890407
 21
297.85926945676141
 31
0.0
  0
LINE
  5
137
100
AcDbEntity
  8
0
  6
Continuous
 62
               7
100
AcDbLine
 10
596.69041095890407
 20
539.82425939492509
 30
0.0
 11
596.69041095890407
 21
297.85926945676141
 31
0.0
  0
LINE
  5
138
100
AcDbEntity
  8
0
  6
Continuous
 62
               7
100
AcDbLine
 10
592.69041095890407
 20
539.82425939492509
 30
0.0
 11
592.69041095890407
 21
297.85926945676141
 31
0.0
  0
LINE
  5
139
100
AcDbEntity
  8
0
  6
Continuous
 62
               7
100
AcDbLine
 10
598.69041095890407
 20
539.82425939492509
 30
0.0
 11
598.69041095890407
 21
297.85926945676141
 31
0.0
  0
LINE
  5
13A
100
AcDbEntity
  8
0
  6
Continuous
 62
               7
100
AcDbLine
 10
590.69041095890384
 20
539.82425939492509
 30
0.0
 11
590.69041095890407
 21
297.85926945676141
 31
0.0
  0
LINE
  5
13B
100
AcDbEntity
  8
0
  6
DIVIDE
 62
               4
100
AcDbLine
 10
589.19041095890384
 20
539.82425939492509
 30
0.0
 11
589.19041095890407
 21
436.54770504103527
 31
0.0
  0
LINE
  5
13C
100
AcDbEntity
  8
0
  6
Continuous
 62
               7
100
AcDbLine
 10
567.19041095890407
 20
539.82425939492509
 30
0.0
 11
567.19041095890407
 21
376.37126477871772
 31
0.0
  0
LINE
  5
13D
100
AcDbEntity
  8
0
  6
DASHED
 62
               7
100
AcDbLine
 10
584.19041095890407
 20
539.82425939492509
 30
0.0
 11
584.19041095890407
 21
380.92640105004665
 31
0.0
  0
LINE
  5
13E
100
AcDbEntity
  8
0
  6
Continuous
 62
               3
100
AcDbLine
 10
599.19041095890407
 20
93.412788530216901
 30
0.0
 11
599.19041095890407
 21
145.58262116681865
 31
0.0
  0
LINE
  5
13F
100
AcDbEntity
  8
0
  6
Continuous
 62
               3
100
AcDbLine
 10
719.19041095890407
 20
93.412788530216886
 30
0.0
 11
719.19041095890407
 21
539.82425939492509
 31
0.0
  0
LINE
  5
140
100
AcDbEntity
  8
0
  6
Continuous
 62
               3
100
AcDbLine
 10
504.93721782256904
 20
322.6972851191141
 30
0.0
 11
501.35200444783862
 21
340.33662311853044
 31
0.0
  0
LINE
  5
141
100
AcDbEntity
  8
0
  6
Continuous
 62
               3
100
AcDbLine
 10
455.93905671307908
 20
312.73835907819642
 30
0.0
 11
504.93721782256904
 21
322.6972851191141
 31
0.0
  0
LINE
  5
142
100
AcDbEntity
  8
0
  6
Continuous
 62
               3
100
AcDbLine
 10
455.93905671307908
 20
312.73835907819642
 30
0.0
 11
452.35384333834867
 21
330.37769707761271
 31
0.0
  0
LINE
  5
143
100
AcDbEntity
  8
0
  6
Continuous
 62
               4
100
AcDbLine
 10
388.0
 20
36.0
 30
0.0
 11
388.0
 21
20.0
 31
0.0
  0
LINE
  5
144
100
AcDbEntity
  8
0
  6
Continuous
 62
               4
100
AcDbLine
 10
388.0
 20
20.0
 30
0.0
 11
452.0
 21
20.0
 31
0.0
  0
LINE
  5
145
100
AcDbEntity
  8
0
  6
Continuous
 62
               4
100
AcDbLine
 10
452.0
 20
20.0
 30
0.0
 11
452.0
 21
36.0
 31
0.0
  0
LINE
  5
146
100
AcDbEntity
  8
0
  6
Continuous
 62
               4
100
AcDbLine
 10
452.0
 20
36.0
 30
0.0
 11
388.0
 21
36.0
 31
0.0
  0
CIRCLE
  5
147
100
AcDbEntity
  8
0
  6
Continuous
 62
               4
100
AcDbCircle
 10
572.45120041834571
 20
393.56457239628145
 30
0.0
 40
1.0
  0
CIRCLE
  5
148
100
AcDbEntity
  8
0
  6
Continuous
 62
               4
100
AcDbCircle
 10
543.05230375265182
 20
387.58921677173083
 30
0.0
 40
1.0
  0
CIRCLE
  5
149
100
AcDbEntity
  8
0
  6
Continuous
 62
               4
100
AcDbCircle
 10
543.05230375265182
 20
387.58921677173083
 30
0.0
 40
1.0
  0
CIRCLE
  5
14A
100
AcDbEntity
  8
0
  6
Continuous
 62
               4
100
AcDbCircle
 10
500.91388519848982
 20
379.02454037654155
 30
0.0
 40
1.0
  0
CIRCLE
  5
14B
100
AcDbEntity
  8
0
  6
Continuous
 62
               4
100
AcDbCircle
 10
389.30155760417307
 20
299.19421966254725
 30
0.0
 40
1.0
  0
CIRCLE
  5
14C
100
AcDbEntity
  8
0
  6
Continuous
 62
               4
100
AcDbCircle
 10
397.86623399936258
 20
257.05580110838605
 30
0.0
 40
1.0
  0
CIRCLE
  5
14D
100
AcDbEntity
  8
0
  6
Continuous
 62
               4
100
AcDbCircle
 10
575.23969970980306
 20
418.62205272631326
 30
0.0
 40
1.0
  0
CIRCLE
  5
14E
100
AcDbEntity
  8
0
  6
Continuous
 62
               4
100
AcDbCircle
 10
438.04484860323117
 20
390.73705981174379
 30
0.0
 40
1.0
  0
CIRCLE
  5
14F
100
AcDbEntity
  8
0
  6
Continuous
 62
               4
100
AcDbCircle
 10
385.71634422944231
 20
316.83355766196411
 30
0.0
 40
1.0
  0
CIRCLE
  5
150
100
AcDbEntity
  8
0
  6
Continuous
 62
               4
100
AcDbCircle
 10
389.30155760417296
 20
299.19421966254725
 30
0.0
 40
1.0
  0
CIRCLE
  5
151
100
AcDbEntity
  8
0
  6
Continuous
 62
               4
100
AcDbCircle
 10
545.44244600247202
 20
375.82965810545335
 30
0.0
 40
1.0
  0
CIRCLE
  5
152
100
AcDbEntity
  8
0
  6
Continuous
 62
               4
100
AcDbCircle
 10
202.45531823604182
 20
306.11717581902957
 30
0.0
 40
1.0
  0
CIRCLE
  5
153
100
AcDbEntity
  8
0
  6
Continuous
 62
               4
100
AcDbCircle
 10
202.45531823604182
 20
306.11717581902957
 30
0.0
 40
1.0
  0
CIRCLE
  5
154
100
AcDbEntity
  8
0
  6
Continuous
 62
               4
100
AcDbCircle
 10
160.31689968187982
 20
297.55249942384017
 30
0.0
 40
1.0
  0
CIRCLE
  5
155
100
AcDbEntity
  8
0
  6
Continuous
 62
               4
100
AcDbCircle
 10
635.19041095890407
 20
459.82425939492504
 30
0.0
 40
1.0
  0
CIRCLE
  5
156
100
AcDbEntity
  8
0
  6
Continuous
 62
               4
100
AcDbCircle
 10
635.19041095890407
 20
359.82425939492515
 30
0.0
 40
1.0
  0
ARC
  5
157
100
AcDbEntity
  8
0
  6
Continuous
 62
               2
100
AcDbCircle
 10
424.281465821778
 20
307.83459124529378
 30
0.0
 40
0.499999999999991
100
AcDbArc
 50
101.48892528535549
 51
281.48892528535549
  0
ARC
  5
158
100
AcDbEntity
  8
0
  6
Continuous
 62
               7
100
AcDbCircle
 10
452.39129344152258
 20
317.02811393792211
 30
0.0
 40
0.5
100
AcDbArc
 50
191.48892528535615
 51
281.48892528535617
  0
ARC
  5
159
100
AcDbEntity
  8
0
  6
Continuous
 62
               7
100
AcDbCircle
 10
450.49909749374757
 20
326.33776454872503
 30
0.0
 40
0.5
100
AcDbArc
 50
101.48892528535595
 51
191.48892528535615
  0
ARC
  5
15A
100
AcDbEntity
  8
0
  6
Continuous
 62
               7
100
AcDbCircle
 10
481.41973059762807
 20
336.79559143136458
 30
0.0
 40
0.5
100
AcDbArc
 50
101.48892528535566
 51
191.48892528535569
  0
ARC
  5
15B
100
AcDbEntity
  8
0
  6
Continuous
 62
               7
100
AcDbCircle
 10
490.72938120843111
 20
338.68778737913937
 30
0.0
 40
0.5
100
AcDbArc
 50
11.488925285355469
 51
101.48892528535566
  0
ARC
  5
15C
100
AcDbEntity
  8
0
  6
Continuous
 62
               7
100
AcDbCircle
 10
166.00031311759318
 20
236.88597093225587
 30
0.0
 40
6.7625000000001956
100
AcDbArc
 50
53.109553344186523
 51
154.96293359166734
  0
ARC
  5
15D
100
AcDbEntity
  8
0
  6
Continuous
 62
               2
100
AcDbCircle
 10
586.69041095890407
 20
459.82425939492504
 30
0.0
 40
0.500000000000057
100
AcDbArc
 50
0.0
 51
180.0
  0
ARC
  5
15E
100
AcDbEntity
  8
0
  6
Continuous
 62
               7
100
AcDbCircle
 10
586.63498830404887
 20
434.33305390933907
 30
0.0
 40
0.5
100
AcDbArc
 50
180.00000000000023
 51
270.00000000000023
  0
ARC
  5
15F
100
AcDbEntity
  8
0
  6
Continuous
 62
               7
100
AcDbCircle
 10
586.63498830404842
 20
443.83305390933907
 30
0.0
 40
0.5
100
AcDbArc
 50
90.000000000000028
 51
180.00000000000023
  0
TEXT
  5
160
100
AcDbEntity
  8
0
 62
               7
100
AcDbText
 10
407.48950543044072
 20
209.26408258626554
 30
0.0
 40
7.9999999999998863
  1
野地板 12
 41
0.7695
  7
FontTableH_0
 72
               5
 11
443.48950543044072
 21
209.26408258626554
 31
0.0
100
AcDbText
  0
TEXT
  5
161
100
AcDbEntity
  8
0
 62
               7
100
AcDbText
 10
412.85395888566194
 20
155.79248934095745
 30
0.0
 40
8.0
  1
たる木
 41
0.7695
  7
FontTableH_0
 72
               5
 11
436.85395888566194
 21
155.79248934095745
 31
0.0
100
AcDbText
  0
TEXT
  5
162
100
AcDbEntity
  8
0
 62
               7
100
AcDbText
 10
553.83189919673953
 20
389.7801805007328
 30
0.0
 40
7.999999999999968
  1
30
 50
11.488925285355183
 41
0.7695
  7
FontTableH_0
 72
               5
 11
561.671604974258
 21
391.3736086672796
 31
0.0
100
AcDbText
  0
TEXT
  5
163
100
AcDbEntity
  8
0
 62
               7
100
AcDbText
 10
518.06324158681161
 20
382.51016449086279
 30
0.0
 40
7.999999999999968
  1
43
 50
11.488925285355183
 41
0.7695
  7
FontTableH_0
 72
               5
 11
525.90294736433009
 21
384.10359265740959
 31
0.0
100
AcDbText
  0
TEXT
  5
164
100
AcDbEntity
  8
0
 62
               7
100
AcDbText
 10
392.78718171849442
 20
282.0448632742258
 30
0.0
 40
7.999999999999968
  1
43
 50
281.48892528535538
 41
0.7695
  7
FontTableH_0
 72
               5
 11
394.38060988504122
 21
274.20515749670744
 31
0.0
100
AcDbText
  0
TEXT
  5
165
100
AcDbEntity
  8
0
 62
               7
100
AcDbText
 10
500.76249482337812
 20
403.48448514411842
 30
0.0
 40
7.999999999999968
  1
140
 50
11.488925285355299
 41
0.7695
  7
FontTableH_0
 72
               5
 11
512.52205348965572
 21
405.87462739393862
 31
0.0
100
AcDbText
  0
TEXT
  5
166
100
AcDbEntity
  8
0
 62
               7
100
AcDbText
 10
386.71223683353423
 20
311.9337415510148
 30
0.0
 40
7.9999999999998561
  1
18
 50
281.48892528535538
 41
0.7695
  7
FontTableH_0
 72
               5
 11
388.30566500008104
 21
304.09403577349644
 31
0.0
100
AcDbText
  0
TEXT
  5
167
100
AcDbEntity
  8
0
 62
               7
100
AcDbText
 10
368.06910278611809
 20
339.7783458373313
 30
0.0
 40
7.999999999999968
  1
350
 50
11.488925285355299
 41
0.7695
  7
FontTableH_0
 72
               5
 11
379.82866145239569
 21
342.1684880871515
 31
0.0
100
AcDbText
  0
TEXT
  5
168
100
AcDbEntity
  8
0
 62
               7
100
AcDbText
 10
177.46625607020164
 20
301.03812353816153
 30
0.0
 40
7.999999999999968
  1
43
 50
11.48892528535524
 41
0.7695
  7
FontTableH_0
 72
               5
 11
185.30596184772006
 21
302.63155170470833
 31
0.0
100
AcDbText
  0
TEXT
  5
169
100
AcDbEntity
  8
0
 62
               7
100
AcDbText
 10
217.77340345601505
 20
116.24138013346303
 30
0.0
 40
8.0
  1
タッピング 70
 41
0.7695
  7
FontTableH_0
 72
               5
 11
269.77340345601505
 21
116.24138013346303
 31
0.0
100
AcDbText
  0
TEXT
  5
16A
100
AcDbEntity
  8
0
 62
               7
100
AcDbText
 10
86.290526743686286
 20
333.8272819599469
 30
0.0
 40
8.0
  1
アスファルトルーフィング 22kg
 41
0.7695
  7
FontTableH_0
 72
               5
 11
202.29052674368629
 21
333.8272819599469
 31
0.0
100
AcDbText
  0
TEXT
  5
16B
100
AcDbEntity
  8
0
 62
               7
100
AcDbText
 10
153.20205642405159
 20
358.9414372110885
 30
0.0
 40
8.0
  1
フィンルーフ本体
 41
0.7695
  7
FontTableH_0
 72
               5
 11
217.20205642405159
 21
358.9414372110885
 31
0.0
100
AcDbText
  0
TEXT
  5
16C
100
AcDbEntity
  8
0
 62
               7
100
AcDbText
 10
382.32534246575341
 20
375.95890410958856
 30
0.0
 40
8.0
  1
棟面戸
 41
0.7695
  7
FontTableH_0
 72
               5
 11
406.32534246575341
 21
375.95890410958901
 31
0.0
100
AcDbText
  0
TEXT
  5
16D
100
AcDbEntity
  8
0
 62
               7
100
AcDbText
 10
300.54251805299111
 20
395.04818920445058
 30
0.0
 40
8.0
  1
カラー平頭ステンレスくぎ 32
 41
0.7695
  7
FontTableH_0
 72
               5
 11
408.54251805299111
 21
395.04818920445416
 31
0.0
100
AcDbText
  0
TEXT
  5
16E
100
AcDbEntity
  8
0
 62
               7
100
AcDbText
 10
354.59446661970844
 20
419.1650160055687
 30
0.0
 40
8.0
  1
通し桟木 18X50
 41
0.7695
  7
FontTableH_0
 72
               5
 11
410.59446661970844
 21
419.16501600557052
 31
0.0
100
AcDbText
  0
TEXT
  5
16F
100
AcDbEntity
  8
0
 62
               7
100
AcDbText
 10
418.01051494543157
 20
437.80442810602716
 30
0.0
 40
8.0
  1
桁用水切り
 41
0.7695
  7
FontTableH_0
 72
               5
 11
458.01051494543157
 21
437.80442810602716
 31
0.0
100
AcDbText
  0
TEXT
  5
170
100
AcDbEntity
  8
0
 62
               7
100
AcDbText
 10
635.19041095890407
 20
403.82425939492504
 30
0.0
 40
8.0
  1
100
 50
90.000000000000028
 41
0.7695
  7
FontTableH_0
 72
               5
 11
635.19041095890407
 21
415.82425939492504
 31
0.0
100
AcDbText
  0
TEXT
  5
171
100
AcDbEntity
  8
0
 62
               7
100
AcDbText
 10
492.39469476628648
 20
453.03756218565462
 30
0.0
 40
7.9999999999997717
  1
シーリング
 41
0.7695
  7
FontTableH_0
 72
               5
 11
532.39469476628642
 21
453.03756218565462
 31
0.0
100
AcDbText
  0
TEXT
  5
172
100
AcDbEntity
  8
0
 62
               7
100
AcDbText
 10
629.34875248393382
 20
235.04044901065447
 30
0.0
 40
8.0000000000001705
  1
水返し
 41
0.7695
  7
FontTableH_0
 72
               5
 11
653.34875248393382
 21
235.04044901065447
 31
0.0
100
AcDbText
  0
TEXT
  5
173
100
AcDbEntity
  8
0
 62
               7
100
AcDbText
 10
625.81707440174205
 20
257.2109336243588
 30
0.0
 40
8.0000000000001137
  1
アスファルトルーフィング立ち上げ100以上
 41
0.7695
  7
FontTableH_0
 72
               5
 11
781.81707440174205
 21
257.2109336243588
 31
0.0
100
AcDbText
  0
TEXT
  5
174
100
AcDbEntity
  8
0
 62
               7
100
AcDbText
 10
646.41329776551697
 20
293.25916421796609
 30
0.0
 40
8.0
  1
胴縁 30X45
 41
0.7695
  7
FontTableH_0
 72
               5
 11
686.41329776551697
 21
293.25916421796609
 31
0.0
100
AcDbText
  0
TEXT
  5
175
100
AcDbEntity
  8
0
 62
               7
100
AcDbText
 10
645.96856793294455
 20
326.98014975830091
 30
0.0
 40
8.0
  1
壁下地合板 9
 41
0.7695
  7
FontTableH_0
 72
               5
 11
693.96856793294455
 21
326.98014975830091
 31
0.0
100
AcDbText
  0
TEXT
  5
176
100
AcDbEntity
  8
0
 62
               7
100
AcDbText
 10
628.3494183895657
 20
480.64181887366811
 30
0.0
 40
8.0
  1
平頭ステンレスくぎ 25
 41
0.7695
  7
FontTableH_0
 72
               5
 11
712.3494183895657
 21
480.64181887366811
 31
0.0
100
AcDbText
  0
TEXT
  5
177
100
AcDbEntity
  8
0
 62
               7
100
AcDbText
 10
619.9780333058518
 20
518.37845319634721
 30
0.0
 40
8.0
  1
壁下地アスファルトルーフィング
 41
0.7695
  7
FontTableH_0
 72
               5
 11
739.9780333058518
 21
518.37845319634721
 31
0.0
100
AcDbText
  0
TEXT
  5
178
100
AcDbEntity
  8
0
 62
               7
100
AcDbText
 10
536.88311136478933
 20
479.56269501522075
 30
0.0
 40
8.0
  1
ラス
 41
0.7695
  7
FontTableH_0
 72
               5
 11
552.88311136478933
 21
479.56269501522075
 31
0.0
100
AcDbText
  0
TEXT
  5
179
100
AcDbEntity
  8
0
 62
               7
100
AcDbText
 10
487.24807521562656
 20
517.16852644596656
 30
0.0
 40
8.0
  1
外壁モルタル塗り
 41
0.7695
  7
FontTableH_0
 72
               5
 11
551.24807521562661
 21
517.16852644596656
 31
0.0
100
AcDbText
  0
TEXT
  5
17A
100
AcDbEntity
  8
0
 62
               7
100
AcDbText
 10
629.00753424657523
 20
144.95136986301372
 30
0.0
 40
8.0
  1
たる木受
 41
0.7695
  7
FontTableH_0
 72
               5
 11
661.00753424657523
 21
144.95136986301372
 31
0.0
100
AcDbText
  0
TEXT
  5
17B
100
AcDbEntity
  8
0
 62
               7
100
AcDbText
 10
729.58972602739732
 20
166.98904109589043
 30
0.0
 40
8.0
  1
柱または間柱
 41
0.7695
  7
FontTableH_0
 72
               5
 11
777.58972602739732
 21
166.98904109589043
 31
0.0
100
AcDbText
  0
TEXT
  5
17C
100
AcDbEntity
  8
図枠
 62
               7
100
AcDbText
 10
392.0
 20
24.0
 30
0.0
 40
8.0
  1
水上部分雨仕舞
 41
0.7695
  7
FontTableH_0
 72
               5
 11
448.0
 21
24.0
 31
0.0
100
AcDbText
  0
ENDSEC
  0
SECTION
  2
OBJECTS
  0
DICTIONARY
  5
19
100
AcDbDictionary
  3
ACAD_GROUP
350
1A
  3
ACAD_MLINESTYLE
350
1B
  3
DWGPROPS
350
17D
  0
DICTIONARY
  5
1A
102
{ACAD_REACTORS
330
19
102
}
100
AcDbDictionary
  0
DICTIONARY
  5
1B
102
{ACAD_REACTORS
330
19
102
}
100
AcDbDictionary
  3
STANDARD
350
1C
  0
MLINESTYLE
  5
1C
102
{ACAD_REACTORS
330
1B
102
}
100
AcDbMlineStyle
  2
Standard
 70
               0
  3

 62
               0
 51
90.0
 52
90.0
 71
               2
 49
0.5
 62
             256
  6
ByLayer
 49
-0.5
 62
             256
  6
ByLayer
  0
XRECORD
  5
17D
100
AcDbXrecord
  1
DWGPROPS COOKIE
  2

  3

  4

  6

  7

  0
ENDSEC
  0
EOF
