  0
SECTION
  2
HEADER
  9
$ACADVER
  1
AC1014
  9
$ACADMAINTVER
 70
               0
  9
$DWGCODEPAGE
  3
ANSI_932
  9
$INSBASE
 10
0.0
 20
0.0
 30
0.0
  9
$EXTMIN
 10
0.0
 20
0.0
 30
0.0
  9
$EXTMAX
 10
840.0
 20
594.0
 30
0.0
  9
$LIMMIN
 10
0.0
 20
0.0
  9
$LIMMAX
 10
840.0
 20
594.0
  9
$ORTHOMODE
 70
               0
  9
$REGENMODE
 70
               1
  9
$FILLMODE
 70
               1
  9
$QTEXTMODE
 70
               0
  9
$MIRRTEXT
 70
               1
  9
$DRAGMODE
 70
               2
  9
$LTSCALE
 40
2.0
  9
$OSMODE
 70
               0
  9
$ATTMODE
 70
               1
  9
$TEXTSIZE
 40
0.2
  9
$TRACEWID
 40
0.05
  9
$TEXTSTYLE
  7
Standard
  9
$CLAYER
  8
0
  9
$CELTYPE
  6
Continuous
  9
$CECOLOR
 62
             256
  9
$CELTSCALE
 40
1.0
  9
$DELOBJ
 70
               1
  9
$DISPSILH
 70
               0
  9
$DIMSCALE
 40
1.0
  9
$DIMASZ
 40
0.18
  9
$DIMEXO
 40
0.0625
  9
$DIMDLI
 40
0.38
  9
$DIMRND
 40
0.0
  9
$DIMDLE
 40
0.0
  9
$DIMEXE
 40
0.18
  9
$DIMTP
 40
0.0
  9
$DIMTM
 40
0.0
  9
$DIMTXT
 40
0.18
  9
$DIMCEN
 40
0.09
  9
$DIMTSZ
 40
0.0
  9
$DIMTOL
 70
               0
  9
$DIMLIM
 70
               0
  9
$DIMTIH
 70
               1
  9
$DIMTOH
 70
               1
  9
$DIMSE1
 70
               0
  9
$DIMSE2
 70
               0
  9
$DIMTAD
 70
               0
  9
$DIMZIN
 70
               0
  9
$DIMBLK
  1

  9
$DIMASO
 70
               1
  9
$DIMSHO
 70
               1
  9
$DIMPOST
  1

  9
$DIMAPOST
  1

  9
$DIMALT
 70
               0
  9
$DIMALTD
 70
               2
  9
$DIMALTF
 40
25.399999999999999
  9
$DIMLFAC
 40
1.0
  9
$DIMTOFL
 70
               0
  9
$DIMTVP
 40
0.0
  9
$DIMTIX
 70
               0
  9
$DIMSOXD
 70
               0
  9
$DIMSAH
 70
               0
  9
$DIMBLK1
  1

  9
$DIMBLK2
  1

  9
$DIMSTYLE
  2
Standard
  9
$DIMCLRD
 70
               0
  9
$DIMCLRE
 70
               0
  9
$DIMCLRT
 70
               0
  9
$DIMTFAC
 40
1.0
  9
$DIMGAP
 40
0.09
  9
$DIMJUST
 70
               0
  9
$DIMSD1
 70
               0
  9
$DIMSD2
 70
               0
  9
$DIMTOLJ
 70
               1
  9
$DIMTZIN
 70
               0
  9
$DIMALTZ
 70
               0
  9
$DIMALTTZ
 70
               0
  9
$DIMFIT
 70
               3
  9
$DIMUPT
 70
               0
  9
$DIMUNIT
 70
               2
  9
$DIMDEC
 70
               4
  9
$DIMTDEC
 70
               4
  9
$DIMALTU
 70
               2
  9
$DIMALTTD
 70
               2
  9
$DIMTXSTY
  7
Standard
  9
$DIMAUNIT
 70
               0
  9
$LUNITS
 70
               2
  9
$LUPREC
 70
               4
  9
$SKETCHINC
 40
0.1
  9
$FILLETRAD
 40
0.0
  9
$AUNITS
 70
               0
  9
$AUPREC
 70
               0
  9
$MENU
  1
acad
  9
$ELEVATION
 40
0.0
  9
$PELEVATION
 40
0.0
  9
$THICKNESS
 40
0.0
  9
$LIMCHECK
 70
               0
  9
$BLIPMODE
 70
               1
  9
$CHAMFERA
 40
0.0
  9
$CHAMFERB
 40
0.0
  9
$CHAMFERC
 40
0.0
  9
$CHAMFERD
 40
0.0
  9
$SKPOLY
 70
               0
  9
$TDCREATE
 40
0.000000000
  9
$TDUPDATE
 40
0.000000000
  9
$TDINDWG
 40
0.0000000000
  9
$TDUSRTIMER
 40
0.0000000000
  9
$USRTIMER
 70
               1
  9
$ANGBASE
 50
0.0
  9
$ANGDIR
 70
               0
  9
$PDMODE
 70
               0
  9
$PDSIZE
 40
0.0
  9
$PLINEWID
 40
0.0
  9
$COORDS
 70
               0
  9
$SPLFRAME
 70
               0
  9
$SPLINETYPE
 70
               6
  9
$SPLINESEGS
 70
               8
  9
$ATTDIA
 70
               0
  9
$ATTREQ
 70
               1
  9
$HANDLING
 70
               1
  9
$HANDSEED
  5
1D7
  9
$SURFTAB1
 70
               6
  9
$SURFTAB2
 70
               6
  9
$SURFTYPE
 70
               6
  9
$SURFU
 70
               6
  9
$SURFV
 70
               6
  9
$UCSNAME
  2

  9
$UCSORG
 10
0.0
 20
0.0
 30
0.0
  9
$UCSXDIR
 10
1.0
 20
0.0
 30
0.0
  9
$UCSYDIR
 10
0.0
 20
1.0
 30
0.0
  9
$PUCSNAME
  2

  9
$PUCSORG
 10
0.0
 20
0.0
 30
0.0
  9
$PUCSXDIR
 10
1.0
 20
0.0
 30
0.0
  9
$PUCSYDIR
 10
0.0
 20
1.0
 30
0.0
  9
$USERI1
 70
               0
  9
$USERI2
 70
               0
  9
$USERI3
 70
               0
  9
$USERI4
 70
               0
  9
$USERI5
 70
               0
  9
$USERR1
 40
0.0
  9
$USERR2
 40
0.0
  9
$USERR3
 40
0.0
  9
$USERR4
 40
0.0
  9
$USERR5
 40
0.0
  9
$WORLDVIEW
 70
               1
  9
$SHADEDGE
 70
               3
  9
$SHADEDIF
 70
              70
  9
$TILEMODE
 70
               1
  9
$MAXACTVP
 70
              16
  9
$PINSBASE
 10
0.0
 20
0.0
 30
0.0
  9
$PLIMCHECK
 70
               0
  9
$PEXTMIN
 10
1.0000000000000000E+20
 20
1.0000000000000000E+20
 30
1.0000000000000000E+20
  9
$PEXTMAX
 10
-1.0000000000000000E+20
 20
-1.0000000000000000E+20
 30
-1.0000000000000000E+20
  9
$PLIMMIN
 10
0.0
 20
0.0
  9
$PLIMMAX
 10
12.0
 20
9.0
  9
$UNITMODE
 70
               0
  9
$VISRETAIN
 70
               0
  9
$PLINEGEN
 70
               1
  9
$PSLTSCALE
 70
               0
  9
$TREEDEPTH
 70
            3020
  9
$PICKSTYLE
 70
               1
  9
$CMLSTYLE
  2
Standard
  9
$CMLJUST
 70
               0
  9
$CMLSCALE
 40
1.0
  9
$PROXYGRAPHICS
 70
               0
  9
$MEASUREMENT
 70
               0
  0
ENDSEC
  0
SECTION
  2
CLASSES
  0
CLASS
  1
LWPOLYLINE
  2
AcDbPolyline
  3
"AutoCAD"
 90
        0
280
               0
281
               1
  0
CLASS
  1
IMAGE
  2
AcDbRasterImage
  3
ISM
 90
      127
280
               0
281
               1
  0
CLASS
  1
OLE2FRAME
  2
AcDbOle2Frame
  3
""
 90
        0
280
               0
281
               1
  0
CLASS
  1
HATCH
  2
AcDbHatch
  3
"ACAD_SEDONA"
 90
        0
280
               0
281
               1
  0
CLASS
  1
DICTIONARYVAR
  2
AcDbDictionaryVar
  3
"AutoCAD"
 90
        0
280
               0
281
               0
  0
CLASS
  1
RASTERVARIABLES
  2
AcDbRasterVariables
  3
ISM
 90
        0
280
               0
281
               0
  0
CLASS
  1
IMAGEDEF
  2
AcDbRasterImageDef
  3
ISM
 90
        0
280
               0
281
               0
  0
CLASS
  1
IMAGEDEF_REACTOR
  2
AcDbRasterImageDefReactor
  3
ISM
 90
        1
280
               0
281
               0
  0
CLASS
  1
IDBUFFER
  2
AcDbIdBuffer
  3
"Acad"
 90
        0
280
               0
281
               0
  0
CLASS
  1
SPATIAL_FILTER
  2
AcDbSpatialFilter
  3
"Acad"
 90
        0
280
               0
281
               0
  0
CLASS
  1
XRECORD
  2
AcDbXrecord
  3
"<Built In>"
 90
        0
280
               0
281
               0
  0
CLASS
  1
SORTENTSTABLE
  2
AcDbSortentsTable
  3
"AutoCAD"
 90
        0
280
               0
281
               0
  0
CLASS
  1
LAYER_INDEX
  2
AcDbLayerIndex
  3
"Acad"
 90
        0
280
               0
281
               0
  0
CLASS
  1
SPATIAL_INDEX
  2
AcDbSpatialIndex
  3
"Acad"
 90
        0
280
               0
281
               0
  0
CLASS
  1
OBJECT_PTR
  2
CAseDLPNTableRecord
  3
"ASE-LPNTableRecord"
 90
        1
280
               0
281
               0
  0
CLASS
  1
LAYOUT
  2
AcDbLayout
  3
"AutoCAD 2000"
 90
        0
280
               0
281
               0
  0
CLASS
  1
PLOTSETTINGS
  2
AcDbPlotSettings
  3
"AutoCAD 2000"
 90
        0
280
               0
281
               0
  0
CLASS
  1
ACDBDICTIONARYWDFLT
  2
AcDbDictionaryWithDefault
  3
"AutoCAD 2000"
 90
        0
280
               0
281
               0
  0
CLASS
  1
ACDBPLACEHOLDER
  2
AcDbPlaceHolder
  3
"AutoCAD 2000"
 90
        0
280
               0
281
               0
  0
CLASS
  1
VBA_PROJECT
  2
AcDbVbaProject
  3
"acadvba"
 90
        0
280
               0
281
               0
  0
CLASS
  1
WIPEOUT
  2
AcDbWipeout
  3
WipeOut|AutoCAD Express Tool|expresstools@autodesk.com
 90
      127
280
               0
281
               1
  0
CLASS
  1
WIPEOUTVARIABLES
  2
AcDbWipeoutVariables
  3
WipeOut|AutoCAD Express Tool|expresstools@autodesk.com
 90
        0
280
               0
281
               0
  0
CLASS
  1
RTEXT
  2
RText
  3
RText|AutoCAD Express Tool|expresstools@autodesk.com
 90
        0
280
               0
281
               1
  0
CLASS
  1
ARCALIGNEDTEXT
  2
AcDbArcAlignedText
  3
ATEXT|AutoCAD Express Tool|expresstools@autodesk.com
 90
        0
280
               0
281
               1
  0
ENDSEC
  0
SECTION
  2
TABLES
  0
TABLE
  2
VPORT
  5
7
100
AcDbSymbolTable
 70
               1
  0
VPORT
  5
15
100
AcDbSymbolTableRecord
100
AcDbViewportTableRecord
  2
*ACTIVE
 70
               0
 10
0.0
 20
0.0
 11
1.0
 21
1.0
 12
420.0
 22
297.0
 13
0.0
 23
0.0
 14
10.0
 24
10.0
 15
10.0
 25
10.0
 16
0.0
 26
0.0
 36
1.0
 17
0.0
 27
0.0
 37
0.0
 40
594.0
 41
1.4141414141414141
 42
50.0
 43
0.0
 44
0.0
 50
0.0
 51
0.0
 71
               0
 72
             100
 73
               1
 74
               1
 75
               0
 76
               0
 77
               0
 78
               0
  0
ENDTAB
  0
TABLE
  2
LTYPE
  5
4
100
AcDbSymbolTable
 70
              24
  0
LTYPE
  5
11
100
AcDbSymbolTableRecord
100
AcDbLinetypeTableRecord
  2
ByBlock
 70
              64
  3

 72
              65
 73
               0
 40
0.0
  0
LTYPE
  5
12
100
AcDbSymbolTableRecord
100
AcDbLinetypeTableRecord
  2
ByLayer
 70
              64
  3

 72
              65
 73
               0
 40
0.0
  0
LTYPE
  5
13
100
AcDbSymbolTableRecord
100
AcDbLinetypeTableRecord
  2
Continuous
 70
              64
  3
Solid line
 72
              65
 73
               0
 40
0.0
  0
LTYPE
  5
1D
100
AcDbSymbolTableRecord
100
AcDbLinetypeTableRecord
  2
DOT
 70
              64
  3
Dot . . . . . . . . . . . . . . . . . . . . . .
 72
              65
 73
               2
 40
6.3499999999999996
 49
0.35
 74
               0
 49
-6.0
 74
               0
  0
LTYPE
  5
1E
100
AcDbSymbolTableRecord
100
AcDbLinetypeTableRecord
  2
DASHED
 70
              64
  3
Dashed __ __ __ __ __ __ __ __ __ __ __ __ __ _
 72
              65
 73
               2
 40
12.699999999999999
 49
6.3499999999999996
 74
               0
 49
-6.3499999999999996
 74
               0
  0
LTYPE
  5
1F
100
AcDbSymbolTableRecord
100
AcDbLinetypeTableRecord
  2
DASHDOT
 70
              64
  3
Dash dot __ . __ . __ . __ . __ . __ . __ . __
 72
              65
 73
               4
 40
25.399999999999999
 49
12.699999999999999
 74
               0
 49
-6.0
 74
               0
 49
0.7
 74
               0
 49
-6.0
 74
               0
  0
LTYPE
  5
20
100
AcDbSymbolTableRecord
100
AcDbLinetypeTableRecord
  2
DIVIDE
 70
              64
  3
Divide ____ . . ____ . . ____ . . ____ . . ____
 72
              65
 73
               6
 40
31.75
 49
12.699999999999999
 74
               0
 49
-6.0
 74
               0
 49
0.875
 74
               0
 49
-6.0
 74
               0
 49
0.875
 74
               0
 49
-6.0
 74
               0
  0
LTYPE
  5
21
100
AcDbSymbolTableRecord
100
AcDbLinetypeTableRecord
  2
HIDDEN
 70
              64
  3
Hidden __ __ __ __ __ __ __ __ __ __ __ __ __ _
 72
              65
 73
               2
 40
9.5250000000000004
 49
6.3499999999999996
 74
               0
 49
-3.1749999999999998
 74
               0
  0
LTYPE
  5
22
100
AcDbSymbolTableRecord
100
AcDbLinetypeTableRecord
  2
CENTER
 70
              64
  3
Center ____ _ ____ _ ____ _ ____ _ ____ _ ____
 72
              65
 73
               4
 40
50.799999999999997
 49
31.75
 74
               0
 49
-6.3499999999999996
 74
               0
 49
6.3499999999999996
 74
               0
 49
-6.3499999999999996
 74
               0
  0
LTYPE
  5
23
100
AcDbSymbolTableRecord
100
AcDbLinetypeTableRecord
  2
PHANTOM
 70
              64
  3
Phantom ______  __  __  ______  __  __  ______
 72
              65
 73
               6
 40
63.5
 49
31.75
 74
               0
 49
-6.3499999999999996
 74
               0
 49
6.3499999999999996
 74
               0
 49
-6.3499999999999996
 74
               0
 49
6.3499999999999996
 74
               0
 49
-6.3499999999999996
 74
               0
  0
LTYPE
  5
24
100
AcDbSymbolTableRecord
100
AcDbLinetypeTableRecord
  2
ACAD_ISO02W100
 70
              64
  3
ISO dash __ __ __ __ __ __ __ __ __ __ __ __ __
 72
              65
 73
               2
 40
15.0
 49
12.0
 74
               0
 49
-3.0
 74
               0
  0
LTYPE
  5
25
100
AcDbSymbolTableRecord
100
AcDbLinetypeTableRecord
  2
ACAD_ISO03W100
 70
              64
  3
ISO dash space __ __ __ __ __ __ __ __ __ __ __ __ __ __
 72
              65
 73
               2
 40
30.0
 49
12.0
 74
               0
 49
-18.0
 74
               0
  0
LTYPE
  5
26
100
AcDbSymbolTableRecord
100
AcDbLinetypeTableRecord
  2
ACAD_ISO04W100
 70
              64
  3
ISO long-dash dot ____ . ____ . ____ . ____ . _
 72
              65
 73
               4
 40
30.0
 49
24.0
 74
               0
 49
-3.0
 74
               0
 49
0.0
 74
               0
 49
-3.0
 74
               0
  0
LTYPE
  5
27
100
AcDbSymbolTableRecord
100
AcDbLinetypeTableRecord
  2
ACAD_ISO05W100
 70
              64
  3
ISO long-dash double-dot ____ .. ____ .. ____ .
 72
              65
 73
               6
 40
33.0
 49
24.0
 74
               0
 49
-3.0
 74
               0
 49
0.0
 74
               0
 49
-3.0
 74
               0
 49
0.0
 74
               0
 49
-3.0
 74
               0
  0
LTYPE
  5
28
100
AcDbSymbolTableRecord
100
AcDbLinetypeTableRecord
  2
ACAD_ISO06W100
 70
              64
  3
ISO long-dash triple-dot ____ ... ____ ... ____
 72
              65
 73
               8
 40
36.0
 49
24.0
 74
               0
 49
-3.0
 74
               0
 49
0.0
 74
               0
 49
-3.0
 74
               0
 49
0.0
 74
               0
 49
-3.0
 74
               0
 49
0.0
 74
               0
 49
-3.0
 74
               0
  0
LTYPE
  5
29
100
AcDbSymbolTableRecord
100
AcDbLinetypeTableRecord
  2
ACAD_ISO07W100
 70
              64
  3
ISO dot . . . . . . . . . . . . . . . . . . . .
 72
              65
 73
               2
 40
3.0
 49
0.0
 74
               0
 49
-3.0
 74
               0
  0
LTYPE
  5
2A
100
AcDbSymbolTableRecord
100
AcDbLinetypeTableRecord
  2
ACAD_ISO08W100
 70
              64
  3
ISO long-dash short-dash ____ __ ____ __ ____ _
 72
              65
 73
               4
 40
36.0
 49
24.0
 74
               0
 49
-3.0
 74
               0
 49
6.0
 74
               0
 49
-3.0
 74
               0
  0
LTYPE
  5
2B
100
AcDbSymbolTableRecord
100
AcDbLinetypeTableRecord
  2
ACAD_ISO09W100
 70
              64
  3
ISO long-dash double-short-dash ____ __ __ ____
 72
              65
 73
               6
 40
45.0
 49
24.0
 74
               0
 49
-3.0
 74
               0
 49
6.0
 74
               0
 49
-3.0
 74
               0
 49
6.0
 74
               0
 49
-3.0
 74
               0
  0
LTYPE
  5
2C
100
AcDbSymbolTableRecord
100
AcDbLinetypeTableRecord
  2
ACAD_ISO10W100
 70
              64
  3
ISO dash dot __ . __ . __ . __ . __ . __ . __ .
 72
              65
 73
               4
 40
18.0
 49
12.0
 74
               0
 49
-3.0
 74
               0
 49
0.0
 74
               0
 49
-3.0
 74
               0
  0
LTYPE
  5
2D
100
AcDbSymbolTableRecord
100
AcDbLinetypeTableRecord
  2
ACAD_ISO11W100
 70
              64
  3
ISO double-dash dot __ __ . __ __ . __ __ . __ 
 72
              65
 73
               6
 40
33.0
 49
12.0
 74
               0
 49
-3.0
 74
               0
 49
12.0
 74
               0
 49
-3.0
 74
               0
 49
0.0
 74
               0
 49
-3.0
 74
               0
  0
LTYPE
  5
2E
100
AcDbSymbolTableRecord
100
AcDbLinetypeTableRecord
  2
ACAD_ISO12W100
 70
              64
  3
ISO dash double-dot __ . . __ . . __ . . __ . .
 72
              65
 73
               6
 40
21.0
 49
12.0
 74
               0
 49
-3.0
 74
               0
 49
0.0
 74
               0
 49
-3.0
 74
               0
 49
0.0
 74
               0
 49
-3.0
 74
               0
  0
LTYPE
  5
2F
100
AcDbSymbolTableRecord
100
AcDbLinetypeTableRecord
  2
ACAD_ISO13W100
 70
              64
  3
ISO double-dash double-dot __ __ . . __ __ . . 
 72
              65
 73
               8
 40
36.0
 49
12.0
 74
               0
 49
-3.0
 74
               0
 49
12.0
 74
               0
 49
-3.0
 74
               0
 49
0.0
 74
               0
 49
-3.0
 74
               0
 49
0.0
 74
               0
 49
-3.0
 74
               0
  0
LTYPE
  5
30
100
AcDbSymbolTableRecord
100
AcDbLinetypeTableRecord
  2
ACAD_ISO14W100
 70
              64
  3
ISO dash triple-dot __ . . . __ . . . __ . . . 
 72
              65
 73
               8
 40
24.0
 49
12.0
 74
               0
 49
-3.0
 74
               0
 49
0.0
 74
               0
 49
-3.0
 74
               0
 49
0.0
 74
               0
 49
-3.0
 74
               0
 49
0.0
 74
               0
 49
-3.0
 74
               0
  0
LTYPE
  5
31
100
AcDbSymbolTableRecord
100
AcDbLinetypeTableRecord
  2
ACAD_ISO15W100
 70
              64
  3
ISO double-dash double-dot __ __ . . __ __ . . 
 72
              65
 73
              10
 40
39.0
 49
12.0
 74
               0
 49
-3.0
 74
               0
 49
12.0
 74
               0
 49
-3.0
 74
               0
 49
0.0
 74
               0
 49
-3.0
 74
               0
 49
0.0
 74
               0
 49
-3.0
 74
               0
 49
0.0
 74
               0
 49
-3.0
 74
               0
  0
ENDTAB
  0
TABLE
  2
LAYER
  5
2
100
AcDbSymbolTable
 70
              16
  0
LAYER
  5
14
100
AcDbSymbolTableRecord
100
AcDbLayerTableRecord
  2
0
 70
               0
 62
               7
  6
Continuous
  0
LAYER
  5
35
100
AcDbSymbolTableRecord
100
AcDbLayerTableRecord
  2
Layer00001
 70
               0
 62
               7
  6
Continuous
  0
LAYER
  5
36
100
AcDbSymbolTableRecord
100
AcDbLayerTableRecord
  2
Layer00002
 70
               0
 62
               7
  6
Continuous
  0
LAYER
  5
37
100
AcDbSymbolTableRecord
100
AcDbLayerTableRecord
  2
Layer00003
 70
               0
 62
               7
  6
Continuous
  0
LAYER
  5
38
100
AcDbSymbolTableRecord
100
AcDbLayerTableRecord
  2
Layer00004
 70
               0
 62
               7
  6
Continuous
  0
LAYER
  5
39
100
AcDbSymbolTableRecord
100
AcDbLayerTableRecord
  2
Layer00005
 70
               0
 62
               7
  6
Continuous
  0
LAYER
  5
3A
100
AcDbSymbolTableRecord
100
AcDbLayerTableRecord
  2
Layer00006
 70
               0
 62
               7
  6
Continuous
  0
LAYER
  5
3B
100
AcDbSymbolTableRecord
100
AcDbLayerTableRecord
  2
Layer00007
 70
               0
 62
               7
  6
Continuous
  0
LAYER
  5
3C
100
AcDbSymbolTableRecord
100
AcDbLayerTableRecord
  2
Layer00008
 70
               0
 62
               7
  6
Continuous
  0
LAYER
  5
3D
100
AcDbSymbolTableRecord
100
AcDbLayerTableRecord
  2
Layer00009
 70
               0
 62
               7
  6
Continuous
  0
LAYER
  5
3E
100
AcDbSymbolTableRecord
100
AcDbLayerTableRecord
  2
Layer00010
 70
               0
 62
               7
  6
Continuous
  0
LAYER
  5
3F
100
AcDbSymbolTableRecord
100
AcDbLayerTableRecord
  2
Layer00011
 70
               0
 62
               7
  6
Continuous
  0
LAYER
  5
40
100
AcDbSymbolTableRecord
100
AcDbLayerTableRecord
  2
Layer00012
 70
               0
 62
               7
  6
Continuous
  0
LAYER
  5
41
100
AcDbSymbolTableRecord
100
AcDbLayerTableRecord
  2
Layer00013
 70
               0
 62
               7
  6
Continuous
  0
LAYER
  5
42
100
AcDbSymbolTableRecord
100
AcDbLayerTableRecord
  2
Layer00014
 70
               0
 62
               7
  6
Continuous
  0
LAYER
  5
43
100
AcDbSymbolTableRecord
100
AcDbLayerTableRecord
  2
図枠
 70
               0
 62
               7
  6
Continuous
  0
ENDTAB
  0
TABLE
  2
STYLE
  5
3
100
AcDbSymbolTable
 70
               4
  0
STYLE
  5
17
100
AcDbSymbolTableRecord
100
AcDbTextStyleTableRecord
  2
Standard
 70
               0
 40
0.0
 41
1.0
 50
0.0
 71
               0
 42
0.0
  3
txt.shx
  4
bigfont.shx
  0
STYLE
  5
32
100
AcDbSymbolTableRecord
100
AcDbTextStyleTableRecord
  2
STANDARD_T
 70
               4
 40
0.0
 41
1.0
 50
0.0
 71
               0
 42
0.0
  3
txt.shx
  4
bigfont.shx
  0
STYLE
  5
33
100
AcDbSymbolTableRecord
100
AcDbTextStyleTableRecord
  2
FontTableH_0
 70
               0
 40
0.0
 41
1.0
 50
0.0
 71
               0
 42
0.0
  3
MS Gothic.ttf
  4

1001
ACAD
1000
MS Gothic
1071
    32817
  0
STYLE
  5
34
100
AcDbSymbolTableRecord
100
AcDbTextStyleTableRecord
  2
FontTableV_0
 70
               0
 40
0.0
 41
1.0
 50
0.0
 71
               0
 42
0.0
  3
@MS Gothic.ttf
  4

1001
ACAD
1000
@MS Gothic
1071
    32817
  0
ENDTAB
  0
TABLE
  2
VIEW
  5
5
100
AcDbSymbolTable
 70
               0
  0
ENDTAB
  0
TABLE
  2
UCS
  5
6
100
AcDbSymbolTable
 70
               0
  0
ENDTAB
  0
TABLE
  2
APPID
  5
8
100
AcDbSymbolTable
 70
               1
  0
APPID
  5
16
100
AcDbSymbolTableRecord
100
AcDbRegAppTableRecord
  2
ACAD
 70
               0
  0
ENDTAB
  0
TABLE
  2
DIMSTYLE
  5
9
100
AcDbSymbolTable
 70
               1
  0
DIMSTYLE
105
18
100
AcDbSymbolTableRecord
100
AcDbDimStyleTableRecord
  2
Standard
 70
               0
  3

  4

  5

  6

  7

 40
1.0
 41
0.18
 42
0.0625
 43
0.38
 44
0.18
 45
0.0
 46
0.0
 47
0.0
 48
0.0
 71
               0
 72
               0
 73
               1
 74
               1
 75
               0
 76
               0
 77
               0
 78
               0
140
0.18
141
0.09
142
0.0
143
25.399999999999999
144
1.0
145
0.0
146
1.0
147
0.09
170
               0
171
               2
172
               0
173
               0
174
               0
175
               0
176
               0
177
               0
178
               0
270
               2
271
               4
272
               4
273
               2
274
               2
275
               0
280
               0
281
               0
282
               0
283
               1
284
               0
285
               0
286
               0
287
               0
288
               0
340
17
  0
ENDTAB
  0
TABLE
  2
BLOCK_RECORD
  5
1
100
AcDbSymbolTable
 70
               0
  0
BLOCK_RECORD
  5
A
100
AcDbSymbolTableRecord
100
AcDbBlockTableRecord
  2
*MODEL_SPACE
  0
BLOCK_RECORD
  5
B
100
AcDbSymbolTableRecord
100
AcDbBlockTableRecord
  2
*PAPER_SPACE
  0
ENDTAB
  0
ENDSEC
  0
SECTION
  2
BLOCKS
  0
BLOCK
  5
D
100
AcDbEntity
  8
0
100
AcDbBlockBegin
  2
*MODEL_SPACE
 70
               0
 10
0.0
 20
0.0
 30
0.0
  3
*MODEL_SPACE
  1

  0
ENDBLK
  5
E
100
AcDbEntity
  8
0
100
AcDbBlockEnd
  0
BLOCK
  5
F
100
AcDbEntity
 67
               1
  8
0
100
AcDbBlockBegin
  2
*PAPER_SPACE
 70
               0
 10
0.0
 20
0.0
 30
0.0
  3
*PAPER_SPACE
  1

  0
ENDBLK
  5
10
100
AcDbEntity
 67
               1
  8
0
100
AcDbBlockEnd
  0
ENDSEC
  0
SECTION
  2
ENTITIES
  0
LINE
  5
44
100
AcDbEntity
  8
0
  6
Continuous
 62
               4
100
AcDbLine
 10
602.58219178082174
 20
456.5694648743771
 30
0.0
 11
648.58219178082174
 21
456.5694648743771
 31
0.0
  0
LINE
  5
45
100
AcDbEntity
  8
0
  6
Continuous
 62
               4
100
AcDbLine
 10
602.58219178082197
 20
356.56946487437733
 30
0.0
 11
648.58219178082174
 21
356.56946487437733
 31
0.0
  0
LINE
  5
46
100
AcDbEntity
  8
0
  6
Continuous
 62
               4
100
AcDbLine
 10
646.58219178082174
 20
456.5694648743771
 30
0.0
 11
646.58219178082174
 21
356.56946487437733
 31
0.0
  0
LINE
  5
47
100
AcDbEntity
  8
0
  6
Continuous
 62
               4
100
AcDbLine
 10
589.99640534319485
 20
372.71809479391175
 30
0.0
 11
545.50309571600008
 21
449.78276766510669
 31
0.0
  0
LINE
  5
48
100
AcDbEntity
  8
0
  6
Continuous
 62
               4
100
AcDbLine
 10
589.99640534319485
 20
372.71809479391175
 30
0.0
 11
586.13967968507575
 21
377.31436145262558
 31
0.0
  0
LINE
  5
49
100
AcDbEntity
  8
0
  6
Continuous
 62
               4
100
AcDbLine
 10
589.99640534319485
 20
372.71809479391175
 30
0.0
 11
587.94428448324095
 21
378.35625051862723
 31
0.0
  0
LINE
  5
4A
100
AcDbEntity
  8
0
  6
Continuous
 62
               4
100
AcDbLine
 10
635.20233886140716
 20
326.26293134125387
 30
0.0
 11
656.13622918690442
 21
290.00436969741816
 31
0.0
  0
LINE
  5
4B
100
AcDbEntity
  8
0
  6
Continuous
 62
               4
100
AcDbLine
 10
635.20233886140716
 20
326.26293134125387
 30
0.0
 11
639.05906451952649
 21
321.66666468254004
 31
0.0
  0
LINE
  5
4C
100
AcDbEntity
  8
0
  6
Continuous
 62
               4
100
AcDbLine
 10
635.20233886140716
 20
326.26293134125387
 30
0.0
 11
637.25445972136129
 21
320.62477561653839
 31
0.0
  0
LINE
  5
4D
100
AcDbEntity
  8
0
  6
Continuous
 62
               4
100
AcDbLine
 10
615.21565697404037
 20
437.82825938879057
 30
0.0
 11
638.05492057500544
 21
477.38702435312018
 31
0.0
  0
LINE
  5
4E
100
AcDbEntity
  8
0
  6
Continuous
 62
               4
100
AcDbLine
 10
615.21565697404037
 20
437.82825938879057
 30
0.0
 11
617.2677778339945
 21
443.46641511350606
 31
0.0
  0
LINE
  5
4F
100
AcDbEntity
  8
0
  6
Continuous
 62
               4
100
AcDbLine
 10
615.21565697404037
 20
437.82825938879057
 30
0.0
 11
619.0723826321597
 21
442.4245260475044
 31
0.0
  0
LINE
  5
50
100
AcDbEntity
  8
0
  6
Continuous
 62
               4
100
AcDbLine
 10
595.58219178082174
 20
425.89428589548459
 30
0.0
 11
566.47587782115818
 21
476.30790049467294
 31
0.0
  0
LINE
  5
51
100
AcDbEntity
  8
0
  6
Continuous
 62
               4
100
AcDbLine
 10
595.58219178082174
 20
425.89428589548459
 30
0.0
 11
591.72546612270241
 21
430.49055255419842
 31
0.0
  0
LINE
  5
52
100
AcDbEntity
  8
0
  6
Continuous
 62
               4
100
AcDbLine
 10
595.58219178082174
 20
425.89428589548459
 30
0.0
 11
593.53007092086762
 21
431.53244162020007
 31
0.0
  0
LINE
  5
53
100
AcDbEntity
  8
0
  6
Continuous
 62
               4
100
AcDbLine
 10
585.53036212582435
 20
477.67043061897527
 30
0.0
 11
564.60528236022844
 21
513.9137319254188
 31
0.0
  0
LINE
  5
54
100
AcDbEntity
  8
0
  6
Continuous
 62
               4
100
AcDbLine
 10
585.53036212582435
 20
477.67043061897527
 30
0.0
 11
581.67363646770502
 21
482.2666972776891
 31
0.0
  0
LINE
  5
55
100
AcDbEntity
  8
0
  6
Continuous
 62
               4
100
AcDbLine
 10
585.53036212582435
 20
477.67043061897527
 30
0.0
 11
583.47824126587022
 21
483.30858634369054
 31
0.0
  0
LINE
  5
56
100
AcDbEntity
  8
0
  6
Continuous
 62
               4
100
AcDbLine
 10
590.30303933217976
 20
345.80847431223037
 30
0.0
 11
613.42930230063109
 21
385.86433676278659
 31
0.0
  0
LINE
  5
57
100
AcDbEntity
  8
0
  6
Continuous
 62
               4
100
AcDbLine
 10
590.30303933217976
 20
345.80847431223037
 30
0.0
 11
592.35516019213389
 21
351.44663003694586
 31
0.0
  0
LINE
  5
58
100
AcDbEntity
  8
0
  6
Continuous
 62
               4
100
AcDbLine
 10
590.30303933217976
 20
345.80847431223037
 30
0.0
 11
594.1597649902991
 21
350.4047409709442
 31
0.0
  0
LINE
  5
59
100
AcDbEntity
  8
0
  6
Continuous
 62
               4
100
AcDbLine
 10
600.58219178082174
 20
474.74977160141486
 30
0.0
 11
629.35496311565032
 21
524.585673427899
 31
0.0
  0
LINE
  5
5A
100
AcDbEntity
  8
0
  6
Continuous
 62
               4
100
AcDbLine
 10
600.58219178082174
 20
474.74977160141486
 30
0.0
 11
602.63431264077565
 21
480.38792732613035
 31
0.0
  0
LINE
  5
5B
100
AcDbEntity
  8
0
  6
Continuous
 62
               4
100
AcDbLine
 10
600.58219178082174
 20
474.74977160141486
 30
0.0
 11
604.43891743894085
 21
479.34603826012869
 31
0.0
  0
LINE
  5
5C
100
AcDbEntity
  8
0
  6
Continuous
 62
               4
100
AcDbLine
 10
606.08219178082197
 20
463.55818728902261
 30
0.0
 11
629.72945323697024
 21
504.51644559093677
 31
0.0
  0
LINE
  5
5D
100
AcDbEntity
  8
0
  6
Continuous
 62
               4
100
AcDbLine
 10
606.08219178082197
 20
463.55818728902261
 30
0.0
 11
608.13431264077587
 21
469.1963430137381
 31
0.0
  0
LINE
  5
5E
100
AcDbEntity
  8
0
  6
Continuous
 62
               4
100
AcDbLine
 10
606.08219178082197
 20
463.55818728902261
 30
0.0
 11
609.9389174389413
 21
468.15445394773644
 31
0.0
  0
LINE
  5
5F
100
AcDbEntity
  8
0
  6
Continuous
 62
               4
100
AcDbLine
 10
553.58219178082152
 20
340.56946487437733
 30
0.0
 11
553.58219178082152
 21
386.56946487437767
 31
0.0
  0
LINE
  5
60
100
AcDbEntity
  8
0
  6
Continuous
 62
               4
100
AcDbLine
 10
400.68662879385522
 20
340.56946487437733
 30
0.0
 11
400.68662879385522
 21
386.56946487437767
 31
0.0
  0
LINE
  5
61
100
AcDbEntity
  8
0
  6
Continuous
 62
               4
100
AcDbLine
 10
553.58219178082152
 20
384.56946487437767
 30
0.0
 11
400.68662879385522
 21
384.56946487437767
 31
0.0
  0
LINE
  5
62
100
AcDbEntity
  8
0
  6
Continuous
 62
               4
100
AcDbLine
 10
248.9866287938554
 20
340.56946487437733
 30
0.0
 11
248.9866287938554
 21
386.56946487437767
 31
0.0
  0
LINE
  5
63
100
AcDbEntity
  8
0
  6
Continuous
 62
               4
100
AcDbLine
 10
400.68662879385522
 20
384.56946487437767
 30
0.0
 11
248.9866287938554
 21
384.56946487437767
 31
0.0
  0
LINE
  5
64
100
AcDbEntity
  8
0
  6
Continuous
 62
               4
100
AcDbLine
 10
97.286628793855584
 20
340.56946487437733
 30
0.0
 11
97.286628793855584
 21
386.56946487437767
 31
0.0
  0
LINE
  5
65
100
AcDbEntity
  8
0
  6
Continuous
 62
               4
100
AcDbLine
 10
248.9866287938554
 20
384.56946487437767
 30
0.0
 11
97.286628793855584
 21
384.56946487437767
 31
0.0
  0
LINE
  5
66
100
AcDbEntity
  8
0
  6
Continuous
 62
               4
100
AcDbLine
 10
508.58219178082174
 20
358.56946487437722
 30
0.0
 11
508.58219178082174
 21
410.56946487437779
 31
0.0
  0
LINE
  5
67
100
AcDbEntity
  8
0
  6
Continuous
 62
               4
100
AcDbLine
 10
508.58219178082174
 20
408.56946487437779
 30
0.0
 11
598.58219178082174
 21
408.56946487437779
 31
0.0
  0
LINE
  5
68
100
AcDbEntity
  8
0
  6
Continuous
 62
               4
100
AcDbLine
 10
432.53662879385558
 20
278.56946487437779
 30
0.0
 11
422.53662879385558
 21
278.56946487437779
 31
0.0
  0
LINE
  5
69
100
AcDbEntity
  8
0
  6
Continuous
 62
               4
100
AcDbLine
 10
503.58219178082174
 20
354.56946487437722
 30
0.0
 11
422.53662879385558
 21
354.56946487437722
 31
0.0
  0
LINE
  5
6A
100
AcDbEntity
  8
0
  6
Continuous
 62
               4
100
AcDbLine
 10
424.53662879385558
 20
278.56946487437779
 30
0.0
 11
424.53662879385558
 21
354.56946487437722
 31
0.0
  0
LINE
  5
6B
100
AcDbEntity
  8
0
  6
Continuous
 62
               4
100
AcDbLine
 10
593.71760189374561
 20
323.06781895059316
 30
0.0
 11
620.48579603833116
 21
369.43169123588279
 31
0.0
  0
LINE
  5
6C
100
AcDbEntity
  8
0
  6
Continuous
 62
               4
100
AcDbLine
 10
593.71760189374561
 20
323.06781895059316
 30
0.0
 11
595.76972275369974
 21
328.70597467530865
 31
0.0
  0
LINE
  5
6D
100
AcDbEntity
  8
0
  6
Continuous
 62
               4
100
AcDbLine
 10
593.71760189374561
 20
323.06781895059316
 30
0.0
 11
597.57432755186494
 21
327.66408560930699
 31
0.0
  0
LINE
  5
6E
100
AcDbEntity
  8
0
  6
Continuous
 62
               4
100
AcDbLine
 10
618.46767698429414
 20
128.65789890918222
 30
0.0
 11
599.21937263305779
 21
95.318857813291856
 31
0.0
  0
LINE
  5
6F
100
AcDbEntity
  8
0
  6
Continuous
 62
               4
100
AcDbLine
 10
618.46767698429414
 20
128.65789890918222
 30
0.0
 11
614.61095132617504
 21
124.06163225046839
 31
0.0
  0
LINE
  5
70
100
AcDbEntity
  8
0
  6
Continuous
 62
               4
100
AcDbLine
 10
618.46767698429414
 20
128.65789890918222
 30
0.0
 11
616.41555612434024
 21
123.01974318446685
 31
0.0
  0
LINE
  5
71
100
AcDbEntity
  8
0
  6
Continuous
 62
               4
100
AcDbLine
 10
600.58219178082174
 20
306.99338126867872
 30
0.0
 11
622.88396199689885
 21
268.36558215570767
 31
0.0
  0
LINE
  5
72
100
AcDbEntity
  8
0
  6
Continuous
 62
               4
100
AcDbLine
 10
600.58219178082174
 20
306.99338126867872
 30
0.0
 11
604.43891743894108
 21
302.39711460996489
 31
0.0
  0
LINE
  5
73
100
AcDbEntity
  8
0
  6
Continuous
 62
               4
100
AcDbLine
 10
600.58219178082174
 20
306.99338126867872
 30
0.0
 11
602.63431264077587
 21
301.35522554396334
 31
0.0
  0
LINE
  5
74
100
AcDbEntity
  8
0
  6
Continuous
 62
               4
100
AcDbLine
 10
587.12614607556736
 20
307.231168175221
 30
0.0
 11
622.8009826185222
 21
245.44053873111022
 31
0.0
  0
LINE
  5
75
100
AcDbEntity
  8
0
  6
Continuous
 62
               4
100
AcDbLine
 10
587.12614607556736
 20
307.231168175221
 30
0.0
 11
590.98287173368669
 21
302.63490151650717
 31
0.0
  0
LINE
  5
76
100
AcDbEntity
  8
0
  6
Continuous
 62
               4
100
AcDbLine
 10
587.12614607556736
 20
307.231168175221
 30
0.0
 11
589.17826693552149
 21
301.59301245050563
 31
0.0
  0
LINE
  5
77
100
AcDbEntity
  8
0
  6
Continuous
 62
               4
100
AcDbLine
 10
594.9045006044845
 20
230.88165203254573
 30
0.0
 11
618.97766567873043
 21
189.18570702495845
 31
0.0
  0
LINE
  5
78
100
AcDbEntity
  8
0
  6
Continuous
 62
               4
100
AcDbLine
 10
594.9045006044845
 20
230.88165203254573
 30
0.0
 11
598.7612262626036
 21
226.28538537383179
 31
0.0
  0
LINE
  5
79
100
AcDbEntity
  8
0
  6
Continuous
 62
               4
100
AcDbLine
 10
594.9045006044845
 20
230.88165203254573
 30
0.0
 11
596.9566214644384
 21
225.24349630783024
 31
0.0
  0
LINE
  5
7A
100
AcDbEntity
  8
0
  6
Continuous
 62
               4
100
AcDbLine
 10
252.98662879385563
 20
321.56946487437733
 30
0.0
 11
274.98662879385563
 21
321.56946487437733
 31
0.0
  0
LINE
  5
7B
100
AcDbEntity
  8
0
  6
Continuous
 62
               4
100
AcDbLine
 10
320.83662879385554
 20
278.56946487437779
 30
0.0
 11
270.98662879385563
 21
278.56946487437779
 31
0.0
  0
LINE
  5
7C
100
AcDbEntity
  8
0
  6
Continuous
 62
               4
100
AcDbLine
 10
272.98662879385563
 20
321.56946487437733
 30
0.0
 11
272.98662879385563
 21
278.56946487437779
 31
0.0
  0
LINE
  5
7D
100
AcDbEntity
  8
0
  6
Continuous
 62
               4
100
AcDbLine
 10
505.38658920731643
 20
342.63565348489647
 30
0.0
 11
465.86146287472991
 21
411.09518046851474
 31
0.0
  0
LINE
  5
7E
100
AcDbEntity
  8
0
  6
Continuous
 62
               4
100
AcDbLine
 10
505.38658920731643
 20
342.63565348489647
 30
0.0
 11
501.5298635491971
 21
347.2319201436103
 31
0.0
  0
LINE
  5
7F
100
AcDbEntity
  8
0
  6
Continuous
 62
               4
100
AcDbLine
 10
505.38658920731643
 20
342.63565348489647
 30
0.0
 11
503.3344683473623
 21
348.27380920961195
 31
0.0
  0
LINE
  5
80
100
AcDbEntity
  8
0
  6
Continuous
 62
               4
100
AcDbLine
 10
515.38214808061537
 20
348.67663530157188
 30
0.0
 11
468.42955360946041
 21
430.00091447279101
 31
0.0
  0
LINE
  5
81
100
AcDbEntity
  8
0
  6
Continuous
 62
               4
100
AcDbLine
 10
515.38214808061537
 20
348.67663530157188
 30
0.0
 11
511.52542242249626
 21
353.27290196028582
 31
0.0
  0
LINE
  5
82
100
AcDbEntity
  8
0
  6
Continuous
 62
               4
100
AcDbLine
 10
515.38214808061537
 20
348.67663530157188
 30
0.0
 11
513.33002722066146
 21
354.31479102628737
 31
0.0
  0
LINE
  5
83
100
AcDbEntity
  8
0
  6
Continuous
 62
               4
100
AcDbLine
 10
534.08241034602509
 20
356.56946487437733
 30
0.0
 11
480.06169883917653
 21
450.13608186525971
 31
0.0
  0
LINE
  5
84
100
AcDbEntity
  8
0
  6
Continuous
 62
               4
100
AcDbLine
 10
534.08241034602509
 20
356.56946487437733
 30
0.0
 11
530.22568468790575
 21
361.16573153309116
 31
0.0
  0
LINE
  5
85
100
AcDbEntity
  8
0
  6
Continuous
 62
               4
100
AcDbLine
 10
534.08241034602509
 20
356.56946487437733
 30
0.0
 11
532.03028948607118
 21
362.20762059909282
 31
0.0
  0
LINE
  5
86
100
AcDbEntity
  8
0
  6
Continuous
 62
               4
100
AcDbLine
 10
398.63736493971533
 20
326.59535397607135
 30
0.0
 11
378.77046463309557
 21
361.00583469604192
 31
0.0
  0
LINE
  5
87
100
AcDbEntity
  8
0
  6
Continuous
 62
               4
100
AcDbLine
 10
398.63736493971533
 20
326.59535397607135
 30
0.0
 11
394.78063928159611
 21
331.19162063478518
 31
0.0
  0
LINE
  5
88
100
AcDbEntity
  8
0
  6
Continuous
 62
               4
100
AcDbLine
 10
398.63736493971533
 20
326.59535397607135
 30
0.0
 11
396.58524407976131
 21
332.23350970078684
 31
0.0
  0
LINE
  5
89
100
AcDbEntity
  8
0
  6
Continuous
 62
               4
100
AcDbLine
 10
353.27366087197174
 20
288.93229864874252
 30
0.0
 11
276.98481168332864
 21
421.0684614944314
 31
0.0
  0
LINE
  5
8A
100
AcDbEntity
  8
0
  6
Continuous
 62
               4
100
AcDbLine
 10
353.27366087197174
 20
288.93229864874252
 30
0.0
 11
349.41693521385253
 21
293.52856530745635
 31
0.0
  0
LINE
  5
8B
100
AcDbEntity
  8
0
  6
Continuous
 62
               4
100
AcDbLine
 10
353.27366087197174
 20
288.93229864874252
 30
0.0
 11
351.22154001201773
 21
294.57045437345801
 31
0.0
  0
LINE
  5
8C
100
AcDbEntity
  8
0
  6
Continuous
 62
               4
100
AcDbLine
 10
223.82867301339786
 20
328.71091560585432
 30
0.0
 11
202.75896152877817
 21
365.20472639803336
 31
0.0
  0
LINE
  5
8D
100
AcDbEntity
  8
0
  6
Continuous
 62
               4
100
AcDbLine
 10
223.82867301339786
 20
328.71091560585432
 30
0.0
 11
219.97194735527864
 21
333.30718226456816
 31
0.0
  0
LINE
  5
8E
100
AcDbEntity
  8
0
  6
Continuous
 62
               4
100
AcDbLine
 10
223.82867301339786
 20
328.71091560585432
 30
0.0
 11
221.77655215344384
 21
334.34907133056981
 31
0.0
  0
LINE
  5
8F
100
AcDbEntity
  8
0
  6
Continuous
 62
               4
100
AcDbLine
 10
231.58458588049155
 20
277.56946487437801
 30
0.0
 11
184.48710192350893
 21
195.99422975222365
 31
0.0
  0
LINE
  5
90
100
AcDbEntity
  8
0
  6
Continuous
 62
               4
100
AcDbLine
 10
231.58458588049155
 20
277.56946487437801
 30
0.0
 11
229.53246502053753
 21
271.93130914966252
 31
0.0
  0
LINE
  5
91
100
AcDbEntity
  8
0
  6
Continuous
 62
               4
100
AcDbLine
 10
231.58458588049155
 20
277.56946487437801
 30
0.0
 11
227.72786022237233
 21
272.97319821566418
 31
0.0
  0
LINE
  5
92
100
AcDbEntity
  8
0
  6
Continuous
 62
               4
100
AcDbLine
 10
263.75543603763128
 20
270.5694648743779
 30
0.0
 11
209.77361043657334
 21
177.07020024802387
 31
0.0
  0
LINE
  5
93
100
AcDbEntity
  8
0
  6
Continuous
 62
               4
100
AcDbLine
 10
263.75543603763128
 20
270.5694648743779
 30
0.0
 11
261.70331517767727
 21
264.93130914966241
 31
0.0
  0
LINE
  5
94
100
AcDbEntity
  8
0
  6
Continuous
 62
               4
100
AcDbLine
 10
263.75543603763128
 20
270.5694648743779
 30
0.0
 11
259.89871037951207
 21
265.97319821566407
 31
0.0
  0
LINE
  5
95
100
AcDbEntity
  8
0
  6
Continuous
 62
               4
100
AcDbLine
 10
393.90181997019556
 20
230.88165203254562
 30
0.0
 11
369.82865489594963
 21
189.18570702495833
 31
0.0
  0
LINE
  5
96
100
AcDbEntity
  8
0
  6
Continuous
 62
               4
100
AcDbLine
 10
393.90181997019556
 20
230.88165203254562
 30
0.0
 11
390.04509431207646
 21
226.28538537383167
 31
0.0
  0
LINE
  5
97
100
AcDbEntity
  8
0
  6
Continuous
 62
               4
100
AcDbLine
 10
393.90181997019556
 20
230.88165203254562
 30
0.0
 11
391.84969911024166
 21
225.24349630783013
 31
0.0
  0
LINE
  5
98
100
AcDbEntity
  8
0
  6
Continuous
 62
               4
100
AcDbLine
 10
310.41195058949643
 20
141.42844685438774
 30
0.0
 11
283.79056694439657
 21
95.318857813291856
 31
0.0
  0
LINE
  5
99
100
AcDbEntity
  8
0
  6
Continuous
 62
               4
100
AcDbLine
 10
310.41195058949643
 20
141.42844685438774
 30
0.0
 11
306.5552249313771
 21
136.83218019567391
 31
0.0
  0
LINE
  5
9A
100
AcDbEntity
  8
0
  6
Continuous
 62
               4
100
AcDbLine
 10
310.41195058949643
 20
141.42844685438774
 30
0.0
 11
308.3598297295423
 21
135.79029112967226
 31
0.0
  0
LINE
  5
9B
100
AcDbEntity
  8
0
  6
Continuous
 62
               4
100
AcDbLine
 10
460.00281512493405
 20
278.56946487437767
 30
0.0
 11
397.16134254793519
 21
169.72484154856988
 31
0.0
  0
LINE
  5
9C
100
AcDbEntity
  8
0
  6
Continuous
 62
               4
100
AcDbLine
 10
460.00281512493405
 20
278.56946487437767
 30
0.0
 11
457.95069426497992
 21
272.93130914966218
 31
0.0
  0
LINE
  5
9D
100
AcDbEntity
  8
0
  6
Continuous
 62
               4
100
AcDbLine
 10
460.00281512493405
 20
278.56946487437767
 30
0.0
 11
456.14608946681471
 21
273.97319821566384
 31
0.0
  0
LINE
  5
9E
100
AcDbEntity
  8
0
  6
Continuous
 62
               4
100
AcDbLine
 10
556.59415731178854
 20
327.03399080714837
 30
0.0
 11
503.42196214023136
 21
234.93704722004247
 31
0.0
  0
LINE
  5
9F
100
AcDbEntity
  8
0
  6
Continuous
 62
               4
100
AcDbLine
 10
556.59415731178854
 20
327.03399080714837
 30
0.0
 11
554.54203645183463
 21
321.39583508243288
 31
0.0
  0
LINE
  5
A0
100
AcDbEntity
  8
0
  6
Continuous
 62
               4
100
AcDbLine
 10
556.59415731178854
 20
327.03399080714837
 30
0.0
 11
552.7374316536692
 21
322.43772414843454
 31
0.0
  0
LINE
  5
A1
100
AcDbEntity
  8
0
  6
Continuous
 62
               4
100
AcDbLine
 10
583.09904755994262
 20
285.17696973139647
 30
0.0
 11
616.96533241971201
 21
226.51884369067619
 31
0.0
  0
LINE
  5
A2
100
AcDbEntity
  8
0
  6
Continuous
 62
               4
100
AcDbLine
 10
583.09904755994262
 20
285.17696973139647
 30
0.0
 11
586.95577321806195
 21
280.58070307268264
 31
0.0
  0
LINE
  5
A3
100
AcDbEntity
  8
0
  6
Continuous
 62
               4
100
AcDbLine
 10
583.09904755994262
 20
285.17696973139647
 30
0.0
 11
585.15116841989675
 21
279.53881400668098
 31
0.0
  0
LINE
  5
A4
100
AcDbEntity
  8
0
  6
Continuous
 62
               4
100
AcDbLine
 10
2077.5
 20
1892.5
 30
0.0
 11
77.5
 21
1892.5
 31
0.0
  0
LINE
  5
A5
100
AcDbEntity
  8
0
  6
Continuous
 62
               4
100
AcDbLine
 10
2077.5
 20
1892.5
 30
0.0
 11
2077.5
 21
2892.5
 31
0.0
  0
LINE
  5
A6
100
AcDbEntity
  8
0
  6
Continuous
 62
               2
100
AcDbLine
 10
598.58219178082174
 20
456.5694648743771
 30
0.0
 11
598.58219178082174
 21
356.56946487437733
 31
0.0
  0
LINE
  5
A7
100
AcDbEntity
  8
0
  6
Continuous
 62
               2
100
AcDbLine
 10
597.58219178082152
 20
456.5694648743771
 30
0.0
 11
595.84571000415224
 21
446.72138734425505
 31
0.0
  0
LINE
  5
A8
100
AcDbEntity
  8
0
  6
DIVIDE
 62
               4
100
AcDbLine
 10
600.58219178082174
 20
433.29291052048745
 30
0.0
 11
599.58219178082174
 21
421.86285821772697
 31
0.0
  0
LINE
  5
A9
100
AcDbEntity
  8
0
  6
Continuous
 62
               7
100
AcDbLine
 10
598.5267691259661
 20
441.07825938879125
 30
0.0
 11
598.52676912596655
 21
430.57825938879125
 31
0.0
  0
LINE
  5
AA
100
AcDbEntity
  8
0
  6
Continuous
 62
               7
100
AcDbLine
 10
598.02676912596655
 20
430.57825938879148
 30
0.0
 11
598.52676912596655
 21
430.57825938879125
 31
0.0
  0
LINE
  5
AB
100
AcDbEntity
  8
0
  6
Continuous
 62
               7
100
AcDbLine
 10
597.52676912596564
 20
440.5782593887908
 30
0.0
 11
597.5267691259661
 21
431.07825938879103
 31
0.0
  0
LINE
  5
AC
100
AcDbEntity
  8
0
  6
Continuous
 62
               7
100
AcDbLine
 10
598.0267691259661
 20
441.07825938879125
 30
0.0
 11
598.5267691259661
 21
441.07825938879125
 31
0.0
  0
LINE
  5
AD
100
AcDbEntity
  8
0
  6
Continuous
 62
               7
100
AcDbLine
 10
621.5267691259661
 20
433.82825938879148
 30
0.0
 11
598.5267691259661
 21
433.82825938879148
 31
0.0
  0
LINE
  5
AE
100
AcDbEntity
  8
0
  6
Continuous
 62
               7
100
AcDbLine
 10
623.52676912596655
 20
435.82825938879193
 30
0.0
 11
621.52676912596655
 21
433.82825938879216
 31
0.0
  0
LINE
  5
AF
100
AcDbEntity
  8
0
  6
Continuous
 62
               7
100
AcDbLine
 10
621.52676912596746
 20
437.82825938879057
 30
0.0
 11
623.52676912596655
 21
435.82825938879193
 31
0.0
  0
LINE
  5
B0
100
AcDbEntity
  8
0
  6
Continuous
 62
               7
100
AcDbLine
 10
621.52676912596746
 20
437.82825938879057
 30
0.0
 11
598.5267691259661
 21
437.82825938879103
 31
0.0
  0
LINE
  5
B1
100
AcDbEntity
  8
0
  6
Continuous
 62
               6
100
AcDbLine
 10
578.58219178082174
 20
373.1164702581699
 30
0.0
 11
598.58219178082174
 21
361.56946487437733
 31
0.0
  0
LINE
  5
B2
100
AcDbEntity
  8
0
  6
Continuous
 62
               7
100
AcDbLine
 10
598.58219178082174
 20
378.4754541067922
 30
0.0
 11
578.58219178082174
 21
373.11647025816967
 31
0.0
  0
LINE
  5
B3
100
AcDbEntity
  8
0
  6
Continuous
 62
               3
100
AcDbLine
 10
640.58219178082152
 20
310.13128576595147
 30
0.0
 11
610.58219178082174
 21
310.1312857659517
 31
0.0
  0
LINE
  5
B4
100
AcDbEntity
  8
0
  6
Continuous
 62
               3
100
AcDbLine
 10
640.58219178082152
 20
350.1312857659517
 30
0.0
 11
640.58219178082152
 21
310.13128576595147
 31
0.0
  0
LINE
  5
B5
100
AcDbEntity
  8
0
  6
Continuous
 62
               3
100
AcDbLine
 10
640.58219178082152
 20
350.1312857659517
 30
0.0
 11
610.58219178082174
 21
350.1312857659517
 31
0.0
  0
LINE
  5
B6
100
AcDbEntity
  8
0
  6
Continuous
 62
               7
100
AcDbLine
 10
610.58219178082174
 20
350.1312857659517
 30
0.0
 11
640.58219178082152
 21
310.13128576595147
 31
0.0
  0
LINE
  5
B7
100
AcDbEntity
  8
0
  6
Continuous
 62
               7
100
AcDbLine
 10
610.58219178082174
 20
310.1312857659517
 30
0.0
 11
640.58219178082152
 21
350.1312857659517
 31
0.0
  0
LINE
  5
B8
100
AcDbEntity
  8
0
  6
Continuous
 62
               6
100
AcDbLine
 10
595.03682786092111
 20
363.61638168790694
 30
0.0
 11
598.58219178082174
 21
367.16174560780757
 31
0.0
  0
LINE
  5
B9
100
AcDbEntity
  8
0
  6
Continuous
 62
               6
100
AcDbLine
 10
596.82997880525716
 20
362.581105507497
 30
0.0
 11
598.58219178082174
 21
364.33331848306136
 31
0.0
  0
LINE
  5
BA
100
AcDbEntity
  8
0
  6
Continuous
 62
               6
100
AcDbLine
 10
589.65737502791274
 20
366.72221022913743
 30
0.0
 11
598.58219178082174
 21
375.64702698204621
 31
0.0
  0
LINE
  5
BB
100
AcDbEntity
  8
0
  6
Continuous
 62
               6
100
AcDbLine
 10
591.45052597224901
 20
365.68693404872727
 30
0.0
 11
598.58219178082174
 21
372.8185998573
 31
0.0
  0
LINE
  5
BC
100
AcDbEntity
  8
0
  6
Continuous
 62
               6
100
AcDbLine
 10
593.24367691658506
 20
364.6516578683171
 30
0.0
 11
598.58219178082174
 21
369.99017273255379
 31
0.0
  0
LINE
  5
BD
100
AcDbEntity
  8
0
  6
Continuous
 62
               6
100
AcDbLine
 10
587.86422408357669
 20
367.75748640954737
 30
0.0
 11
598.58219178082174
 21
378.47545410679243
 31
0.0
  0
LINE
  5
BE
100
AcDbEntity
  8
0
  6
Continuous
 62
               6
100
AcDbLine
 10
582.80868908892569
 20
374.24895679868848
 30
0.0
 11
591.26168370513335
 21
365.79596218248082
 31
0.0
  0
LINE
  5
BF
100
AcDbEntity
  8
0
  6
Continuous
 62
               6
100
AcDbLine
 10
585.0393992322264
 20
374.84667378013376
 30
0.0
 11
597.95381413503594
 21
361.93225887732444
 31
0.0
  0
LINE
  5
C0
100
AcDbEntity
  8
0
  6
Continuous
 62
               6
100
AcDbLine
 10
586.99108186535238
 20
375.36962556556171
 30
0.0
 11
582.48477125056831
 21
370.86331495077764
 31
0.0
  0
LINE
  5
C1
100
AcDbEntity
  8
0
  6
Continuous
 62
               6
100
AcDbLine
 10
583.12737856019623
 20
374.33434938515177
 30
0.0
 11
580.69162030623227
 21
371.8985911311878
 31
0.0
  0
LINE
  5
C2
100
AcDbEntity
  8
0
  6
Continuous
 62
               6
100
AcDbLine
 10
580.57797894562498
 20
373.65123981724321
 30
0.0
 11
584.56955327523076
 21
369.6596654876372
 31
0.0
  0
LINE
  5
C3
100
AcDbEntity
  8
0
  6
Continuous
 62
               6
100
AcDbLine
 10
579.26367525503986
 20
373.2990732047416
 30
0.0
 11
578.89846936189599
 21
372.93386731159796
 31
0.0
  0
LINE
  5
C4
100
AcDbEntity
  8
0
  6
Continuous
 62
               6
100
AcDbLine
 10
589.50081951882828
 20
376.04210774302453
 30
0.0
 11
598.58219178082174
 21
366.96073548103107
 31
0.0
  0
LINE
  5
C5
100
AcDbEntity
  8
0
  6
Continuous
 62
               6
100
AcDbLine
 10
591.73152966212899
 20
376.63982472447003
 30
0.0
 11
598.58219178082174
 21
369.78916260577728
 31
0.0
  0
LINE
  5
C6
100
AcDbEntity
  8
0
  6
Continuous
 62
               6
100
AcDbLine
 10
594.71848847566514
 20
377.44017792638203
 30
0.0
 11
586.07107313924064
 21
368.79276258995753
 31
0.0
  0
LINE
  5
C7
100
AcDbEntity
  8
0
  6
Continuous
 62
               6
100
AcDbLine
 10
590.85478517050876
 20
376.40490174597187
 30
0.0
 11
584.27792219490436
 21
369.8280387703677
 31
0.0
  0
LINE
  5
C8
100
AcDbEntity
  8
0
  6
Continuous
 62
               6
100
AcDbLine
 10
593.96223980542993
 20
377.23754170591531
 30
0.0
 11
598.58219178082174
 21
372.61758973052349
 31
0.0
  0
LINE
  5
C9
100
AcDbEntity
  8
0
  6
Continuous
 62
               6
100
AcDbLine
 10
596.19294994873064
 20
377.83525868736081
 30
0.0
 11
598.58219178082174
 21
375.4460168552697
 31
0.0
  0
LINE
  5
CA
100
AcDbEntity
  8
0
  6
Continuous
 62
               6
100
AcDbLine
 10
598.58219178082174
 20
364.13230835628508
 30
0.0
 11
587.27010937552734
 21
375.44439076157926
 31
0.0
  0
LINE
  5
CB
100
AcDbEntity
  8
0
  6
DIVIDE
 62
               4
100
AcDbLine
 10
600.58219178082152
 20
536.5694648743771
 30
0.0
 11
600.58219178082174
 21
433.29291052048745
 31
0.0
  0
LINE
  5
CC
100
AcDbEntity
  8
0
  6
Continuous
 62
               7
100
AcDbLine
 10
578.58219178082174
 20
536.5694648743771
 30
0.0
 11
578.58219178082174
 21
373.1164702581699
 31
0.0
  0
LINE
  5
CD
100
AcDbEntity
  8
0
  6
DASHED
 62
               7
100
AcDbLine
 10
595.58219178082174
 20
536.5694648743771
 30
0.0
 11
595.58219178082174
 21
377.67160652949872
 31
0.0
  0
LINE
  5
CE
100
AcDbEntity
  8
0
  6
Continuous
 62
               3
100
AcDbLine
 10
730.58219178082174
 20
90.157994009668982
 30
0.0
 11
730.58219178082174
 21
536.5694648743771
 31
0.0
  0
LINE
  5
CF
100
AcDbEntity
  8
0
  6
Continuous
 62
               3
100
AcDbLine
 10
601.58219178082174
 20
276.56946487437767
 30
0.0
 11
601.58219178082197
 21
536.5694648743771
 31
0.0
  0
LINE
  5
D0
100
AcDbEntity
  8
0
  6
Continuous
 62
               7
100
AcDbLine
 10
606.08219178082174
 20
276.56946487437767
 30
0.0
 11
606.08219178082197
 21
536.5694648743771
 31
0.0
  0
LINE
  5
D1
100
AcDbEntity
  8
0
  6
Continuous
 62
               7
100
AcDbLine
 10
608.08219178082174
 20
276.56946487437767
 30
0.0
 11
608.08219178082174
 21
536.5694648743771
 31
0.0
  0
LINE
  5
D2
100
AcDbEntity
  8
0
  6
Continuous
 62
               7
100
AcDbLine
 10
604.08219178082174
 20
276.56946487437767
 30
0.0
 11
604.08219178082174
 21
536.5694648743771
 31
0.0
  0
LINE
  5
D3
100
AcDbEntity
  8
0
  6
Continuous
 62
               7
100
AcDbLine
 10
610.08219178082174
 20
276.56946487437767
 30
0.0
 11
610.08219178082174
 21
536.5694648743771
 31
0.0
  0
LINE
  5
D4
100
AcDbEntity
  8
0
  6
Continuous
 62
               7
100
AcDbLine
 10
602.08219178082174
 20
276.56946487437767
 30
0.0
 11
602.08219178082152
 21
536.5694648743771
 31
0.0
  0
LINE
  5
D5
100
AcDbEntity
  8
0
  6
DASHED
 62
               6
100
AcDbLine
 10
600.58219178082174
 20
277.56946487437779
 30
0.0
 11
600.58219178082174
 21
421.86285821772697
 31
0.0
  0
LINE
  5
D6
100
AcDbEntity
  8
0
  6
DIVIDE
 62
               4
100
AcDbLine
 10
599.58219178082174
 20
398.47545410679254
 30
0.0
 11
599.58219178082174
 21
421.86285821772697
 31
0.0
  0
LINE
  5
D7
100
AcDbEntity
  8
0
  6
Continuous
 62
               7
100
AcDbLine
 10
525.95477478285272
 20
336.56946487437733
 30
0.0
 11
508.58219178082152
 21
353.94204787640865
 31
0.0
  0
LINE
  5
D8
100
AcDbEntity
  8
0
  6
Continuous
 62
               7
100
AcDbLine
 10
523.12634765810651
 20
336.56946487437733
 30
0.0
 11
508.58219178082174
 21
351.11362075166221
 31
0.0
  0
LINE
  5
D9
100
AcDbEntity
  8
0
  6
Continuous
 62
               7
100
AcDbLine
 10
520.2979205333603
 20
336.56946487437745
 30
0.0
 11
508.58219178082152
 21
348.28519362691611
 31
0.0
  0
LINE
  5
DA
100
AcDbEntity
  8
0
  6
Continuous
 62
               7
100
AcDbLine
 10
517.46949340861408
 20
336.56946487437745
 30
0.0
 11
508.58219178082174
 21
345.4567665021699
 31
0.0
  0
LINE
  5
DB
100
AcDbEntity
  8
0
  6
Continuous
 62
               7
100
AcDbLine
 10
514.64106628386787
 20
336.56946487437722
 30
0.0
 11
508.58219178082174
 21
342.62833937742369
 31
0.0
  0
LINE
  5
DC
100
AcDbEntity
  8
0
  6
Continuous
 62
               7
100
AcDbLine
 10
511.81263915912189
 20
336.56946487437745
 30
0.0
 11
508.58219178082174
 21
339.79991225267759
 31
0.0
  0
LINE
  5
DD
100
AcDbEntity
  8
0
  6
Continuous
 62
               7
100
AcDbLine
 10
508.98421203437567
 20
336.56946487437745
 30
0.0
 11
508.58219178082174
 21
336.97148512793137
 31
0.0
  0
LINE
  5
DE
100
AcDbEntity
  8
0
  6
Continuous
 62
               7
100
AcDbLine
 10
522.09691040658356
 20
354.56946487437733
 30
0.0
 11
540.09691040658333
 21
336.56946487437733
 31
0.0
  0
LINE
  5
DF
100
AcDbEntity
  8
0
  6
Continuous
 62
               7
100
AcDbLine
 10
519.26848328183735
 20
354.56946487437733
 30
0.0
 11
537.26848328183712
 21
336.56946487437733
 31
0.0
  0
LINE
  5
E0
100
AcDbEntity
  8
0
  6
Continuous
 62
               7
100
AcDbLine
 10
516.44005615709113
 20
354.56946487437733
 30
0.0
 11
534.44005615709091
 21
336.56946487437733
 31
0.0
  0
LINE
  5
E1
100
AcDbEntity
  8
0
  6
Continuous
 62
               7
100
AcDbLine
 10
513.61162903234492
 20
354.56946487437733
 30
0.0
 11
531.61162903234469
 21
336.56946487437745
 31
0.0
  0
LINE
  5
E2
100
AcDbEntity
  8
0
  6
Continuous
 62
               7
100
AcDbLine
 10
510.78320190759894
 20
354.56946487437733
 30
0.0
 11
528.78320190759894
 21
336.56946487437733
 31
0.0
  0
LINE
  5
E3
100
AcDbEntity
  8
0
  6
Continuous
 62
               7
100
AcDbLine
 10
527.75376465607576
 20
354.56946487437733
 30
0.0
 11
545.75376465607553
 21
336.56946487437733
 31
0.0
  0
LINE
  5
E4
100
AcDbEntity
  8
0
  6
Continuous
 62
               7
100
AcDbLine
 10
524.92533753132955
 20
354.56946487437733
 30
0.0
 11
542.92533753132955
 21
336.56946487437733
 31
0.0
  0
LINE
  5
E5
100
AcDbEntity
  8
0
  6
Continuous
 62
               7
100
AcDbLine
 10
530.58219178082197
 20
354.56946487437733
 30
0.0
 11
548.58219178082174
 21
336.56946487437733
 31
0.0
  0
LINE
  5
E6
100
AcDbEntity
  8
0
  6
Continuous
 62
               7
100
AcDbLine
 10
533.41061890556796
 20
354.56946487437733
 30
0.0
 11
551.41061890556796
 21
336.56946487437733
 31
0.0
  0
LINE
  5
E7
100
AcDbEntity
  8
0
  6
Continuous
 62
               7
100
AcDbLine
 10
536.23904603031417
 20
354.56946487437733
 30
0.0
 11
554.23904603031394
 21
336.56946487437733
 31
0.0
  0
LINE
  5
E8
100
AcDbEntity
  8
0
  6
Continuous
 62
               7
100
AcDbLine
 10
539.06747315506016
 20
354.56946487437733
 30
0.0
 11
557.06747315506016
 21
336.56946487437733
 31
0.0
  0
LINE
  5
E9
100
AcDbEntity
  8
0
  6
Continuous
 62
               3
100
AcDbLine
 10
508.58219178082152
 20
336.56946487437733
 30
0.0
 11
508.58219178082174
 21
354.56946487437722
 31
0.0
  0
LINE
  5
EA
100
AcDbEntity
  8
0
  6
Continuous
 62
               3
100
AcDbLine
 10
598.58219178082152
 20
336.56946487437619
 30
0.0
 11
598.58219178082174
 21
354.56946487437608
 31
0.0
  0
LINE
  5
EB
100
AcDbEntity
  8
0
  6
Continuous
 62
               3
100
AcDbLine
 10
598.58219178082174
 20
354.56946487437722
 30
0.0
 11
508.58219178082174
 21
354.56946487437722
 31
0.0
  0
LINE
  5
EC
100
AcDbEntity
  8
0
  6
Continuous
 62
               3
100
AcDbLine
 10
598.58219178082152
 20
336.56946487437745
 30
0.0
 11
508.58219178082152
 21
336.56946487437733
 31
0.0
  0
LINE
  5
ED
100
AcDbEntity
  8
0
  6
Continuous
 62
               7
100
AcDbLine
 10
565.55275452929902
 20
336.56946487437745
 30
0.0
 11
547.5527545292988
 21
354.56946487437722
 31
0.0
  0
LINE
  5
EE
100
AcDbEntity
  8
0
  6
Continuous
 62
               7
100
AcDbLine
 10
568.38118165404478
 20
336.56946487437745
 30
0.0
 11
550.38118165404478
 21
354.56946487437722
 31
0.0
  0
LINE
  5
EF
100
AcDbEntity
  8
0
  6
Continuous
 62
               7
100
AcDbLine
 10
571.2096087787919
 20
336.56946487437745
 30
0.0
 11
553.20960877879077
 21
354.56946487437722
 31
0.0
  0
LINE
  5
F0
100
AcDbEntity
  8
0
  6
Continuous
 62
               7
100
AcDbLine
 10
574.03803590353607
 20
336.56946487437745
 30
0.0
 11
556.03803590353698
 21
354.56946487437722
 31
0.0
  0
LINE
  5
F1
100
AcDbEntity
  8
0
  6
Continuous
 62
               7
100
AcDbLine
 10
559.89590027980591
 20
336.56946487437745
 30
0.0
 11
541.89590027980637
 21
354.56946487437722
 31
0.0
  0
LINE
  5
F2
100
AcDbEntity
  8
0
  6
Continuous
 62
               7
100
AcDbLine
 10
562.72432740455213
 20
336.56946487437745
 30
0.0
 11
544.72432740455258
 21
354.56946487437722
 31
0.0
  0
LINE
  5
F3
100
AcDbEntity
  8
0
  6
Continuous
 62
               7
100
AcDbLine
 10
579.69489015302941
 20
336.56946487437745
 30
0.0
 11
561.69489015302918
 21
354.56946487437722
 31
0.0
  0
LINE
  5
F4
100
AcDbEntity
  8
0
  6
Continuous
 62
               7
100
AcDbLine
 10
582.52331727777516
 20
336.56946487437745
 30
0.0
 11
564.52331727777516
 21
354.56946487437722
 31
0.0
  0
LINE
  5
F5
100
AcDbEntity
  8
0
  6
Continuous
 62
               7
100
AcDbLine
 10
585.35174440252229
 20
336.56946487437745
 30
0.0
 11
567.35174440252115
 21
354.56946487437722
 31
0.0
  0
LINE
  5
F6
100
AcDbEntity
  8
0
  6
Continuous
 62
               7
100
AcDbLine
 10
588.18017152726645
 20
336.56946487437745
 30
0.0
 11
570.18017152726736
 21
354.56946487437722
 31
0.0
  0
LINE
  5
F7
100
AcDbEntity
  8
0
  6
Continuous
 62
               7
100
AcDbLine
 10
576.86646302828251
 20
336.56946487437745
 30
0.0
 11
558.86646302828296
 21
354.56946487437722
 31
0.0
  0
LINE
  5
F8
100
AcDbEntity
  8
0
  6
Continuous
 62
               7
100
AcDbLine
 10
593.83702577675979
 20
336.56946487437745
 30
0.0
 11
575.83702577675956
 21
354.56946487437722
 31
0.0
  0
LINE
  5
F9
100
AcDbEntity
  8
0
  6
Continuous
 62
               7
100
AcDbLine
 10
596.66545290150555
 20
336.56946487437745
 30
0.0
 11
578.66545290150555
 21
354.56946487437722
 31
0.0
  0
LINE
  5
FA
100
AcDbEntity
  8
0
  6
Continuous
 62
               7
100
AcDbLine
 10
591.00859865201289
 20
336.56946487437745
 30
0.0
 11
573.00859865201335
 21
354.56946487437722
 31
0.0
  0
LINE
  5
FB
100
AcDbEntity
  8
0
  6
Continuous
 62
               7
100
AcDbLine
 10
598.58219178082152
 20
337.48115311980837
 30
0.0
 11
581.49388002625153
 21
354.56946487437722
 31
0.0
  0
LINE
  5
FC
100
AcDbEntity
  8
0
  6
Continuous
 62
               7
100
AcDbLine
 10
598.58219178082152
 20
340.30958024455276
 30
0.0
 11
584.32230715099774
 21
354.56946487437722
 31
0.0
  0
LINE
  5
FD
100
AcDbEntity
  8
0
  6
Continuous
 62
               7
100
AcDbLine
 10
598.58219178082152
 20
345.96643449404587
 30
0.0
 11
589.97916140048994
 21
354.56946487437722
 31
0.0
  0
LINE
  5
FE
100
AcDbEntity
  8
0
  6
Continuous
 62
               7
100
AcDbLine
 10
598.58219178082174
 20
348.79486161879163
 30
0.0
 11
592.80758852523593
 21
354.56946487437722
 31
0.0
  0
LINE
  5
FF
100
AcDbEntity
  8
0
  6
Continuous
 62
               7
100
AcDbLine
 10
598.58219178082174
 20
351.62328874353784
 30
0.0
 11
595.63601564998191
 21
354.56946487437722
 31
0.0
  0
LINE
  5
100
100
AcDbEntity
  8
0
  6
Continuous
 62
               7
100
AcDbLine
 10
598.58219178082174
 20
354.45171586828349
 30
0.0
 11
598.46444277472813
 21
354.56946487437722
 31
0.0
  0
LINE
  5
101
100
AcDbEntity
  8
0
  6
Continuous
 62
               7
100
AcDbLine
 10
598.58219178082152
 20
343.1380073692992
 30
0.0
 11
587.15073427574373
 21
354.56946487437722
 31
0.0
  0
LINE
  5
102
100
AcDbEntity
  8
0
  6
Continuous
 62
               3
100
AcDbLine
 10
598.58219178082174
 20
336.56946487437745
 30
0.0
 11
598.58219178082174
 21
278.56946487437745
 31
0.0
  0
LINE
  5
103
100
AcDbEntity
  8
0
  6
Continuous
 62
               3
100
AcDbLine
 10
568.58219178082174
 20
278.56946487437745
 30
0.0
 11
568.58219178082174
 21
336.56946487437745
 31
0.0
  0
LINE
  5
104
100
AcDbEntity
  8
0
  6
Continuous
 62
               3
100
AcDbLine
 10
568.58219178082174
 20
278.56946487437745
 30
0.0
 11
598.58219178082174
 21
278.56946487437745
 31
0.0
  0
LINE
  5
105
100
AcDbEntity
  8
0
  6
Continuous
 62
               7
100
AcDbLine
 10
587.94197876582427
 20
354.56946487437779
 30
0.0
 11
577.4419787658245
 21
354.56946487437745
 31
0.0
  0
LINE
  5
106
100
AcDbEntity
  8
0
  6
Continuous
 62
               7
100
AcDbLine
 10
577.44197876582473
 20
355.06946487437733
 30
0.0
 11
577.4419787658245
 21
354.56946487437745
 31
0.0
  0
LINE
  5
107
100
AcDbEntity
  8
0
  6
Continuous
 62
               7
100
AcDbLine
 10
587.44197876582405
 20
355.56946487437813
 30
0.0
 11
577.94197876582405
 21
355.5694648743779
 31
0.0
  0
LINE
  5
108
100
AcDbEntity
  8
0
  6
Continuous
 62
               7
100
AcDbLine
 10
587.94197876582427
 20
355.06946487437779
 30
0.0
 11
587.94197876582427
 21
354.56946487437779
 31
0.0
  0
LINE
  5
109
100
AcDbEntity
  8
0
  6
Continuous
 62
               2
100
AcDbLine
 10
567.58219178082174
 20
333.56946487437756
 30
0.0
 11
567.58219178082174
 21
278.56946487437745
 31
0.0
  0
LINE
  5
10A
100
AcDbEntity
  8
0
  6
Continuous
 62
               2
100
AcDbLine
 10
566.58219178082174
 20
333.56946487437483
 30
0.0
 11
565.71063435334497
 21
323.60751789345682
 31
0.0
  0
LINE
  5
10B
100
AcDbEntity
  8
0
  6
Continuous
 62
               2
100
AcDbLine
 10
565.58219178082174
 20
319.55373868692402
 30
0.0
 11
565.58219178082152
 21
334.55373868692402
 31
0.0
  0
LINE
  5
10C
100
AcDbEntity
  8
0
  6
DASHED
 62
               6
100
AcDbLine
 10
550.90598890606191
 20
336.54465762236089
 30
0.0
 11
565.58219178082152
 21
321.86845474760094
 31
0.0
  0
LINE
  5
10D
100
AcDbEntity
  8
0
  6
DASHED
 62
               6
100
AcDbLine
 10
553.73002941660695
 20
336.54904423656137
 30
0.0
 11
565.58219178082152
 21
324.69688187234715
 31
0.0
  0
LINE
  5
10E
100
AcDbEntity
  8
0
  6
DASHED
 62
               6
100
AcDbLine
 10
556.75437600861903
 20
336.35312476929607
 30
0.0
 11
565.58219178082174
 21
327.52530899709348
 31
0.0
  0
LINE
  5
10F
100
AcDbEntity
  8
0
  6
DASHED
 62
               6
100
AcDbLine
 10
560.03287142070405
 20
335.90305648195704
 30
0.0
 11
565.58219178082174
 21
330.35373612183969
 31
0.0
  0
LINE
  5
110
100
AcDbEntity
  8
0
  6
DASHED
 62
               6
100
AcDbLine
 10
563.65559443373706
 20
335.10876059367013
 30
0.0
 11
565.58219178082174
 21
333.18216324658579
 31
0.0
  0
LINE
  5
111
100
AcDbEntity
  8
0
  6
DASHED
 62
               6
100
AcDbLine
 10
561.08963021776651
 20
320.70416206116374
 30
0.0
 11
545.72866932731051
 21
336.06512295162008
 31
0.0
  0
LINE
  5
112
100
AcDbEntity
  8
0
  6
DASHED
 62
               6
100
AcDbLine
 10
564.8448723881562
 20
319.7773470155206
 30
0.0
 11
548.24703488633679
 21
336.3751845173399
 31
0.0
  0
LINE
  5
113
100
AcDbEntity
  8
0
  6
DASHED
 62
               6
100
AcDbLine
 10
545.58219178082197
 20
322.06946487437779
 30
0.0
 11
546.47880393423009
 21
321.17285272096933
 31
0.0
  0
LINE
  5
114
100
AcDbEntity
  8
0
  6
DASHED
 62
               6
100
AcDbLine
 10
545.58219178082174
 20
324.897891999124
 30
0.0
 11
549.0376764577428
 21
321.44240732220294
 31
0.0
  0
LINE
  5
115
100
AcDbEntity
  8
0
  6
DASHED
 62
               6
100
AcDbLine
 10
545.58219178082174
 20
327.72631912387033
 30
0.0
 11
551.74372205509633
 21
321.56478884959552
 31
0.0
  0
LINE
  5
116
100
AcDbEntity
  8
0
  6
DASHED
 62
               6
100
AcDbLine
 10
545.58219178082152
 20
330.55474624861597
 30
0.0
 11
554.62414519503534
 21
321.51279283440192
 31
0.0
  0
LINE
  5
117
100
AcDbEntity
  8
0
  6
DASHED
 62
               6
100
AcDbLine
 10
545.58219178082152
 20
333.38317337336275
 30
0.0
 11
557.71870459195191
 21
321.24666056223214
 31
0.0
  0
LINE
  5
118
100
AcDbEntity
  8
0
  6
DASHED
 62
               6
100
AcDbLine
 10
545.58219178082174
 20
321.04255211826614
 30
0.0
 11
545.58219178082129
 21
336.04255211826433
 31
0.0
  0
LINE
  5
119
100
AcDbEntity
  8
0
  6
Continuous
 62
               2
100
AcDbLine
 10
506.58219178082152
 20
356.56946487437733
 30
0.0
 11
598.58219178082174
 21
356.56946487437733
 31
0.0
  0
LINE
  5
11A
100
AcDbEntity
  8
0
  6
Continuous
 62
               2
100
AcDbLine
 10
506.58219178082152
 20
336.56946487437733
 30
0.0
 11
506.58219178082152
 21
356.56946487437733
 31
0.0
  0
LINE
  5
11B
100
AcDbEntity
  8
0
  6
Continuous
 62
               7
100
AcDbLine
 10
506.38658920731643
 20
347.88565348489669
 30
0.0
 11
506.38658920731712
 21
337.38565348489681
 31
0.0
  0
LINE
  5
11C
100
AcDbEntity
  8
0
  6
Continuous
 62
               7
100
AcDbLine
 10
505.88658920731712
 20
337.38565348489703
 30
0.0
 11
506.38658920731712
 21
337.38565348489681
 31
0.0
  0
LINE
  5
11D
100
AcDbEntity
  8
0
  6
Continuous
 62
               7
100
AcDbLine
 10
505.38658920731621
 20
347.38565348489635
 30
0.0
 11
505.38658920731666
 21
337.88565348489658
 31
0.0
  0
LINE
  5
11E
100
AcDbEntity
  8
0
  6
Continuous
 62
               7
100
AcDbLine
 10
505.88658920731643
 20
347.88565348489669
 30
0.0
 11
506.38658920731643
 21
347.88565348489669
 31
0.0
  0
LINE
  5
11F
100
AcDbEntity
  8
0
  6
Continuous
 62
               7
100
AcDbLine
 10
536.38658920731893
 20
344.63565348489624
 30
0.0
 11
506.38658920731666
 21
344.63565348489658
 31
0.0
  0
LINE
  5
120
100
AcDbEntity
  8
0
  6
Continuous
 62
               7
100
AcDbLine
 10
538.38658920731689
 20
342.63565348489851
 30
0.0
 11
536.38658920731893
 21
344.63565348489624
 31
0.0
  0
LINE
  5
121
100
AcDbEntity
  8
0
  6
Continuous
 62
               7
100
AcDbLine
 10
536.38658920731552
 20
340.63565348489726
 30
0.0
 11
538.38658920731689
 21
342.63565348489851
 31
0.0
  0
LINE
  5
122
100
AcDbEntity
  8
0
  6
Continuous
 62
               7
100
AcDbLine
 10
536.38658920731552
 20
340.63565348489726
 30
0.0
 11
506.38658920731666
 21
340.63565348489692
 31
0.0
  0
LINE
  5
123
100
AcDbEntity
  8
0
  6
Continuous
 62
               7
100
AcDbLine
 10
507.58219178082129
 20
353.71508820665463
 30
0.0
 11
507.58219178082197
 21
343.21508820665474
 31
0.0
  0
LINE
  5
124
100
AcDbEntity
  8
0
  6
Continuous
 62
               7
100
AcDbLine
 10
507.08219178082197
 20
343.21508820665497
 30
0.0
 11
507.58219178082197
 21
343.21508820665474
 31
0.0
  0
LINE
  5
125
100
AcDbEntity
  8
0
  6
Continuous
 62
               7
100
AcDbLine
 10
506.58219178082106
 20
353.21508820665429
 30
0.0
 11
506.58219178082152
 21
343.71508820665451
 31
0.0
  0
LINE
  5
126
100
AcDbEntity
  8
0
  6
Continuous
 62
               7
100
AcDbLine
 10
507.08219178082129
 20
353.71508820665463
 30
0.0
 11
507.58219178082129
 21
353.71508820665463
 31
0.0
  0
LINE
  5
127
100
AcDbEntity
  8
0
  6
Continuous
 62
               7
100
AcDbLine
 10
530.58219178082038
 20
346.4650882066552
 30
0.0
 11
507.58219178082152
 21
346.46508820665485
 31
0.0
  0
LINE
  5
128
100
AcDbEntity
  8
0
  6
Continuous
 62
               7
100
AcDbLine
 10
532.58219178082174
 20
348.46508820665633
 30
0.0
 11
530.58219178082038
 21
346.4650882066552
 31
0.0
  0
LINE
  5
129
100
AcDbEntity
  8
0
  6
Continuous
 62
               7
100
AcDbLine
 10
530.58219178082379
 20
350.46508820665406
 30
0.0
 11
532.58219178082174
 21
348.46508820665645
 31
0.0
  0
LINE
  5
12A
100
AcDbEntity
  8
0
  6
Continuous
 62
               7
100
AcDbLine
 10
530.58219178082379
 20
350.46508820665417
 30
0.0
 11
507.58219178082152
 21
350.46508820665451
 31
0.0
  0
LINE
  5
12B
100
AcDbEntity
  8
0
  6
Continuous
 62
               2
100
AcDbLine
 10
476.69635083806941
 20
333.95479259194803
 30
0.0
 11
506.58219178082152
 21
336.56946487437745
 31
0.0
  0
LINE
  5
12C
100
AcDbEntity
  8
0
  6
Continuous
 62
               2
100
AcDbLine
 10
476.78350658081706
 20
332.95859789385622
 30
0.0
 11
486.78267441869968
 21
332.82959188682059
 31
0.0
  0
LINE
  5
12D
100
AcDbEntity
  8
0
  6
Continuous
 62
               2
100
AcDbLine
 10
436.53662879385558
 20
278.56946487437767
 30
0.0
 11
567.58219178082174
 21
278.56946487437756
 31
0.0
  0
LINE
  5
12E
100
AcDbEntity
  8
0
  6
Continuous
 62
               2
100
AcDbLine
 10
436.53662879385558
 20
302.2225040134241
 30
0.0
 11
436.53662879385558
 21
278.56946487437767
 31
0.0
  0
LINE
  5
12F
100
AcDbEntity
  8
0
  6
Continuous
 62
               2
100
AcDbLine
 10
507.58219178082174
 20
292.30858876032846
 30
0.0
 11
507.58219178082174
 21
354.56946487437722
 31
0.0
  0
LINE
  5
130
100
AcDbEntity
  8
0
  6
Continuous
 62
               3
100
AcDbLine
 10
66.033238783164052
 20
276.56946487437779
 30
0.0
 11
610.58219178082174
 21
276.56946487437779
 31
0.0
  0
LINE
  5
131
100
AcDbEntity
  8
0
  6
Continuous
 62
               3
100
AcDbLine
 10
66.033238783164052
 20
264.5694648743779
 30
0.0
 11
610.58219178082174
 21
264.56946487437779
 31
0.0
  0
LINE
  5
132
100
AcDbEntity
  8
0
  6
Continuous
 62
               7
100
AcDbLine
 10
66.033238783164052
 20
266.56946487437813
 30
0.0
 11
610.58219178082174
 21
266.56946487437767
 31
0.0
  0
LINE
  5
133
100
AcDbEntity
  8
0
  6
Continuous
 62
               7
100
AcDbLine
 10
66.033238783164052
 20
268.5694648743779
 30
0.0
 11
610.58219178082174
 21
268.56946487437779
 31
0.0
  0
LINE
  5
134
100
AcDbEntity
  8
0
  6
Continuous
 62
               7
100
AcDbLine
 10
66.033238783164052
 20
270.5694648743779
 30
0.0
 11
610.58219178082174
 21
270.56946487437779
 31
0.0
  0
LINE
  5
135
100
AcDbEntity
  8
0
  6
Continuous
 62
               7
100
AcDbLine
 10
66.033238783164052
 20
272.56946487437779
 30
0.0
 11
610.58219178082174
 21
272.5694648743779
 31
0.0
  0
LINE
  5
136
100
AcDbEntity
  8
0
  6
Continuous
 62
               7
100
AcDbLine
 10
66.033238783164052
 20
274.56946487437779
 30
0.0
 11
610.58219178082174
 21
274.56946487437779
 31
0.0
  0
LINE
  5
137
100
AcDbEntity
  8
0
  6
DASHED
 62
               6
100
AcDbLine
 10
66.033238783164052
 20
277.56946487437813
 30
0.0
 11
600.58219178082174
 21
277.56946487437779
 31
0.0
  0
LINE
  5
138
100
AcDbEntity
  8
0
  6
Continuous
 62
               3
100
AcDbLine
 10
610.58219178082174
 20
90.157994009668982
 30
0.0
 11
610.58219178082152
 21
536.5694648743771
 31
0.0
  0
LINE
  5
139
100
AcDbEntity
  8
0
  6
Continuous
 62
               7
100
AcDbLine
 10
102.57412879385549
 20
323.92537211701779
 30
0.0
 11
92.074128793855493
 21
323.92537211701733
 31
0.0
  0
LINE
  5
13A
100
AcDbEntity
  8
0
  6
Continuous
 62
               7
100
AcDbLine
 10
92.074128793855948
 20
324.42537211701756
 30
0.0
 11
92.074128793855493
 21
323.92537211701733
 31
0.0
  0
LINE
  5
13B
100
AcDbEntity
  8
0
  6
Continuous
 62
               7
100
AcDbLine
 10
102.57412879385549
 20
324.42537211701801
 30
0.0
 11
102.57412879385549
 21
323.92537211701779
 31
0.0
  0
LINE
  5
13C
100
AcDbEntity
  8
0
  6
Continuous
 62
               7
100
AcDbLine
 10
101.32412879385572
 20
323.92537211701779
 30
0.0
 11
101.32412879385572
 21
321.56946487437722
 31
0.0
  0
LINE
  5
13D
100
AcDbEntity
  8
0
  6
Continuous
 62
               7
100
AcDbLine
 10
97.324128793858677
 20
253.92537211701779
 30
0.0
 11
95.324128793859131
 21
255.92537211701824
 31
0.0
  0
LINE
  5
13E
100
AcDbEntity
  8
0
  6
Continuous
 62
               7
100
AcDbLine
 10
99.324128793853902
 20
255.92537211701324
 30
0.0
 11
97.324128793858677
 21
253.92537211701779
 31
0.0
  0
LINE
  5
13F
100
AcDbEntity
  8
0
  6
Continuous
 62
               7
100
AcDbLine
 10
95.324128793855948
 20
321.56946487437722
 30
0.0
 11
95.324128793856175
 21
255.9253721170212
 31
0.0
  0
LINE
  5
140
100
AcDbEntity
  8
0
  6
Continuous
 62
               7
100
AcDbLine
 10
99.324128793855266
 20
321.56946487437722
 30
0.0
 11
99.324128793853902
 21
255.92537211701324
 31
0.0
  0
LINE
  5
141
100
AcDbEntity
  8
0
  6
Continuous
 62
               7
100
AcDbLine
 10
93.324128793855493
 20
321.56946487437722
 30
0.0
 11
93.324128793855493
 21
323.92537211701756
 31
0.0
  0
LINE
  5
142
100
AcDbEntity
  8
0
  6
Continuous
 62
               7
100
AcDbLine
 10
101.32412879385572
 20
321.56946487437722
 30
0.0
 11
93.324128793855493
 21
321.56946487437722
 31
0.0
  0
LINE
  5
143
100
AcDbEntity
  8
0
  6
Continuous
 62
               3
100
AcDbLine
 10
119.8241287938589
 20
219.56946487437767
 30
0.0
 11
119.82412879385868
 21
264.56946487437767
 31
0.0
  0
LINE
  5
144
100
AcDbEntity
  8
0
  6
Continuous
 62
               7
100
AcDbLine
 10
74.824128793858677
 20
264.56946487437767
 30
0.0
 11
119.8241287938589
 21
219.56946487437767
 31
0.0
  0
LINE
  5
145
100
AcDbEntity
  8
0
  6
Continuous
 62
               7
100
AcDbLine
 10
119.82412879385868
 20
264.5694648743779
 30
0.0
 11
74.824128793858677
 21
219.5694648743779
 31
0.0
  0
LINE
  5
146
100
AcDbEntity
  8
0
  6
Continuous
 62
               3
100
AcDbLine
 10
74.824128793858449
 20
219.56946487437767
 30
0.0
 11
74.824128793858449
 21
264.56946487437767
 31
0.0
  0
LINE
  5
147
100
AcDbEntity
  8
0
  6
Continuous
 62
               7
100
AcDbLine
 10
405.97412879385513
 20
323.92537211701779
 30
0.0
 11
395.47412879385513
 21
323.92537211701733
 31
0.0
  0
LINE
  5
148
100
AcDbEntity
  8
0
  6
Continuous
 62
               7
100
AcDbLine
 10
395.47412879385558
 20
324.42537211701756
 30
0.0
 11
395.47412879385513
 21
323.92537211701733
 31
0.0
  0
LINE
  5
149
100
AcDbEntity
  8
0
  6
Continuous
 62
               7
100
AcDbLine
 10
405.97412879385513
 20
324.42537211701801
 30
0.0
 11
405.97412879385513
 21
323.92537211701779
 31
0.0
  0
LINE
  5
14A
100
AcDbEntity
  8
0
  6
Continuous
 62
               7
100
AcDbLine
 10
404.72412879385536
 20
323.92537211701779
 30
0.0
 11
404.72412879385536
 21
321.56946487437722
 31
0.0
  0
LINE
  5
14B
100
AcDbEntity
  8
0
  6
Continuous
 62
               7
100
AcDbLine
 10
400.72412879385831
 20
253.92537211701779
 30
0.0
 11
398.72412879385877
 21
255.92537211701824
 31
0.0
  0
LINE
  5
14C
100
AcDbEntity
  8
0
  6
Continuous
 62
               7
100
AcDbLine
 10
402.72412879385354
 20
255.92537211701324
 30
0.0
 11
400.72412879385831
 21
253.92537211701779
 31
0.0
  0
LINE
  5
14D
100
AcDbEntity
  8
0
  6
Continuous
 62
               7
100
AcDbLine
 10
398.72412879385558
 20
321.56946487437722
 30
0.0
 11
398.72412879385581
 21
255.9253721170212
 31
0.0
  0
LINE
  5
14E
100
AcDbEntity
  8
0
  6
Continuous
 62
               7
100
AcDbLine
 10
402.7241287938549
 20
321.56946487437722
 30
0.0
 11
402.72412879385354
 21
255.92537211701324
 31
0.0
  0
LINE
  5
14F
100
AcDbEntity
  8
0
  6
Continuous
 62
               7
100
AcDbLine
 10
396.72412879385513
 20
321.56946487437722
 30
0.0
 11
396.72412879385513
 21
323.92537211701756
 31
0.0
  0
LINE
  5
150
100
AcDbEntity
  8
0
  6
Continuous
 62
               7
100
AcDbLine
 10
404.72412879385536
 20
321.56946487437722
 30
0.0
 11
396.72412879385513
 21
321.56946487437722
 31
0.0
  0
LINE
  5
151
100
AcDbEntity
  8
0
  6
Continuous
 62
               3
100
AcDbLine
 10
423.22412879385854
 20
219.56946487437767
 30
0.0
 11
423.22412879385831
 21
264.56946487437767
 31
0.0
  0
LINE
  5
152
100
AcDbEntity
  8
0
  6
Continuous
 62
               7
100
AcDbLine
 10
378.22412879385831
 20
264.56946487437767
 30
0.0
 11
423.22412879385854
 21
219.56946487437767
 31
0.0
  0
LINE
  5
153
100
AcDbEntity
  8
0
  6
Continuous
 62
               7
100
AcDbLine
 10
423.22412879385831
 20
264.5694648743779
 30
0.0
 11
378.22412879385831
 21
219.5694648743779
 31
0.0
  0
LINE
  5
154
100
AcDbEntity
  8
0
  6
Continuous
 62
               3
100
AcDbLine
 10
378.22412879385809
 20
219.56946487437767
 30
0.0
 11
378.22412879385809
 21
264.56946487437767
 31
0.0
  0
LINE
  5
155
100
AcDbEntity
  8
0
  6
Continuous
 62
               3
100
AcDbLine
 10
66.033238783163938
 20
219.56946487437756
 30
0.0
 11
610.58219178082197
 21
219.56946487437767
 31
0.0
  0
LINE
  5
156
100
AcDbEntity
  8
0
  6
Continuous
 62
               3
100
AcDbLine
 10
66.033238783163938
 20
129.56946487437756
 30
0.0
 11
610.58219178082197
 21
129.56946487437767
 31
0.0
  0
LINE
  5
157
100
AcDbEntity
  8
0
  6
Continuous
 62
               7
100
AcDbLine
 10
565.58219178082174
 20
264.56946487437779
 30
0.0
 11
610.58219178082197
 21
219.56946487437779
 31
0.0
  0
LINE
  5
158
100
AcDbEntity
  8
0
  6
Continuous
 62
               7
100
AcDbLine
 10
610.58219178082174
 20
264.56946487437801
 30
0.0
 11
565.58219178082174
 21
219.56946487437801
 31
0.0
  0
LINE
  5
159
100
AcDbEntity
  8
0
  6
Continuous
 62
               3
100
AcDbLine
 10
565.58219178082152
 20
219.56946487437779
 30
0.0
 11
565.58219178082152
 21
264.56946487437779
 31
0.0
  0
LINE
  5
15A
100
AcDbEntity
  8
0
  6
Continuous
 62
               7
100
AcDbLine
 10
584.69197876582132
 20
231.5694648743704
 30
0.0
 11
584.69197876582405
 21
354.5694648743779
 31
0.0
  0
LINE
  5
15B
100
AcDbEntity
  8
0
  6
Continuous
 62
               7
100
AcDbLine
 10
582.69197876582859
 20
229.56946487437756
 30
0.0
 11
584.69197876582132
 21
231.5694648743704
 31
0.0
  0
LINE
  5
15C
100
AcDbEntity
  8
0
  6
Continuous
 62
               7
100
AcDbLine
 10
580.69197876582518
 20
231.56946487438222
 30
0.0
 11
582.69197876582859
 21
229.56946487437756
 31
0.0
  0
LINE
  5
15D
100
AcDbEntity
  8
0
  6
Continuous
 62
               7
100
AcDbLine
 10
580.69197876582496
 20
231.56946487438256
 30
0.0
 11
580.6919787658245
 21
354.56946487437779
 31
0.0
  0
LINE
  5
15E
100
AcDbEntity
  8
0
  6
Continuous
 62
               7
100
AcDbLine
 10
568.58219178082174
 20
333.94204787640751
 30
0.0
 11
571.2096087787919
 21
336.56946487437745
 31
0.0
  0
LINE
  5
15F
100
AcDbEntity
  8
0
  6
Continuous
 62
               7
100
AcDbLine
 10
568.58219178082174
 20
331.11362075166301
 30
0.0
 11
574.03803590353607
 21
336.56946487437745
 31
0.0
  0
LINE
  5
160
100
AcDbEntity
  8
0
  6
Continuous
 62
               7
100
AcDbLine
 10
568.58219178082174
 20
325.45676650217013
 30
0.0
 11
579.69489015302941
 21
336.56946487437745
 31
0.0
  0
LINE
  5
161
100
AcDbEntity
  8
0
  6
Continuous
 62
               7
100
AcDbLine
 10
568.58219178082174
 20
322.62833937742425
 30
0.0
 11
582.52331727777516
 21
336.56946487437745
 31
0.0
  0
LINE
  5
162
100
AcDbEntity
  8
0
  6
Continuous
 62
               7
100
AcDbLine
 10
568.58219178082174
 20
319.79991225267815
 30
0.0
 11
585.35174440252229
 21
336.56946487437745
 31
0.0
  0
LINE
  5
163
100
AcDbEntity
  8
0
  6
Continuous
 62
               7
100
AcDbLine
 10
568.58219178082174
 20
316.97148512793206
 30
0.0
 11
588.18017152726645
 21
336.56946487437745
 31
0.0
  0
LINE
  5
164
100
AcDbEntity
  8
0
  6
Continuous
 62
               7
100
AcDbLine
 10
568.58219178082174
 20
328.28519362691657
 30
0.0
 11
576.86646302828251
 21
336.56946487437745
 31
0.0
  0
LINE
  5
165
100
AcDbEntity
  8
0
  6
Continuous
 62
               7
100
AcDbLine
 10
568.58219178082174
 20
311.31463087844008
 30
0.0
 11
593.83702577675979
 21
336.56946487437745
 31
0.0
  0
LINE
  5
166
100
AcDbEntity
  8
0
  6
Continuous
 62
               7
100
AcDbLine
 10
568.58219178082174
 20
314.14305800318607
 30
0.0
 11
591.00859865201289
 21
336.56946487437745
 31
0.0
  0
LINE
  5
167
100
AcDbEntity
  8
0
  6
Continuous
 62
               7
100
AcDbLine
 10
568.58219178082174
 20
308.48620375369399
 30
0.0
 11
596.66545290150555
 21
336.56946487437745
 31
0.0
  0
LINE
  5
168
100
AcDbEntity
  8
0
  6
Continuous
 62
               7
100
AcDbLine
 10
568.58219178082174
 20
305.6577766289488
 30
0.0
 11
598.58219178082152
 21
335.65777662894652
 31
0.0
  0
LINE
  5
169
100
AcDbEntity
  8
0
  6
Continuous
 62
               7
100
AcDbLine
 10
568.58219178082174
 20
302.82934950420099
 30
0.0
 11
598.58219178082152
 21
332.82934950420213
 31
0.0
  0
LINE
  5
16A
100
AcDbEntity
  8
0
  6
Continuous
 62
               7
100
AcDbLine
 10
568.58219178082174
 20
297.17249525471004
 30
0.0
 11
598.58219178082152
 21
327.17249525470902
 31
0.0
  0
LINE
  5
16B
100
AcDbEntity
  8
0
  6
Continuous
 62
               7
100
AcDbLine
 10
568.58219178082174
 20
294.34406812996451
 30
0.0
 11
598.58219178082174
 21
324.34406812996326
 31
0.0
  0
LINE
  5
16C
100
AcDbEntity
  8
0
  6
Continuous
 62
               7
100
AcDbLine
 10
568.58219178082174
 20
300.00092237945535
 30
0.0
 11
598.58219178082152
 21
330.00092237945569
 31
0.0
  0
LINE
  5
16D
100
AcDbEntity
  8
0
  6
Continuous
 62
               7
100
AcDbLine
 10
568.58219178082174
 20
291.51564100522171
 30
0.0
 11
598.58219178082174
 21
321.51564100521705
 31
0.0
  0
LINE
  5
16E
100
AcDbEntity
  8
0
  6
Continuous
 62
               7
100
AcDbLine
 10
598.58219178082174
 20
318.68721388047527
 30
0.0
 11
568.58219178082174
 21
288.68721388047561
 31
0.0
  0
LINE
  5
16F
100
AcDbEntity
  8
0
  6
Continuous
 62
               7
100
AcDbLine
 10
568.58219178082174
 20
285.85878675573042
 30
0.0
 11
598.58219178082152
 21
315.85878675572815
 31
0.0
  0
LINE
  5
170
100
AcDbEntity
  8
0
  6
Continuous
 62
               7
100
AcDbLine
 10
568.58219178082174
 20
283.03035963098262
 30
0.0
 11
598.58219178082152
 21
313.03035963098375
 31
0.0
  0
LINE
  5
171
100
AcDbEntity
  8
0
  6
Continuous
 62
               7
100
AcDbLine
 10
568.58219178082174
 20
280.20193250623697
 30
0.0
 11
598.58219178082152
 21
310.20193250623731
 31
0.0
  0
LINE
  5
172
100
AcDbEntity
  8
0
  6
Continuous
 62
               7
100
AcDbLine
 10
583.92028689743427
 20
278.56946487437745
 30
0.0
 11
598.58219178082152
 21
293.23136975776538
 31
0.0
  0
LINE
  5
173
100
AcDbEntity
  8
0
  6
Continuous
 62
               7
100
AcDbLine
 10
589.57714114692646
 20
278.56946487437745
 30
0.0
 11
598.58219178082152
 21
287.57451550827227
 31
0.0
  0
LINE
  5
174
100
AcDbEntity
  8
0
  6
Continuous
 62
               7
100
AcDbLine
 10
592.40556827167245
 20
278.56946487437745
 30
0.0
 11
598.58219178082174
 21
284.74608838352651
 31
0.0
  0
LINE
  5
175
100
AcDbEntity
  8
0
  6
Continuous
 62
               7
100
AcDbLine
 10
586.74871402218025
 20
278.56946487437745
 30
0.0
 11
598.58219178082152
 21
290.40294263301894
 31
0.0
  0
LINE
  5
176
100
AcDbEntity
  8
0
  6
Continuous
 62
               7
100
AcDbLine
 10
595.23399539641821
 20
278.56946487437745
 30
0.0
 11
598.58219178082174
 21
281.9176612587803
 31
0.0
  0
LINE
  5
177
100
AcDbEntity
  8
0
  6
Continuous
 62
               7
100
AcDbLine
 10
572.60657839845328
 20
278.56946487437745
 30
0.0
 11
598.58219178082174
 21
304.54507825674489
 31
0.0
  0
LINE
  5
178
100
AcDbEntity
  8
0
  6
Continuous
 62
               7
100
AcDbLine
 10
575.43500552319676
 20
278.56946487437745
 30
0.0
 11
598.58219178082174
 21
301.71665113199867
 31
0.0
  0
LINE
  5
179
100
AcDbEntity
  8
0
  6
Continuous
 62
               7
100
AcDbLine
 10
578.26343264794207
 20
278.56946487437745
 30
0.0
 11
598.58219178082174
 21
298.88822400725689
 31
0.0
  0
LINE
  5
17A
100
AcDbEntity
  8
0
  6
Continuous
 62
               7
100
AcDbLine
 10
581.09185977268805
 20
278.56946487437745
 30
0.0
 11
598.58219178082152
 21
296.05979688250977
 31
0.0
  0
LINE
  5
17B
100
AcDbEntity
  8
0
  6
Continuous
 62
               7
100
AcDbLine
 10
569.77815127370752
 20
278.56946487437745
 30
0.0
 11
598.58219178082152
 21
307.37350538149065
 31
0.0
  0
LINE
  5
17C
100
AcDbEntity
  8
0
  6
Continuous
 62
               7
100
AcDbLine
 10
567.4723308351796
 20
314.48116817522043
 30
0.0
 11
567.47233083518029
 21
303.98116817522055
 31
0.0
  0
LINE
  5
17D
100
AcDbEntity
  8
0
  6
Continuous
 62
               7
100
AcDbLine
 10
566.97233083518029
 20
303.98116817522077
 30
0.0
 11
567.47233083518029
 21
303.98116817522055
 31
0.0
  0
LINE
  5
17E
100
AcDbEntity
  8
0
  6
Continuous
 62
               7
100
AcDbLine
 10
566.47233083517938
 20
313.98116817522009
 30
0.0
 11
566.47233083517983
 21
304.48116817522032
 31
0.0
  0
LINE
  5
17F
100
AcDbEntity
  8
0
  6
Continuous
 62
               7
100
AcDbLine
 10
566.9723308351796
 20
314.48116817522043
 30
0.0
 11
567.4723308351796
 21
314.48116817522043
 31
0.0
  0
LINE
  5
180
100
AcDbEntity
  8
0
  6
Continuous
 62
               7
100
AcDbLine
 10
590.4723308351787
 20
307.231168175221
 30
0.0
 11
567.47233083517983
 21
307.23116817522066
 31
0.0
  0
LINE
  5
181
100
AcDbEntity
  8
0
  6
Continuous
 62
               7
100
AcDbLine
 10
592.47233083518006
 20
309.23116817522214
 30
0.0
 11
590.4723308351787
 21
307.231168175221
 31
0.0
  0
LINE
  5
182
100
AcDbEntity
  8
0
  6
Continuous
 62
               7
100
AcDbLine
 10
590.47233083518211
 20
311.23116817521986
 30
0.0
 11
592.47233083518006
 21
309.23116817522225
 31
0.0
  0
LINE
  5
183
100
AcDbEntity
  8
0
  6
Continuous
 62
               7
100
AcDbLine
 10
590.47233083518211
 20
311.23116817521998
 30
0.0
 11
567.47233083517983
 21
311.23116817522032
 31
0.0
  0
LINE
  5
184
100
AcDbEntity
  8
0
  6
Continuous
 62
               4
100
AcDbLine
 10
380.0
 20
36.0
 30
0.0
 11
380.0
 21
20.0
 31
0.0
  0
LINE
  5
185
100
AcDbEntity
  8
0
  6
Continuous
 62
               4
100
AcDbLine
 10
380.0
 20
20.0
 30
0.0
 11
460.0
 21
20.0
 31
0.0
  0
LINE
  5
186
100
AcDbEntity
  8
0
  6
Continuous
 62
               4
100
AcDbLine
 10
460.0
 20
20.0
 30
0.0
 11
460.0
 21
36.0
 31
0.0
  0
LINE
  5
187
100
AcDbEntity
  8
0
  6
Continuous
 62
               4
100
AcDbLine
 10
460.0
 20
36.0
 30
0.0
 11
380.0
 21
36.0
 31
0.0
  0
CIRCLE
  5
188
100
AcDbEntity
  8
0
  6
Continuous
 62
               4
100
AcDbCircle
 10
646.58219178082174
 20
456.5694648743771
 30
0.0
 40
1.0
  0
CIRCLE
  5
189
100
AcDbEntity
  8
0
  6
Continuous
 62
               4
100
AcDbCircle
 10
646.58219178082174
 20
356.56946487437733
 30
0.0
 40
1.0
  0
CIRCLE
  5
18A
100
AcDbEntity
  8
0
  6
Continuous
 62
               4
100
AcDbCircle
 10
553.58219178082152
 20
384.56946487437767
 30
0.0
 40
1.0
  0
CIRCLE
  5
18B
100
AcDbEntity
  8
0
  6
Continuous
 62
               4
100
AcDbCircle
 10
400.68662879385522
 20
384.56946487437767
 30
0.0
 40
1.0
  0
CIRCLE
  5
18C
100
AcDbEntity
  8
0
  6
Continuous
 62
               4
100
AcDbCircle
 10
400.68662879385522
 20
384.56946487437767
 30
0.0
 40
1.0
  0
CIRCLE
  5
18D
100
AcDbEntity
  8
0
  6
Continuous
 62
               4
100
AcDbCircle
 10
248.9866287938554
 20
384.56946487437767
 30
0.0
 40
1.0
  0
CIRCLE
  5
18E
100
AcDbEntity
  8
0
  6
Continuous
 62
               4
100
AcDbCircle
 10
248.9866287938554
 20
384.56946487437767
 30
0.0
 40
1.0
  0
CIRCLE
  5
18F
100
AcDbEntity
  8
0
  6
Continuous
 62
               4
100
AcDbCircle
 10
97.286628793855584
 20
384.56946487437767
 30
0.0
 40
1.0
  0
CIRCLE
  5
190
100
AcDbEntity
  8
0
  6
Continuous
 62
               4
100
AcDbCircle
 10
508.58219178082174
 20
408.56946487437779
 30
0.0
 40
1.0
  0
CIRCLE
  5
191
100
AcDbEntity
  8
0
  6
Continuous
 62
               4
100
AcDbCircle
 10
598.58219178082174
 20
408.56946487437779
 30
0.0
 40
1.0
  0
CIRCLE
  5
192
100
AcDbEntity
  8
0
  6
Continuous
 62
               4
100
AcDbCircle
 10
424.53662879385558
 20
278.56946487437779
 30
0.0
 40
1.0
  0
CIRCLE
  5
193
100
AcDbEntity
  8
0
  6
Continuous
 62
               4
100
AcDbCircle
 10
424.53662879385558
 20
354.56946487437722
 30
0.0
 40
1.0
  0
CIRCLE
  5
194
100
AcDbEntity
  8
0
  6
Continuous
 62
               4
100
AcDbCircle
 10
272.98662879385563
 20
321.56946487437733
 30
0.0
 40
1.0
  0
CIRCLE
  5
195
100
AcDbEntity
  8
0
  6
Continuous
 62
               4
100
AcDbCircle
 10
272.98662879385563
 20
278.56946487437779
 30
0.0
 40
1.0
  0
ARC
  5
196
100
AcDbEntity
  8
0
  6
Continuous
 62
               2
100
AcDbCircle
 10
598.08219178082174
 20
456.5694648743771
 30
0.0
 40
0.500000000000057
100
AcDbArc
 50
0.0
 51
180.0
  0
ARC
  5
197
100
AcDbEntity
  8
0
  6
Continuous
 62
               7
100
AcDbCircle
 10
598.02676912596655
 20
431.07825938879125
 30
0.0
 40
0.5
100
AcDbArc
 50
180.00000000000023
 51
270.00000000000023
  0
ARC
  5
198
100
AcDbEntity
  8
0
  6
Continuous
 62
               7
100
AcDbCircle
 10
598.0267691259661
 20
440.57825938879125
 30
0.0
 40
0.5
100
AcDbArc
 50
90.000000000000028
 51
180.00000000000023
  0
ARC
  5
199
100
AcDbEntity
  8
0
  6
Continuous
 62
               7
100
AcDbCircle
 10
577.9419787658245
 20
355.06946487437745
 30
0.0
 40
0.5
100
AcDbArc
 50
90.000000000000071
 51
180.00000000000023
  0
ARC
  5
19A
100
AcDbEntity
  8
0
  6
Continuous
 62
               7
100
AcDbCircle
 10
587.44197876582427
 20
355.06946487437779
 30
0.0
 40
0.5
100
AcDbArc
 50
0.0
 51
90.000000000000071
  0
ARC
  5
19B
100
AcDbEntity
  8
0
  6
Continuous
 62
               2
100
AcDbCircle
 10
567.08219178082174
 20
333.56946487437756
 30
0.0
 40
0.5
100
AcDbArc
 50
0.0
 51
180.0
  0
ARC
  5
19C
100
AcDbEntity
  8
0
  6
Continuous
 62
               2
100
AcDbCircle
 10
248.98662879385563
 20
277.37049685112129
 30
0.0
 40
44.1989680232561
100
AcDbArc
 50
30.901472448533983
 51
149.09852755146596
  0
ARC
  5
19D
100
AcDbEntity
  8
0
  6
Continuous
 62
               2
100
AcDbCircle
 10
400.68662879385545
 20
277.37049685112129
 30
0.0
 40
44.1989680232561
100
AcDbArc
 50
30.901472448533983
 51
149.09852755146596
  0
ARC
  5
19E
100
AcDbEntity
  8
0
  6
Continuous
 62
               2
100
AcDbCircle
 10
324.83662879385554
 20
322.7684328976336
 30
0.0
 40
44.198968023255816
100
AcDbArc
 50
210.90147244853341
 51
329.09852755146659
  0
ARC
  5
19F
100
AcDbEntity
  8
0
  6
Continuous
 62
               2
100
AcDbCircle
 10
476.53662879385536
 20
322.7684328976336
 30
0.0
 40
44.198968023255816
100
AcDbArc
 50
210.90147244853341
 51
329.09852755146659
  0
ARC
  5
1A0
100
AcDbEntity
  8
0
  6
Continuous
 62
               2
100
AcDbCircle
 10
552.38662879385527
 20
277.37049685112129
 30
0.0
 40
44.1989680232561
100
AcDbArc
 50
72.629519293177722
 51
149.09852755146596
  0
ARC
  5
1A1
100
AcDbEntity
  8
0
  6
DASHED
 62
               2
100
AcDbCircle
 10
248.9866287938554
 20
292.37049685112129
 30
0.0
 40
44.1989680232561
100
AcDbArc
 50
30.901472448533983
 51
149.09852755146596
  0
ARC
  5
1A2
100
AcDbEntity
  8
0
  6
DASHED
 62
               2
100
AcDbCircle
 10
324.83662879385531
 20
337.7684328976336
 30
0.0
 40
44.198968023255816
100
AcDbArc
 50
210.90147244853341
 51
329.09852755146659
  0
ARC
  5
1A3
100
AcDbEntity
  8
0
  6
DASHED
 62
               2
100
AcDbCircle
 10
400.68662879385522
 20
292.37049685112129
 30
0.0
 40
44.1989680232561
100
AcDbArc
 50
30.901472448533983
 51
149.09852755146596
  0
ARC
  5
1A4
100
AcDbEntity
  8
0
  6
DASHED
 62
               2
100
AcDbCircle
 10
476.53662879385513
 20
337.7684328976336
 30
0.0
 40
44.198968023255816
100
AcDbArc
 50
210.90147244853341
 51
329.09852755146659
  0
ARC
  5
1A5
100
AcDbEntity
  8
0
  6
DASHED
 62
               2
100
AcDbCircle
 10
552.38662879385504
 20
292.37049685112129
 30
0.0
 40
44.1989680232561
100
AcDbArc
 50
72.629519293177495
 51
149.09852755146596
  0
ARC
  5
1A6
100
AcDbEntity
  8
0
  6
Continuous
 62
               7
100
AcDbCircle
 10
505.88658920731712
 20
337.88565348489681
 30
0.0
 40
0.5
100
AcDbArc
 50
180.00000000000063
 51
270.00000000000063
  0
ARC
  5
1A7
100
AcDbEntity
  8
0
  6
Continuous
 62
               7
100
AcDbCircle
 10
505.88658920731643
 20
347.38565348489669
 30
0.0
 40
0.5
100
AcDbArc
 50
90.000000000000426
 51
180.00000000000063
  0
ARC
  5
1A8
100
AcDbEntity
  8
0
  6
Continuous
 62
               7
100
AcDbCircle
 10
507.08219178082197
 20
343.71508820665474
 30
0.0
 40
0.5
100
AcDbArc
 50
180.00000000000063
 51
270.00000000000063
  0
ARC
  5
1A9
100
AcDbEntity
  8
0
  6
Continuous
 62
               7
100
AcDbCircle
 10
507.08219178082129
 20
353.21508820665463
 30
0.0
 40
0.5
100
AcDbArc
 50
90.000000000000426
 51
180.00000000000063
  0
ARC
  5
1AA
100
AcDbEntity
  8
0
  6
Continuous
 62
               2
100
AcDbCircle
 10
476.73992870944323
 20
333.45669524290213
 30
0.0
 40
0.499999999999991
100
AcDbArc
 50
94.999999999999645
 51
274.9999999999996
  0
ARC
  5
1AB
100
AcDbEntity
  8
0
  6
Continuous
 62
               2
100
AcDbCircle
 10
173.13662879385572
 20
322.7684328976336
 30
0.0
 40
44.198968023255816
100
AcDbArc
 50
210.90147244853341
 51
329.09852755146659
  0
ARC
  5
1AC
100
AcDbEntity
  8
0
  6
DASHED
 62
               2
100
AcDbCircle
 10
173.13662879385549
 20
337.7684328976336
 30
0.0
 40
44.198968023255816
100
AcDbArc
 50
210.90147244853341
 51
329.09852755146659
  0
ARC
  5
1AD
100
AcDbEntity
  8
0
  6
Continuous
 62
               2
100
AcDbCircle
 10
97.286628793855812
 20
277.37049685112129
 30
0.0
 40
44.1989680232561
100
AcDbArc
 50
30.901472448533983
 51
135.0000000000004
  0
ARC
  5
1AE
100
AcDbEntity
  8
0
  6
DASHED
 62
               2
100
AcDbCircle
 10
97.286628793855584
 20
292.37049685112129
 30
0.0
 40
44.1989680232561
100
AcDbArc
 50
30.901472448533983
 51
135.00000000000085
  0
ARC
  5
1AF
100
AcDbEntity
  8
0
  6
Continuous
 62
               7
100
AcDbCircle
 10
97.324128793855721
 20
320.16287211701751
 30
0.0
 40
6.7625000000001956
100
AcDbArc
 50
39.073309876260055
 51
140.92669012374091
  0
ARC
  5
1B0
100
AcDbEntity
  8
0
  6
Continuous
 62
               7
100
AcDbCircle
 10
400.72412879385536
 20
320.16287211701751
 30
0.0
 40
6.7625000000001956
100
AcDbArc
 50
39.073309876260055
 51
140.92669012374091
  0
ARC
  5
1B1
100
AcDbEntity
  8
0
  6
Continuous
 62
               7
100
AcDbCircle
 10
566.97233083518029
 20
304.48116817522055
 30
0.0
 40
0.5
100
AcDbArc
 50
180.00000000000063
 51
270.00000000000063
  0
ARC
  5
1B2
100
AcDbEntity
  8
0
  6
Continuous
 62
               7
100
AcDbCircle
 10
566.9723308351796
 20
313.98116817522043
 30
0.0
 40
0.5
100
AcDbArc
 50
90.000000000000426
 51
180.00000000000063
  0
TEXT
  5
1B3
100
AcDbEntity
  8
0
 62
               7
100
AcDbText
 10
646.58219178082174
 20
400.5694648743771
 30
0.0
 40
8.0
  1
100
 50
90.000000000000028
 41
0.7695
  7
FontTableH_0
 72
               5
 11
646.58219178082174
 21
412.5694648743771
 31
0.0
100
AcDbText
  0
TEXT
  5
1B4
100
AcDbEntity
  8
0
 62
               7
100
AcDbText
 10
503.7864755882041
 20
449.78276766510669
 30
0.0
 40
7.9999999999995461
  1
シーリング
 41
0.7695
  7
FontTableH_0
 72
               5
 11
543.7864755882041
 21
449.78276766510669
 31
0.0
100
AcDbText
  0
TEXT
  5
1B5
100
AcDbEntity
  8
0
 62
               7
100
AcDbText
 10
657.80507858743465
 20
290.00436969741816
 30
0.0
 40
8.0000000000002274
  1
胴縁 30X45
 41
0.7695
  7
FontTableH_0
 72
               5
 11
697.80507858743465
 21
290.00436969741816
 31
0.0
100
AcDbText
  0
TEXT
  5
1B6
100
AcDbEntity
  8
0
 62
               7
100
AcDbText
 10
639.74119921148338
 20
477.38702435312018
 30
0.0
 40
8.0
  1
平頭ステンレスくぎ 25
 41
0.7695
  7
FontTableH_0
 72
               5
 11
723.74119921148338
 21
477.38702435312018
 31
0.0
100
AcDbText
  0
TEXT
  5
1B7
100
AcDbEntity
  8
0
 62
               7
100
AcDbText
 10
548.27489218670701
 20
476.30790049467294
 30
0.0
 40
8.0
  1
ラス
 41
0.7695
  7
FontTableH_0
 72
               5
 11
564.27489218670701
 21
476.30790049467294
 31
0.0
100
AcDbText
  0
TEXT
  5
1B8
100
AcDbEntity
  8
0
 62
               7
100
AcDbText
 10
498.63985603754429
 20
513.9137319254188
 30
0.0
 40
8.0
  1
外壁モルタル塗り
 41
0.7695
  7
FontTableH_0
 72
               5
 11
562.63985603754429
 21
513.9137319254188
 31
0.0
100
AcDbText
  0
TEXT
  5
1B9
100
AcDbEntity
  8
0
 62
               7
100
AcDbText
 10
614.90427768763959
 20
385.86433676278659
 30
0.0
 40
8.0
  1
雨押え板 18X90
 41
0.7695
  7
FontTableH_0
 72
               5
 11
670.90427768763959
 21
385.86433676278659
 31
0.0
100
AcDbText
  0
TEXT
  5
1BA
100
AcDbEntity
  8
0
 62
               7
100
AcDbText
 10
631.36981412776947
 20
524.585673427899
 30
0.0
 40
8.0
  1
壁下地アスファルトルーフィング
 41
0.7695
  7
FontTableH_0
 72
               5
 11
751.36981412776947
 21
524.585673427899
 31
0.0
100
AcDbText
  0
TEXT
  5
1BB
100
AcDbEntity
  8
0
 62
               7
100
AcDbText
 10
631.03944513371391
 20
504.51644559093677
 30
0.0
 40
7.9999999999997717
  1
壁下地合板 9
 41
0.7695
  7
FontTableH_0
 72
               5
 11
679.03944513371391
 21
504.51644559093677
 31
0.0
100
AcDbText
  0
TEXT
  5
1BC
100
AcDbEntity
  8
0
 62
               7
100
AcDbText
 10
467.13441028733826
 20
384.56946487437767
 30
0.0
 40
8.0
  1
151.7
 41
0.7695
  7
FontTableH_0
 72
               5
 11
487.13441028733826
 21
384.56946487437767
 31
0.0
100
AcDbText
  0
TEXT
  5
1BD
100
AcDbEntity
  8
0
 62
               7
100
AcDbText
 10
314.83662879385531
 20
384.56946487437767
 30
0.0
 40
8.0
  1
151.7
 41
0.7695
  7
FontTableH_0
 72
               5
 11
334.83662879385531
 21
384.56946487437767
 31
0.0
100
AcDbText
  0
TEXT
  5
1BE
100
AcDbEntity
  8
0
 62
               7
100
AcDbText
 10
163.13662879385549
 20
384.56946487437767
 30
0.0
 40
8.0
  1
151.7
 41
0.7695
  7
FontTableH_0
 72
               5
 11
183.13662879385549
 21
384.56946487437767
 31
0.0
100
AcDbText
  0
TEXT
  5
1BF
100
AcDbEntity
  8
0
 62
               7
100
AcDbText
 10
549.58219178082174
 20
408.56946487437779
 30
0.0
 40
8.0
  1
90
 41
0.7695
  7
FontTableH_0
 72
               5
 11
557.58219178082174
 21
408.56946487437779
 31
0.0
100
AcDbText
  0
TEXT
  5
1C0
100
AcDbEntity
  8
0
 62
               7
100
AcDbText
 10
424.53662879385558
 20
312.56946487437756
 30
0.0
 40
8.0
  1
76
 50
90.000000000000028
 41
0.7695
  7
FontTableH_0
 72
               5
 11
424.53662879385558
 21
320.56946487437756
 31
0.0
100
AcDbText
  0
TEXT
  5
1C1
100
AcDbEntity
  8
0
 62
               7
100
AcDbText
 10
622.73444713351876
 20
369.43169123588279
 30
0.0
 40
7.9999999999997717
  1
下地桟 30X58
 41
0.7695
  7
FontTableH_0
 72
               5
 11
670.73444713351876
 21
369.43169123588279
 31
0.0
100
AcDbText
  0
TEXT
  5
1C2
100
AcDbEntity
  8
0
 62
               7
100
AcDbText
 10
549.56014273771882
 20
95.318857813291856
 30
0.0
 40
7.9999999999997717
  1
柱または間柱
 41
0.7695
  7
FontTableH_0
 72
               5
 11
597.56014273771882
 21
95.318857813291856
 31
0.0
100
AcDbText
  0
TEXT
  5
1C3
100
AcDbEntity
  8
0
 62
               7
100
AcDbText
 10
623.60068245834202
 20
268.36558215570767
 30
0.0
 40
8.0
  1
アスファルトルーフィング立ち上げ100以上
 41
0.7695
  7
FontTableH_0
 72
               5
 11
779.60068245834202
 21
268.36558215570767
 31
0.0
100
AcDbText
  0
TEXT
  5
1C4
100
AcDbEntity
  8
0
 62
               7
100
AcDbText
 10
623.94657788359689
 20
245.44053873111022
 30
0.0
 40
7.9999999999998863
  1
カラーステンレスくぎ 25
 41
0.7695
  7
FontTableH_0
 72
               5
 11
715.94657788359689
 21
245.44053873111022
 31
0.0
100
AcDbText
  0
TEXT
  5
1C5
100
AcDbEntity
  8
0
 62
               7
100
AcDbText
 10
621.33506181201699
 20
189.18570702495845
 30
0.0
 40
8.0
  1
たる木
 41
0.7695
  7
FontTableH_0
 72
               5
 11
645.33506181201699
 21
189.18570702495845
 31
0.0
100
AcDbText
  0
TEXT
  5
1C6
100
AcDbEntity
  8
0
 62
               7
100
AcDbText
 10
272.98662879385563
 20
296.06946487437756
 30
0.0
 40
8.0
  1
43
 50
90.000000000000028
 41
0.7695
  7
FontTableH_0
 72
               5
 11
272.98662879385563
 21
304.06946487437756
 31
0.0
100
AcDbText
  0
TEXT
  5
1C7
100
AcDbEntity
  8
0
 62
               7
100
AcDbText
 10
371.74633288846201
 20
411.09518046851474
 30
0.0
 40
8.0000000000002274
  1
カラーステンレスくぎ 32
 41
0.7695
  7
FontTableH_0
 72
               5
 11
463.74633288846201
 21
411.09518046851474
 31
0.0
100
AcDbText
  0
TEXT
  5
1C8
100
AcDbEntity
  8
0
 62
               7
100
AcDbText
 10
373.72881577685541
 20
430.0009144727909
 30
0.0
 40
7.9999999999997717
  1
カラーステンレスくぎ 25
 41
0.7695
  7
FontTableH_0
 72
               5
 11
465.72881577685541
 21
430.0009144727909
 31
0.0
100
AcDbText
  0
TEXT
  5
1C9
100
AcDbEntity
  8
0
 62
               7
100
AcDbText
 10
437.6888024235094
 20
450.13608186525971
 30
0.0
 40
8.0
  1
妻用水切り
 41
0.7695
  7
FontTableH_0
 72
               5
 11
477.6888024235094
 21
450.13608186525971
 31
0.0
100
AcDbText
  0
TEXT
  5
1CA
100
AcDbEntity
  8
0
 62
               7
100
AcDbText
 10
325.67423763659167
 20
361.00583469604203
 30
0.0
 40
8.0
  1
タッピング 70
 41
0.7695
  7
FontTableH_0
 72
               5
 11
377.67423763659167
 21
361.00583469604203
 31
0.0
100
AcDbText
  0
TEXT
  5
1CB
100
AcDbEntity
  8
0
 62
               7
100
AcDbText
 10
210.27150409389196
 20
421.06846149442856
 30
0.0
 40
8.0
  1
フィンルーフ本体
 41
0.7695
  7
FontTableH_0
 72
               5
 11
274.27150409389196
 21
421.06846149443129
 31
0.0
100
AcDbText
  0
TEXT
  5
1CC
100
AcDbEntity
  8
0
 62
               7
100
AcDbText
 10
112.24070067346202
 20
365.20472639802927
 30
0.0
 40
8.0
  1
フィンルーフの段を示す
 41
0.7695
  7
FontTableH_0
 72
               5
 11
200.24070067346202
 21
365.20472639803324
 31
0.0
100
AcDbText
  0
TEXT
  5
1CD
100
AcDbEntity
  8
0
 62
               7
100
AcDbText
 10
66.003628579487895
 20
195.99422975222365
 30
0.0
 40
8.0
  1
アスファルトルーフィング 22kg
 41
0.7695
  7
FontTableH_0
 72
               5
 11
182.00362857948789
 21
195.99422975222365
 31
0.0
100
AcDbText
  0
TEXT
  5
1CE
100
AcDbEntity
  8
0
 62
               7
100
AcDbText
 10
172.1187892952837
 20
177.07020024802398
 30
0.0
 40
8.0
  1
野地板 12
 41
0.7695
  7
FontTableH_0
 72
               5
 11
208.1187892952837
 21
177.07020024802398
 31
0.0
100
AcDbText
  0
TEXT
  5
1CF
100
AcDbEntity
  8
0
 62
               7
100
AcDbText
 10
343.47125876266307
 20
189.18570702495833
 30
0.0
 40
8.0000000000002274
  1
たる木
 41
0.7695
  7
FontTableH_0
 72
               5
 11
367.47125876266307
 21
189.18570702495833
 31
0.0
100
AcDbText
  0
TEXT
  5
1D0
100
AcDbEntity
  8
0
 62
               7
100
AcDbText
 10
264.57633415114014
 20
95.318857813291856
 30
0.0
 40
8.0
  1
母屋
 41
0.7695
  7
FontTableH_0
 72
               5
 11
280.57633415114014
 21
95.318857813291856
 31
0.0
100
AcDbText
  0
TEXT
  5
1D1
100
AcDbEntity
  8
0
 62
               7
100
AcDbText
 10
339.46235409336202
 20
169.72484154857
 30
0.0
 40
8.0000000000001137
  1
妻用捨て水切り
 41
0.7695
  7
FontTableH_0
 72
               5
 11
395.46235409336202
 21
169.72484154857
 31
0.0
100
AcDbText
  0
TEXT
  5
1D2
100
AcDbEntity
  8
0
 62
               7
100
AcDbText
 10
454.02987224134574
 20
234.93704722004657
 30
0.0
 40
8.0
  1
ケミカル面戸
 41
0.7695
  7
FontTableH_0
 72
               5
 11
502.02987224134574
 21
234.93704722004657
 31
0.0
100
AcDbText
  0
TEXT
  5
1D3
100
AcDbEntity
  8
0
 62
               7
100
AcDbText
 10
454.02987224134642
 20
242.93704722004657
 30
0.0
 40
8.0
  1
けらば
 41
0.7695
  7
FontTableH_0
 72
               5
 11
478.02987224134642
 21
242.93704722004657
 31
0.0
100
AcDbText
  0
TEXT
  5
1D4
100
AcDbEntity
  8
0
 62
               7
100
AcDbText
 10
619.04824952431636
 20
226.51884369067619
 30
0.0
 40
7.9999999999998863
  1
ステンレススクリューくぎ 125
 41
0.7695
  7
FontTableH_0
 72
               5
 11
731.04824952431636
 21
226.51884369067619
 31
0.0
100
AcDbText
  0
TEXT
  5
1D5
100
AcDbEntity
  8
図枠
 62
               7
100
AcDbText
 10
384.0
 20
24.0
 30
0.0
 40
8.0
  1
流れ方向部分雨押え
 41
0.7695
  7
FontTableH_0
 72
               5
 11
456.0
 21
24.0
 31
0.0
100
AcDbText
  0
ENDSEC
  0
SECTION
  2
OBJECTS
  0
DICTIONARY
  5
19
100
AcDbDictionary
  3
ACAD_GROUP
350
1A
  3
ACAD_MLINESTYLE
350
1B
  3
DWGPROPS
350
1D6
  0
DICTIONARY
  5
1A
102
{ACAD_REACTORS
330
19
102
}
100
AcDbDictionary
  0
DICTIONARY
  5
1B
102
{ACAD_REACTORS
330
19
102
}
100
AcDbDictionary
  3
STANDARD
350
1C
  0
MLINESTYLE
  5
1C
102
{ACAD_REACTORS
330
1B
102
}
100
AcDbMlineStyle
  2
Standard
 70
               0
  3

 62
               0
 51
90.0
 52
90.0
 71
               2
 49
0.5
 62
             256
  6
ByLayer
 49
-0.5
 62
             256
  6
ByLayer
  0
XRECORD
  5
1D6
100
AcDbXrecord
  1
DWGPROPS COOKIE
  2

  3

  4

  6

  7

  0
ENDSEC
  0
EOF
