  0
SECTION
  2
HEADER
  9
$ACADVER
  1
AC1014
  9
$ACADMAINTVER
 70
               0
  9
$DWGCODEPAGE
  3
ANSI_932
  9
$INSBASE
 10
0.0
 20
0.0
 30
0.0
  9
$EXTMIN
 10
0.0
 20
0.0
 30
0.0
  9
$EXTMAX
 10
840.0
 20
594.0
 30
0.0
  9
$LIMMIN
 10
0.0
 20
0.0
  9
$LIMMAX
 10
840.0
 20
594.0
  9
$ORTHOMODE
 70
               0
  9
$REGENMODE
 70
               1
  9
$FILLMODE
 70
               1
  9
$QTEXTMODE
 70
               0
  9
$MIRRTEXT
 70
               1
  9
$DRAGMODE
 70
               2
  9
$LTSCALE
 40
2.0
  9
$OSMODE
 70
               0
  9
$ATTMODE
 70
               1
  9
$TEXTSIZE
 40
0.2
  9
$TRACEWID
 40
0.05
  9
$TEXTSTYLE
  7
Standard
  9
$CLAYER
  8
0
  9
$CELTYPE
  6
Continuous
  9
$CECOLOR
 62
             256
  9
$CELTSCALE
 40
1.0
  9
$DELOBJ
 70
               1
  9
$DISPSILH
 70
               0
  9
$DIMSCALE
 40
1.0
  9
$DIMASZ
 40
0.18
  9
$DIMEXO
 40
0.0625
  9
$DIMDLI
 40
0.38
  9
$DIMRND
 40
0.0
  9
$DIMDLE
 40
0.0
  9
$DIMEXE
 40
0.18
  9
$DIMTP
 40
0.0
  9
$DIMTM
 40
0.0
  9
$DIMTXT
 40
0.18
  9
$DIMCEN
 40
0.09
  9
$DIMTSZ
 40
0.0
  9
$DIMTOL
 70
               0
  9
$DIMLIM
 70
               0
  9
$DIMTIH
 70
               1
  9
$DIMTOH
 70
               1
  9
$DIMSE1
 70
               0
  9
$DIMSE2
 70
               0
  9
$DIMTAD
 70
               0
  9
$DIMZIN
 70
               0
  9
$DIMBLK
  1

  9
$DIMASO
 70
               1
  9
$DIMSHO
 70
               1
  9
$DIMPOST
  1

  9
$DIMAPOST
  1

  9
$DIMALT
 70
               0
  9
$DIMALTD
 70
               2
  9
$DIMALTF
 40
25.399999999999999
  9
$DIMLFAC
 40
1.0
  9
$DIMTOFL
 70
               0
  9
$DIMTVP
 40
0.0
  9
$DIMTIX
 70
               0
  9
$DIMSOXD
 70
               0
  9
$DIMSAH
 70
               0
  9
$DIMBLK1
  1

  9
$DIMBLK2
  1

  9
$DIMSTYLE
  2
Standard
  9
$DIMCLRD
 70
               0
  9
$DIMCLRE
 70
               0
  9
$DIMCLRT
 70
               0
  9
$DIMTFAC
 40
1.0
  9
$DIMGAP
 40
0.09
  9
$DIMJUST
 70
               0
  9
$DIMSD1
 70
               0
  9
$DIMSD2
 70
               0
  9
$DIMTOLJ
 70
               1
  9
$DIMTZIN
 70
               0
  9
$DIMALTZ
 70
               0
  9
$DIMALTTZ
 70
               0
  9
$DIMFIT
 70
               3
  9
$DIMUPT
 70
               0
  9
$DIMUNIT
 70
               2
  9
$DIMDEC
 70
               4
  9
$DIMTDEC
 70
               4
  9
$DIMALTU
 70
               2
  9
$DIMALTTD
 70
               2
  9
$DIMTXSTY
  7
Standard
  9
$DIMAUNIT
 70
               0
  9
$LUNITS
 70
               2
  9
$LUPREC
 70
               4
  9
$SKETCHINC
 40
0.1
  9
$FILLETRAD
 40
0.0
  9
$AUNITS
 70
               0
  9
$AUPREC
 70
               0
  9
$MENU
  1
acad
  9
$ELEVATION
 40
0.0
  9
$PELEVATION
 40
0.0
  9
$THICKNESS
 40
0.0
  9
$LIMCHECK
 70
               0
  9
$BLIPMODE
 70
               1
  9
$CHAMFERA
 40
0.0
  9
$CHAMFERB
 40
0.0
  9
$CHAMFERC
 40
0.0
  9
$CHAMFERD
 40
0.0
  9
$SKPOLY
 70
               0
  9
$TDCREATE
 40
0.000000000
  9
$TDUPDATE
 40
0.000000000
  9
$TDINDWG
 40
0.0000000000
  9
$TDUSRTIMER
 40
0.0000000000
  9
$USRTIMER
 70
               1
  9
$ANGBASE
 50
0.0
  9
$ANGDIR
 70
               0
  9
$PDMODE
 70
               0
  9
$PDSIZE
 40
0.0
  9
$PLINEWID
 40
0.0
  9
$COORDS
 70
               0
  9
$SPLFRAME
 70
               0
  9
$SPLINETYPE
 70
               6
  9
$SPLINESEGS
 70
               8
  9
$ATTDIA
 70
               0
  9
$ATTREQ
 70
               1
  9
$HANDLING
 70
               1
  9
$HANDSEED
  5
179
  9
$SURFTAB1
 70
               6
  9
$SURFTAB2
 70
               6
  9
$SURFTYPE
 70
               6
  9
$SURFU
 70
               6
  9
$SURFV
 70
               6
  9
$UCSNAME
  2

  9
$UCSORG
 10
0.0
 20
0.0
 30
0.0
  9
$UCSXDIR
 10
1.0
 20
0.0
 30
0.0
  9
$UCSYDIR
 10
0.0
 20
1.0
 30
0.0
  9
$PUCSNAME
  2

  9
$PUCSORG
 10
0.0
 20
0.0
 30
0.0
  9
$PUCSXDIR
 10
1.0
 20
0.0
 30
0.0
  9
$PUCSYDIR
 10
0.0
 20
1.0
 30
0.0
  9
$USERI1
 70
               0
  9
$USERI2
 70
               0
  9
$USERI3
 70
               0
  9
$USERI4
 70
               0
  9
$USERI5
 70
               0
  9
$USERR1
 40
0.0
  9
$USERR2
 40
0.0
  9
$USERR3
 40
0.0
  9
$USERR4
 40
0.0
  9
$USERR5
 40
0.0
  9
$WORLDVIEW
 70
               1
  9
$SHADEDGE
 70
               3
  9
$SHADEDIF
 70
              70
  9
$TILEMODE
 70
               1
  9
$MAXACTVP
 70
              16
  9
$PINSBASE
 10
0.0
 20
0.0
 30
0.0
  9
$PLIMCHECK
 70
               0
  9
$PEXTMIN
 10
1.0000000000000000E+20
 20
1.0000000000000000E+20
 30
1.0000000000000000E+20
  9
$PEXTMAX
 10
-1.0000000000000000E+20
 20
-1.0000000000000000E+20
 30
-1.0000000000000000E+20
  9
$PLIMMIN
 10
0.0
 20
0.0
  9
$PLIMMAX
 10
12.0
 20
9.0
  9
$UNITMODE
 70
               0
  9
$VISRETAIN
 70
               0
  9
$PLINEGEN
 70
               1
  9
$PSLTSCALE
 70
               0
  9
$TREEDEPTH
 70
            3020
  9
$PICKSTYLE
 70
               1
  9
$CMLSTYLE
  2
Standard
  9
$CMLJUST
 70
               0
  9
$CMLSCALE
 40
1.0
  9
$PROXYGRAPHICS
 70
               0
  9
$MEASUREMENT
 70
               0
  0
ENDSEC
  0
SECTION
  2
CLASSES
  0
CLASS
  1
LWPOLYLINE
  2
AcDbPolyline
  3
"AutoCAD"
 90
        0
280
               0
281
               1
  0
CLASS
  1
IMAGE
  2
AcDbRasterImage
  3
ISM
 90
      127
280
               0
281
               1
  0
CLASS
  1
OLE2FRAME
  2
AcDbOle2Frame
  3
""
 90
        0
280
               0
281
               1
  0
CLASS
  1
HATCH
  2
AcDbHatch
  3
"ACAD_SEDONA"
 90
        0
280
               0
281
               1
  0
CLASS
  1
DICTIONARYVAR
  2
AcDbDictionaryVar
  3
"AutoCAD"
 90
        0
280
               0
281
               0
  0
CLASS
  1
RASTERVARIABLES
  2
AcDbRasterVariables
  3
ISM
 90
        0
280
               0
281
               0
  0
CLASS
  1
IMAGEDEF
  2
AcDbRasterImageDef
  3
ISM
 90
        0
280
               0
281
               0
  0
CLASS
  1
IMAGEDEF_REACTOR
  2
AcDbRasterImageDefReactor
  3
ISM
 90
        1
280
               0
281
               0
  0
CLASS
  1
IDBUFFER
  2
AcDbIdBuffer
  3
"Acad"
 90
        0
280
               0
281
               0
  0
CLASS
  1
SPATIAL_FILTER
  2
AcDbSpatialFilter
  3
"Acad"
 90
        0
280
               0
281
               0
  0
CLASS
  1
XRECORD
  2
AcDbXrecord
  3
"<Built In>"
 90
        0
280
               0
281
               0
  0
CLASS
  1
SORTENTSTABLE
  2
AcDbSortentsTable
  3
"AutoCAD"
 90
        0
280
               0
281
               0
  0
CLASS
  1
LAYER_INDEX
  2
AcDbLayerIndex
  3
"Acad"
 90
        0
280
               0
281
               0
  0
CLASS
  1
SPATIAL_INDEX
  2
AcDbSpatialIndex
  3
"Acad"
 90
        0
280
               0
281
               0
  0
CLASS
  1
OBJECT_PTR
  2
CAseDLPNTableRecord
  3
"ASE-LPNTableRecord"
 90
        1
280
               0
281
               0
  0
CLASS
  1
LAYOUT
  2
AcDbLayout
  3
"AutoCAD 2000"
 90
        0
280
               0
281
               0
  0
CLASS
  1
PLOTSETTINGS
  2
AcDbPlotSettings
  3
"AutoCAD 2000"
 90
        0
280
               0
281
               0
  0
CLASS
  1
ACDBDICTIONARYWDFLT
  2
AcDbDictionaryWithDefault
  3
"AutoCAD 2000"
 90
        0
280
               0
281
               0
  0
CLASS
  1
ACDBPLACEHOLDER
  2
AcDbPlaceHolder
  3
"AutoCAD 2000"
 90
        0
280
               0
281
               0
  0
CLASS
  1
VBA_PROJECT
  2
AcDbVbaProject
  3
"acadvba"
 90
        0
280
               0
281
               0
  0
CLASS
  1
WIPEOUT
  2
AcDbWipeout
  3
WipeOut|AutoCAD Express Tool|expresstools@autodesk.com
 90
      127
280
               0
281
               1
  0
CLASS
  1
WIPEOUTVARIABLES
  2
AcDbWipeoutVariables
  3
WipeOut|AutoCAD Express Tool|expresstools@autodesk.com
 90
        0
280
               0
281
               0
  0
CLASS
  1
RTEXT
  2
RText
  3
RText|AutoCAD Express Tool|expresstools@autodesk.com
 90
        0
280
               0
281
               1
  0
CLASS
  1
ARCALIGNEDTEXT
  2
AcDbArcAlignedText
  3
ATEXT|AutoCAD Express Tool|expresstools@autodesk.com
 90
        0
280
               0
281
               1
  0
ENDSEC
  0
SECTION
  2
TABLES
  0
TABLE
  2
VPORT
  5
7
100
AcDbSymbolTable
 70
               1
  0
VPORT
  5
15
100
AcDbSymbolTableRecord
100
AcDbViewportTableRecord
  2
*ACTIVE
 70
               0
 10
0.0
 20
0.0
 11
1.0
 21
1.0
 12
420.0
 22
297.0
 13
0.0
 23
0.0
 14
10.0
 24
10.0
 15
10.0
 25
10.0
 16
0.0
 26
0.0
 36
1.0
 17
0.0
 27
0.0
 37
0.0
 40
594.0
 41
1.4141414141414141
 42
50.0
 43
0.0
 44
0.0
 50
0.0
 51
0.0
 71
               0
 72
             100
 73
               1
 74
               1
 75
               0
 76
               0
 77
               0
 78
               0
  0
ENDTAB
  0
TABLE
  2
LTYPE
  5
4
100
AcDbSymbolTable
 70
              24
  0
LTYPE
  5
11
100
AcDbSymbolTableRecord
100
AcDbLinetypeTableRecord
  2
ByBlock
 70
              64
  3

 72
              65
 73
               0
 40
0.0
  0
LTYPE
  5
12
100
AcDbSymbolTableRecord
100
AcDbLinetypeTableRecord
  2
ByLayer
 70
              64
  3

 72
              65
 73
               0
 40
0.0
  0
LTYPE
  5
13
100
AcDbSymbolTableRecord
100
AcDbLinetypeTableRecord
  2
Continuous
 70
              64
  3
Solid line
 72
              65
 73
               0
 40
0.0
  0
LTYPE
  5
1D
100
AcDbSymbolTableRecord
100
AcDbLinetypeTableRecord
  2
DOT
 70
              64
  3
Dot . . . . . . . . . . . . . . . . . . . . . .
 72
              65
 73
               2
 40
6.3499999999999996
 49
0.35
 74
               0
 49
-6.0
 74
               0
  0
LTYPE
  5
1E
100
AcDbSymbolTableRecord
100
AcDbLinetypeTableRecord
  2
DASHED
 70
              64
  3
Dashed __ __ __ __ __ __ __ __ __ __ __ __ __ _
 72
              65
 73
               2
 40
12.699999999999999
 49
6.3499999999999996
 74
               0
 49
-6.3499999999999996
 74
               0
  0
LTYPE
  5
1F
100
AcDbSymbolTableRecord
100
AcDbLinetypeTableRecord
  2
DASHDOT
 70
              64
  3
Dash dot __ . __ . __ . __ . __ . __ . __ . __
 72
              65
 73
               4
 40
25.399999999999999
 49
12.699999999999999
 74
               0
 49
-6.0
 74
               0
 49
0.7
 74
               0
 49
-6.0
 74
               0
  0
LTYPE
  5
20
100
AcDbSymbolTableRecord
100
AcDbLinetypeTableRecord
  2
DIVIDE
 70
              64
  3
Divide ____ . . ____ . . ____ . . ____ . . ____
 72
              65
 73
               6
 40
31.75
 49
12.699999999999999
 74
               0
 49
-6.0
 74
               0
 49
0.875
 74
               0
 49
-6.0
 74
               0
 49
0.875
 74
               0
 49
-6.0
 74
               0
  0
LTYPE
  5
21
100
AcDbSymbolTableRecord
100
AcDbLinetypeTableRecord
  2
HIDDEN
 70
              64
  3
Hidden __ __ __ __ __ __ __ __ __ __ __ __ __ _
 72
              65
 73
               2
 40
9.5250000000000004
 49
6.3499999999999996
 74
               0
 49
-3.1749999999999998
 74
               0
  0
LTYPE
  5
22
100
AcDbSymbolTableRecord
100
AcDbLinetypeTableRecord
  2
CENTER
 70
              64
  3
Center ____ _ ____ _ ____ _ ____ _ ____ _ ____
 72
              65
 73
               4
 40
50.799999999999997
 49
31.75
 74
               0
 49
-6.3499999999999996
 74
               0
 49
6.3499999999999996
 74
               0
 49
-6.3499999999999996
 74
               0
  0
LTYPE
  5
23
100
AcDbSymbolTableRecord
100
AcDbLinetypeTableRecord
  2
PHANTOM
 70
              64
  3
Phantom ______  __  __  ______  __  __  ______
 72
              65
 73
               6
 40
63.5
 49
31.75
 74
               0
 49
-6.3499999999999996
 74
               0
 49
6.3499999999999996
 74
               0
 49
-6.3499999999999996
 74
               0
 49
6.3499999999999996
 74
               0
 49
-6.3499999999999996
 74
               0
  0
LTYPE
  5
24
100
AcDbSymbolTableRecord
100
AcDbLinetypeTableRecord
  2
ACAD_ISO02W100
 70
              64
  3
ISO dash __ __ __ __ __ __ __ __ __ __ __ __ __
 72
              65
 73
               2
 40
15.0
 49
12.0
 74
               0
 49
-3.0
 74
               0
  0
LTYPE
  5
25
100
AcDbSymbolTableRecord
100
AcDbLinetypeTableRecord
  2
ACAD_ISO03W100
 70
              64
  3
ISO dash space __ __ __ __ __ __ __ __ __ __ __ __ __ __
 72
              65
 73
               2
 40
30.0
 49
12.0
 74
               0
 49
-18.0
 74
               0
  0
LTYPE
  5
26
100
AcDbSymbolTableRecord
100
AcDbLinetypeTableRecord
  2
ACAD_ISO04W100
 70
              64
  3
ISO long-dash dot ____ . ____ . ____ . ____ . _
 72
              65
 73
               4
 40
30.0
 49
24.0
 74
               0
 49
-3.0
 74
               0
 49
0.0
 74
               0
 49
-3.0
 74
               0
  0
LTYPE
  5
27
100
AcDbSymbolTableRecord
100
AcDbLinetypeTableRecord
  2
ACAD_ISO05W100
 70
              64
  3
ISO long-dash double-dot ____ .. ____ .. ____ .
 72
              65
 73
               6
 40
33.0
 49
24.0
 74
               0
 49
-3.0
 74
               0
 49
0.0
 74
               0
 49
-3.0
 74
               0
 49
0.0
 74
               0
 49
-3.0
 74
               0
  0
LTYPE
  5
28
100
AcDbSymbolTableRecord
100
AcDbLinetypeTableRecord
  2
ACAD_ISO06W100
 70
              64
  3
ISO long-dash triple-dot ____ ... ____ ... ____
 72
              65
 73
               8
 40
36.0
 49
24.0
 74
               0
 49
-3.0
 74
               0
 49
0.0
 74
               0
 49
-3.0
 74
               0
 49
0.0
 74
               0
 49
-3.0
 74
               0
 49
0.0
 74
               0
 49
-3.0
 74
               0
  0
LTYPE
  5
29
100
AcDbSymbolTableRecord
100
AcDbLinetypeTableRecord
  2
ACAD_ISO07W100
 70
              64
  3
ISO dot . . . . . . . . . . . . . . . . . . . .
 72
              65
 73
               2
 40
3.0
 49
0.0
 74
               0
 49
-3.0
 74
               0
  0
LTYPE
  5
2A
100
AcDbSymbolTableRecord
100
AcDbLinetypeTableRecord
  2
ACAD_ISO08W100
 70
              64
  3
ISO long-dash short-dash ____ __ ____ __ ____ _
 72
              65
 73
               4
 40
36.0
 49
24.0
 74
               0
 49
-3.0
 74
               0
 49
6.0
 74
               0
 49
-3.0
 74
               0
  0
LTYPE
  5
2B
100
AcDbSymbolTableRecord
100
AcDbLinetypeTableRecord
  2
ACAD_ISO09W100
 70
              64
  3
ISO long-dash double-short-dash ____ __ __ ____
 72
              65
 73
               6
 40
45.0
 49
24.0
 74
               0
 49
-3.0
 74
               0
 49
6.0
 74
               0
 49
-3.0
 74
               0
 49
6.0
 74
               0
 49
-3.0
 74
               0
  0
LTYPE
  5
2C
100
AcDbSymbolTableRecord
100
AcDbLinetypeTableRecord
  2
ACAD_ISO10W100
 70
              64
  3
ISO dash dot __ . __ . __ . __ . __ . __ . __ .
 72
              65
 73
               4
 40
18.0
 49
12.0
 74
               0
 49
-3.0
 74
               0
 49
0.0
 74
               0
 49
-3.0
 74
               0
  0
LTYPE
  5
2D
100
AcDbSymbolTableRecord
100
AcDbLinetypeTableRecord
  2
ACAD_ISO11W100
 70
              64
  3
ISO double-dash dot __ __ . __ __ . __ __ . __ 
 72
              65
 73
               6
 40
33.0
 49
12.0
 74
               0
 49
-3.0
 74
               0
 49
12.0
 74
               0
 49
-3.0
 74
               0
 49
0.0
 74
               0
 49
-3.0
 74
               0
  0
LTYPE
  5
2E
100
AcDbSymbolTableRecord
100
AcDbLinetypeTableRecord
  2
ACAD_ISO12W100
 70
              64
  3
ISO dash double-dot __ . . __ . . __ . . __ . .
 72
              65
 73
               6
 40
21.0
 49
12.0
 74
               0
 49
-3.0
 74
               0
 49
0.0
 74
               0
 49
-3.0
 74
               0
 49
0.0
 74
               0
 49
-3.0
 74
               0
  0
LTYPE
  5
2F
100
AcDbSymbolTableRecord
100
AcDbLinetypeTableRecord
  2
ACAD_ISO13W100
 70
              64
  3
ISO double-dash double-dot __ __ . . __ __ . . 
 72
              65
 73
               8
 40
36.0
 49
12.0
 74
               0
 49
-3.0
 74
               0
 49
12.0
 74
               0
 49
-3.0
 74
               0
 49
0.0
 74
               0
 49
-3.0
 74
               0
 49
0.0
 74
               0
 49
-3.0
 74
               0
  0
LTYPE
  5
30
100
AcDbSymbolTableRecord
100
AcDbLinetypeTableRecord
  2
ACAD_ISO14W100
 70
              64
  3
ISO dash triple-dot __ . . . __ . . . __ . . . 
 72
              65
 73
               8
 40
24.0
 49
12.0
 74
               0
 49
-3.0
 74
               0
 49
0.0
 74
               0
 49
-3.0
 74
               0
 49
0.0
 74
               0
 49
-3.0
 74
               0
 49
0.0
 74
               0
 49
-3.0
 74
               0
  0
LTYPE
  5
31
100
AcDbSymbolTableRecord
100
AcDbLinetypeTableRecord
  2
ACAD_ISO15W100
 70
              64
  3
ISO double-dash double-dot __ __ . . __ __ . . 
 72
              65
 73
              10
 40
39.0
 49
12.0
 74
               0
 49
-3.0
 74
               0
 49
12.0
 74
               0
 49
-3.0
 74
               0
 49
0.0
 74
               0
 49
-3.0
 74
               0
 49
0.0
 74
               0
 49
-3.0
 74
               0
 49
0.0
 74
               0
 49
-3.0
 74
               0
  0
ENDTAB
  0
TABLE
  2
LAYER
  5
2
100
AcDbSymbolTable
 70
              16
  0
LAYER
  5
14
100
AcDbSymbolTableRecord
100
AcDbLayerTableRecord
  2
0
 70
               0
 62
               7
  6
Continuous
  0
LAYER
  5
35
100
AcDbSymbolTableRecord
100
AcDbLayerTableRecord
  2
Layer00001
 70
               0
 62
               7
  6
Continuous
  0
LAYER
  5
36
100
AcDbSymbolTableRecord
100
AcDbLayerTableRecord
  2
Layer00002
 70
               0
 62
               7
  6
Continuous
  0
LAYER
  5
37
100
AcDbSymbolTableRecord
100
AcDbLayerTableRecord
  2
Layer00003
 70
               0
 62
               7
  6
Continuous
  0
LAYER
  5
38
100
AcDbSymbolTableRecord
100
AcDbLayerTableRecord
  2
Layer00004
 70
               0
 62
               7
  6
Continuous
  0
LAYER
  5
39
100
AcDbSymbolTableRecord
100
AcDbLayerTableRecord
  2
Layer00005
 70
               0
 62
               7
  6
Continuous
  0
LAYER
  5
3A
100
AcDbSymbolTableRecord
100
AcDbLayerTableRecord
  2
Layer00006
 70
               0
 62
               7
  6
Continuous
  0
LAYER
  5
3B
100
AcDbSymbolTableRecord
100
AcDbLayerTableRecord
  2
Layer00007
 70
               0
 62
               7
  6
Continuous
  0
LAYER
  5
3C
100
AcDbSymbolTableRecord
100
AcDbLayerTableRecord
  2
Layer00008
 70
               0
 62
               7
  6
Continuous
  0
LAYER
  5
3D
100
AcDbSymbolTableRecord
100
AcDbLayerTableRecord
  2
Layer00009
 70
               0
 62
               7
  6
Continuous
  0
LAYER
  5
3E
100
AcDbSymbolTableRecord
100
AcDbLayerTableRecord
  2
Layer00010
 70
               0
 62
               7
  6
Continuous
  0
LAYER
  5
3F
100
AcDbSymbolTableRecord
100
AcDbLayerTableRecord
  2
Layer00011
 70
               0
 62
               7
  6
Continuous
  0
LAYER
  5
40
100
AcDbSymbolTableRecord
100
AcDbLayerTableRecord
  2
Layer00012
 70
               0
 62
               7
  6
Continuous
  0
LAYER
  5
41
100
AcDbSymbolTableRecord
100
AcDbLayerTableRecord
  2
Layer00013
 70
               0
 62
               7
  6
Continuous
  0
LAYER
  5
42
100
AcDbSymbolTableRecord
100
AcDbLayerTableRecord
  2
Layer00014
 70
               0
 62
               7
  6
Continuous
  0
LAYER
  5
43
100
AcDbSymbolTableRecord
100
AcDbLayerTableRecord
  2
図枠
 70
               0
 62
               7
  6
Continuous
  0
ENDTAB
  0
TABLE
  2
STYLE
  5
3
100
AcDbSymbolTable
 70
               4
  0
STYLE
  5
17
100
AcDbSymbolTableRecord
100
AcDbTextStyleTableRecord
  2
Standard
 70
               0
 40
0.0
 41
1.0
 50
0.0
 71
               0
 42
0.0
  3
txt.shx
  4
bigfont.shx
  0
STYLE
  5
32
100
AcDbSymbolTableRecord
100
AcDbTextStyleTableRecord
  2
STANDARD_T
 70
               4
 40
0.0
 41
1.0
 50
0.0
 71
               0
 42
0.0
  3
txt.shx
  4
bigfont.shx
  0
STYLE
  5
33
100
AcDbSymbolTableRecord
100
AcDbTextStyleTableRecord
  2
FontTableH_0
 70
               0
 40
0.0
 41
1.0
 50
0.0
 71
               0
 42
0.0
  3
MS Gothic.ttf
  4

1001
ACAD
1000
MS Gothic
1071
    32817
  0
STYLE
  5
34
100
AcDbSymbolTableRecord
100
AcDbTextStyleTableRecord
  2
FontTableV_0
 70
               0
 40
0.0
 41
1.0
 50
0.0
 71
               0
 42
0.0
  3
@MS Gothic.ttf
  4

1001
ACAD
1000
@MS Gothic
1071
    32817
  0
ENDTAB
  0
TABLE
  2
VIEW
  5
5
100
AcDbSymbolTable
 70
               0
  0
ENDTAB
  0
TABLE
  2
UCS
  5
6
100
AcDbSymbolTable
 70
               0
  0
ENDTAB
  0
TABLE
  2
APPID
  5
8
100
AcDbSymbolTable
 70
               1
  0
APPID
  5
16
100
AcDbSymbolTableRecord
100
AcDbRegAppTableRecord
  2
ACAD
 70
               0
  0
ENDTAB
  0
TABLE
  2
DIMSTYLE
  5
9
100
AcDbSymbolTable
 70
               1
  0
DIMSTYLE
105
18
100
AcDbSymbolTableRecord
100
AcDbDimStyleTableRecord
  2
Standard
 70
               0
  3

  4

  5

  6

  7

 40
1.0
 41
0.18
 42
0.0625
 43
0.38
 44
0.18
 45
0.0
 46
0.0
 47
0.0
 48
0.0
 71
               0
 72
               0
 73
               1
 74
               1
 75
               0
 76
               0
 77
               0
 78
               0
140
0.18
141
0.09
142
0.0
143
25.399999999999999
144
1.0
145
0.0
146
1.0
147
0.09
170
               0
171
               2
172
               0
173
               0
174
               0
175
               0
176
               0
177
               0
178
               0
270
               2
271
               4
272
               4
273
               2
274
               2
275
               0
280
               0
281
               0
282
               0
283
               1
284
               0
285
               0
286
               0
287
               0
288
               0
340
17
  0
ENDTAB
  0
TABLE
  2
BLOCK_RECORD
  5
1
100
AcDbSymbolTable
 70
               0
  0
BLOCK_RECORD
  5
A
100
AcDbSymbolTableRecord
100
AcDbBlockTableRecord
  2
*MODEL_SPACE
  0
BLOCK_RECORD
  5
B
100
AcDbSymbolTableRecord
100
AcDbBlockTableRecord
  2
*PAPER_SPACE
  0
ENDTAB
  0
ENDSEC
  0
SECTION
  2
BLOCKS
  0
BLOCK
  5
D
100
AcDbEntity
  8
0
100
AcDbBlockBegin
  2
*MODEL_SPACE
 70
               0
 10
0.0
 20
0.0
 30
0.0
  3
*MODEL_SPACE
  1

  0
ENDBLK
  5
E
100
AcDbEntity
  8
0
100
AcDbBlockEnd
  0
BLOCK
  5
F
100
AcDbEntity
 67
               1
  8
0
100
AcDbBlockBegin
  2
*PAPER_SPACE
 70
               0
 10
0.0
 20
0.0
 30
0.0
  3
*PAPER_SPACE
  1

  0
ENDBLK
  5
10
100
AcDbEntity
 67
               1
  8
0
100
AcDbBlockEnd
  0
ENDSEC
  0
SECTION
  2
ENTITIES
  0
LINE
  5
44
100
AcDbEntity
  8
0
  6
Continuous
 62
               4
100
AcDbLine
 10
237.40336233712389
 20
250.83715376791102
 30
0.0
 11
237.40336233712389
 21
216.83715376791105
 31
0.0
  0
LINE
  5
45
100
AcDbEntity
  8
0
  6
Continuous
 62
               4
100
AcDbLine
 10
237.40336233712389
 20
218.83715376791105
 30
0.0
 11
257.40336233712355
 21
218.83715376791105
 31
0.0
  0
LINE
  5
46
100
AcDbEntity
  8
0
  6
Continuous
 62
               4
100
AcDbLine
 10
309.78302734699713
 20
278.81357004194547
 30
0.0
 11
333.27248350443807
 21
238.12863853509629
 31
0.0
  0
LINE
  5
47
100
AcDbEntity
  8
0
  6
Continuous
 62
               4
100
AcDbLine
 10
309.78302734699713
 20
278.81357004194547
 30
0.0
 11
313.63975300511635
 21
274.21730338323164
 31
0.0
  0
LINE
  5
48
100
AcDbEntity
  8
0
  6
Continuous
 62
               4
100
AcDbLine
 10
309.78302734699713
 20
278.81357004194547
 30
0.0
 11
311.83514820695115
 21
273.17541431723009
 31
0.0
  0
LINE
  5
49
100
AcDbEntity
  8
0
  6
Continuous
 62
               4
100
AcDbLine
 10
236.40336233712361
 20
377.83715376791076
 30
0.0
 11
236.40336233712355
 21
447.83715376791088
 31
0.0
  0
LINE
  5
4A
100
AcDbEntity
  8
0
  6
Continuous
 62
               4
100
AcDbLine
 10
341.78596841704723
 20
375.83715376791076
 30
0.0
 11
341.78596841704717
 21
447.83715376791088
 31
0.0
  0
LINE
  5
4B
100
AcDbEntity
  8
0
  6
Continuous
 62
               4
100
AcDbLine
 10
236.40336233712355
 20
445.83715376791088
 30
0.0
 11
341.78596841704717
 21
445.83715376791088
 31
0.0
  0
LINE
  5
4C
100
AcDbEntity
  8
0
  6
Continuous
 62
               4
100
AcDbLine
 10
339.17028507587167
 20
378.66671422456841
 30
0.0
 11
317.37661911905911
 21
416.4144509449518
 31
0.0
  0
LINE
  5
4D
100
AcDbEntity
  8
0
  6
Continuous
 62
               4
100
AcDbLine
 10
339.17028507587167
 20
378.66671422456841
 30
0.0
 11
335.31355941775246
 21
383.26298088328224
 31
0.0
  0
LINE
  5
4E
100
AcDbEntity
  8
0
  6
Continuous
 62
               4
100
AcDbLine
 10
339.17028507587167
 20
378.66671422456841
 30
0.0
 11
337.11816421591766
 21
384.30486994928378
 31
0.0
  0
LINE
  5
4F
100
AcDbEntity
  8
0
  6
Continuous
 62
               4
100
AcDbLine
 10
234.40336233712367
 20
304.33715376791088
 30
0.0
 11
212.12111959980166
 21
342.93113029553524
 31
0.0
  0
LINE
  5
50
100
AcDbEntity
  8
0
  6
Continuous
 62
               4
100
AcDbLine
 10
234.40336233712367
 20
304.33715376791088
 30
0.0
 11
230.54663667900442
 21
308.93342042662471
 31
0.0
  0
LINE
  5
51
100
AcDbEntity
  8
0
  6
Continuous
 62
               4
100
AcDbLine
 10
234.40336233712367
 20
304.33715376791088
 30
0.0
 11
232.35124147716965
 21
309.97530949262625
 31
0.0
  0
LINE
  5
52
100
AcDbEntity
  8
0
  6
Continuous
 62
               4
100
AcDbLine
 10
248.52789470763571
 20
362.8646722969163
 30
0.0
 11
203.60052965678165
 21
440.68115121518963
 31
0.0
  0
LINE
  5
53
100
AcDbEntity
  8
0
  6
Continuous
 62
               4
100
AcDbLine
 10
248.52789470763571
 20
362.8646722969163
 30
0.0
 11
244.67116904951649
 21
367.46093895563024
 31
0.0
  0
LINE
  5
54
100
AcDbEntity
  8
0
  6
Continuous
 62
               4
100
AcDbLine
 10
248.52789470763571
 20
362.8646722969163
 30
0.0
 11
246.47577384768169
 21
368.50282802163179
 31
0.0
  0
LINE
  5
55
100
AcDbEntity
  8
0
  6
Continuous
 62
               4
100
AcDbLine
 10
297.30282763261738
 20
328.83715376791099
 30
0.0
 11
217.76550159396592
 21
466.59984356502616
 31
0.0
  0
LINE
  5
56
100
AcDbEntity
  8
0
  6
Continuous
 62
               4
100
AcDbLine
 10
297.30282763261738
 20
328.83715376791099
 30
0.0
 11
293.44610197449816
 21
333.43342042662493
 31
0.0
  0
LINE
  5
57
100
AcDbEntity
  8
0
  6
Continuous
 62
               4
100
AcDbLine
 10
297.30282763261738
 20
328.83715376791099
 30
0.0
 11
295.25070677266336
 21
334.47530949262648
 31
0.0
  0
LINE
  5
58
100
AcDbEntity
  8
0
  6
Continuous
 62
               4
100
AcDbLine
 10
493.48596841704705
 20
375.83715376791054
 30
0.0
 11
493.48596841704705
 21
435.83715376791122
 31
0.0
  0
LINE
  5
59
100
AcDbEntity
  8
0
  6
Continuous
 62
               4
100
AcDbLine
 10
341.78596841704717
 20
433.83715376791122
 30
0.0
 11
493.48596841704705
 21
433.83715376791122
 31
0.0
  0
LINE
  5
5A
100
AcDbEntity
  8
0
  6
Continuous
 62
               4
100
AcDbLine
 10
645.18596841704687
 20
375.83715376791065
 30
0.0
 11
645.18596841704687
 21
435.83715376791133
 31
0.0
  0
LINE
  5
5B
100
AcDbEntity
  8
0
  6
Continuous
 62
               4
100
AcDbLine
 10
493.48596841704705
 20
433.83715376791122
 30
0.0
 11
645.18596841704687
 21
433.83715376791133
 31
0.0
  0
LINE
  5
5C
100
AcDbEntity
  8
0
  6
Continuous
 62
               4
100
AcDbLine
 10
415.58920757229811
 20
320.83715376791065
 30
0.0
 11
432.01171007804118
 21
292.39254504053633
 31
0.0
  0
LINE
  5
5D
100
AcDbEntity
  8
0
  6
Continuous
 62
               4
100
AcDbLine
 10
415.58920757229811
 20
320.83715376791065
 30
0.0
 11
419.44593323041732
 21
316.24088710919671
 31
0.0
  0
LINE
  5
5E
100
AcDbEntity
  8
0
  6
Continuous
 62
               4
100
AcDbLine
 10
415.58920757229811
 20
320.83715376791065
 30
0.0
 11
417.64132843225212
 21
315.19899804319516
 31
0.0
  0
LINE
  5
5F
100
AcDbEntity
  8
0
  6
Continuous
 62
               4
100
AcDbLine
 10
421.63596841704714
 20
328.83715376791099
 30
0.0
 11
443.63596841704651
 21
328.83715376791099
 31
0.0
  0
LINE
  5
60
100
AcDbEntity
  8
0
  6
Continuous
 62
               4
100
AcDbLine
 10
345.78596841704723
 20
371.83715376791054
 30
0.0
 11
443.6359684170464
 21
371.83715376791076
 31
0.0
  0
LINE
  5
61
100
AcDbEntity
  8
0
  6
Continuous
 62
               4
100
AcDbLine
 10
441.63596841704651
 20
328.83715376791099
 30
0.0
 11
441.6359684170464
 21
371.83715376791076
 31
0.0
  0
LINE
  5
62
100
AcDbEntity
  8
0
  6
Continuous
 62
               4
100
AcDbLine
 10
235.27632070018899
 20
265.16558089265664
 30
0.0
 11
210.11481874622527
 21
221.58458111364786
 31
0.0
  0
LINE
  5
63
100
AcDbEntity
  8
0
  6
Continuous
 62
               4
100
AcDbLine
 10
235.27632070018899
 20
265.16558089265664
 30
0.0
 11
233.22419984023497
 21
259.52742516794115
 31
0.0
  0
LINE
  5
64
100
AcDbEntity
  8
0
  6
Continuous
 62
               4
100
AcDbLine
 10
235.27632070018899
 20
265.16558089265664
 30
0.0
 11
231.41959504206974
 21
260.56931423394281
 31
0.0
  0
LINE
  5
65
100
AcDbEntity
  8
0
  6
Continuous
 62
               4
100
AcDbLine
 10
249.63192894065611
 20
259.38974565517128
 30
0.0
 11
213.95418720540002
 21
197.59408427038704
 31
0.0
  0
LINE
  5
66
100
AcDbEntity
  8
0
  6
Continuous
 62
               4
100
AcDbLine
 10
249.63192894065611
 20
259.38974565517128
 30
0.0
 11
247.57980808070209
 21
253.75158993045579
 31
0.0
  0
LINE
  5
67
100
AcDbEntity
  8
0
  6
Continuous
 62
               4
100
AcDbLine
 10
249.63192894065611
 20
259.38974565517128
 30
0.0
 11
245.77520328253689
 21
254.7934789964574
 31
0.0
  0
LINE
  5
68
100
AcDbEntity
  8
0
  6
Continuous
 62
               4
100
AcDbLine
 10
268.11734149434744
 20
212.63641684268538
 30
0.0
 11
240.9304709417537
 21
165.54737574679496
 31
0.0
  0
LINE
  5
69
100
AcDbEntity
  8
0
  6
Continuous
 62
               4
100
AcDbLine
 10
268.11734149434744
 20
212.63641684268538
 30
0.0
 11
266.06522063439343
 21
206.99826111796992
 31
0.0
  0
LINE
  5
6A
100
AcDbEntity
  8
0
  6
Continuous
 62
               4
100
AcDbLine
 10
268.11734149434744
 20
212.63641684268538
 30
0.0
 11
264.26061583622823
 21
208.04015018397152
 31
0.0
  0
LINE
  5
6B
100
AcDbEntity
  8
0
  6
Continuous
 62
               4
100
AcDbLine
 10
391.92739726027389
 20
204.64520547945207
 30
0.0
 11
418.54878090537363
 21
158.53561643835619
 31
0.0
  0
LINE
  5
6C
100
AcDbEntity
  8
0
  6
Continuous
 62
               4
100
AcDbLine
 10
391.92739726027389
 20
204.64520547945207
 30
0.0
 11
395.78412291839311
 21
200.04893882073821
 31
0.0
  0
LINE
  5
6D
100
AcDbEntity
  8
0
  6
Continuous
 62
               4
100
AcDbLine
 10
391.92739726027389
 20
204.64520547945207
 30
0.0
 11
393.97951812022791
 21
199.00704975473661
 31
0.0
  0
LINE
  5
6E
100
AcDbEntity
  8
0
  6
Continuous
 62
               4
100
AcDbLine
 10
643.22346841704712
 20
339.01510738923253
 30
0.0
 11
608.19474050886652
 21
278.34357092775792
 31
0.0
  0
LINE
  5
6F
100
AcDbEntity
  8
0
  6
Continuous
 62
               4
100
AcDbLine
 10
643.22346841704712
 20
339.01510738923253
 30
0.0
 11
641.1713475570931
 21
333.37695166451715
 31
0.0
  0
LINE
  5
70
100
AcDbEntity
  8
0
  6
Continuous
 62
               4
100
AcDbLine
 10
643.22346841704712
 20
339.01510738923253
 30
0.0
 11
639.3667427589279
 21
334.4188407305187
 31
0.0
  0
LINE
  5
71
100
AcDbEntity
  8
0
  6
Continuous
 62
               4
100
AcDbLine
 10
539.29307458143069
 20
327.83715376791099
 30
0.0
 11
577.16389862124845
 21
393.43134512937593
 31
0.0
  0
LINE
  5
72
100
AcDbEntity
  8
0
  6
Continuous
 62
               4
100
AcDbLine
 10
539.29307458143069
 20
327.83715376791099
 30
0.0
 11
541.3451954413847
 21
333.47530949262648
 31
0.0
  0
LINE
  5
73
100
AcDbEntity
  8
0
  6
Continuous
 62
               4
100
AcDbLine
 10
539.29307458143069
 20
327.83715376791099
 30
0.0
 11
543.1498002395499
 21
332.43342042662493
 31
0.0
  0
LINE
  5
74
100
AcDbEntity
  8
0
  6
Continuous
 62
               4
100
AcDbLine
 10
531.41096841704689
 20
350.3371537679111
 30
0.0
 11
567.34740542481939
 21
412.58088850837134
 31
0.0
  0
LINE
  5
75
100
AcDbEntity
  8
0
  6
Continuous
 62
               4
100
AcDbLine
 10
531.41096841704689
 20
350.3371537679111
 30
0.0
 11
533.4630892770009
 21
355.97530949262648
 31
0.0
  0
LINE
  5
76
100
AcDbEntity
  8
0
  6
Continuous
 62
               4
100
AcDbLine
 10
531.41096841704689
 20
350.3371537679111
 30
0.0
 11
535.2676940751661
 21
354.93342042662493
 31
0.0
  0
LINE
  5
77
100
AcDbEntity
  8
0
  6
Continuous
 62
               4
100
AcDbLine
 10
345.5279925992827
 20
372.84101002606997
 30
0.0
 11
362.7972681286904
 21
402.7522726529096
 31
0.0
  0
LINE
  5
78
100
AcDbEntity
  8
0
  6
Continuous
 62
               4
100
AcDbLine
 10
345.5279925992827
 20
372.84101002606997
 30
0.0
 11
347.58011345923677
 21
378.47916575078546
 31
0.0
  0
LINE
  5
79
100
AcDbEntity
  8
0
  6
Continuous
 62
               4
100
AcDbLine
 10
345.5279925992827
 20
372.84101002606997
 30
0.0
 11
349.38471825740197
 21
377.4372766847838
 31
0.0
  0
LINE
  5
7A
100
AcDbEntity
  8
0
  6
Continuous
 62
               4
100
AcDbLine
 10
2077.5
 20
1892.5
 30
0.0
 11
77.5
 21
1892.5
 31
0.0
  0
LINE
  5
7B
100
AcDbEntity
  8
0
  6
Continuous
 62
               4
100
AcDbLine
 10
2077.5
 20
1892.5
 30
0.0
 11
2077.5
 21
2892.5
 31
0.0
  0
LINE
  5
7C
100
AcDbEntity
  8
0
  6
Continuous
 62
               7
100
AcDbLine
 10
347.03596841704712
 20
376.19306101055133
 30
0.0
 11
336.53596841704712
 21
376.19306101055088
 31
0.0
  0
LINE
  5
7D
100
AcDbEntity
  8
0
  6
Continuous
 62
               7
100
AcDbLine
 10
336.53596841704746
 20
376.69306101055099
 30
0.0
 11
336.53596841704712
 21
376.19306101055088
 31
0.0
  0
LINE
  5
7E
100
AcDbEntity
  8
0
  6
Continuous
 62
               7
100
AcDbLine
 10
347.03596841704712
 20
376.69306101055145
 30
0.0
 11
347.03596841704712
 21
376.19306101055133
 31
0.0
  0
LINE
  5
7F
100
AcDbEntity
  8
0
  6
Continuous
 62
               7
100
AcDbLine
 10
345.78596841704723
 20
376.19306101055133
 30
0.0
 11
345.78596841704723
 21
373.83715376791076
 31
0.0
  0
LINE
  5
80
100
AcDbEntity
  8
0
  6
Continuous
 62
               7
100
AcDbLine
 10
341.78596841705019
 20
306.19306101055122
 30
0.0
 11
339.78596841705075
 21
308.19306101055167
 31
0.0
  0
LINE
  5
81
100
AcDbEntity
  8
0
  6
Continuous
 62
               7
100
AcDbLine
 10
343.78596841704552
 20
308.19306101054678
 30
0.0
 11
341.78596841705019
 21
306.19306101055122
 31
0.0
  0
LINE
  5
82
100
AcDbEntity
  8
0
  6
Continuous
 62
               7
100
AcDbLine
 10
345.78596841704723
 20
373.83715376791076
 30
0.0
 11
337.78596841704712
 21
373.83715376791076
 31
0.0
  0
LINE
  5
83
100
AcDbEntity
  8
0
  6
Continuous
 62
               7
100
AcDbLine
 10
339.78596841704746
 20
373.83715376791076
 30
0.0
 11
339.78596841704768
 21
308.19306101055474
 31
0.0
  0
LINE
  5
84
100
AcDbEntity
  8
0
  6
Continuous
 62
               7
100
AcDbLine
 10
343.78596841704689
 20
373.83715376791076
 30
0.0
 11
343.78596841704552
 21
308.19306101054678
 31
0.0
  0
LINE
  5
85
100
AcDbEntity
  8
0
  6
Continuous
 62
               7
100
AcDbLine
 10
337.78596841704712
 20
373.83715376791076
 30
0.0
 11
337.785968417047
 21
376.19306101055099
 31
0.0
  0
LINE
  5
86
100
AcDbEntity
  8
0
  6
Continuous
 62
               7
100
AcDbLine
 10
237.40336233712344
 20
332.39602827095712
 30
0.0
 11
240.96223684016854
 21
328.83715376791224
 31
0.0
  0
LINE
  5
87
100
AcDbEntity
  8
0
  6
Continuous
 62
               7
100
AcDbLine
 10
237.4033623371235
 20
335.22445539570333
 30
0.0
 11
243.79066396491464
 21
328.83715376791224
 31
0.0
  0
LINE
  5
88
100
AcDbEntity
  8
0
  6
Continuous
 62
               7
100
AcDbLine
 10
237.4033623371235
 20
338.05288252044932
 30
0.0
 11
246.61909108966114
 21
328.8371537679119
 31
0.0
  0
LINE
  5
89
100
AcDbEntity
  8
0
  6
Continuous
 62
               7
100
AcDbLine
 10
237.40336233712355
 20
340.88130964519553
 30
0.0
 11
249.44751821440724
 21
328.8371537679119
 31
0.0
  0
LINE
  5
8A
100
AcDbEntity
  8
0
  6
Continuous
 62
               7
100
AcDbLine
 10
237.40336233712344
 20
329.56760114621125
 30
0.0
 11
238.13380971542097
 21
328.83715376791372
 31
0.0
  0
LINE
  5
8B
100
AcDbEntity
  8
0
  6
Continuous
 62
               3
100
AcDbLine
 10
237.40336233712361
 20
368.83715376791088
 30
0.0
 11
237.40336233712344
 21
328.83715376791088
 31
0.0
  0
LINE
  5
8C
100
AcDbEntity
  8
0
  6
Continuous
 62
               3
100
AcDbLine
 10
267.40336233712344
 20
328.83715376791088
 30
0.0
 11
237.40336233712344
 21
328.83715376791088
 31
0.0
  0
LINE
  5
8D
100
AcDbEntity
  8
0
  6
Continuous
 62
               3
100
AcDbLine
 10
267.40336233712361
 20
368.83715376791088
 30
0.0
 11
267.40336233712344
 21
328.83715376791076
 31
0.0
  0
LINE
  5
8E
100
AcDbEntity
  8
0
  6
Continuous
 62
               3
100
AcDbLine
 10
267.40336233712361
 20
368.83715376791088
 30
0.0
 11
237.40336233712361
 21
368.83715376791088
 31
0.0
  0
LINE
  5
8F
100
AcDbEntity
  8
0
  6
Continuous
 62
               7
100
AcDbLine
 10
237.40336233712361
 20
357.85187239367212
 30
0.0
 11
266.41808096288486
 21
328.83715376791122
 31
0.0
  0
LINE
  5
90
100
AcDbEntity
  8
0
  6
Continuous
 62
               7
100
AcDbLine
 10
237.40336233712361
 20
355.02344526892648
 30
0.0
 11
263.58965383813864
 21
328.8371537679111
 31
0.0
  0
LINE
  5
91
100
AcDbEntity
  8
0
  6
Continuous
 62
               7
100
AcDbLine
 10
237.40336233712355
 20
352.19501814417993
 30
0.0
 11
260.76122671339249
 21
328.8371537679111
 31
0.0
  0
LINE
  5
92
100
AcDbEntity
  8
0
  6
Continuous
 62
               7
100
AcDbLine
 10
237.40336233712355
 20
349.36659101943337
 30
0.0
 11
257.93279958864639
 21
328.83715376791122
 31
0.0
  0
LINE
  5
93
100
AcDbEntity
  8
0
  6
Continuous
 62
               7
100
AcDbLine
 10
237.40336233712355
 20
346.53816389468773
 30
0.0
 11
255.10437246389989
 21
328.83715376791156
 31
0.0
  0
LINE
  5
94
100
AcDbEntity
  8
0
  6
Continuous
 62
               7
100
AcDbLine
 10
252.27594533915379
 20
328.83715376791156
 30
0.0
 11
237.4033623371235
 21
343.7097367699414
 31
0.0
  0
LINE
  5
95
100
AcDbEntity
  8
0
  6
Continuous
 62
               7
100
AcDbLine
 10
267.40336233712344
 20
336.3371537679111
 30
0.0
 11
237.40336233712367
 21
366.33715376791099
 31
0.0
  0
LINE
  5
96
100
AcDbEntity
  8
0
  6
Continuous
 62
               7
100
AcDbLine
 10
267.40336233712344
 20
333.50872664316489
 30
0.0
 11
237.40336233712361
 21
363.50872664316455
 31
0.0
  0
LINE
  5
97
100
AcDbEntity
  8
0
  6
Continuous
 62
               7
100
AcDbLine
 10
267.40336233712344
 20
330.68029951841879
 30
0.0
 11
237.40336233712361
 21
360.68029951841856
 31
0.0
  0
LINE
  5
98
100
AcDbEntity
  8
0
  6
Continuous
 62
               7
100
AcDbLine
 10
267.4033623371235
 20
350.47928939164137
 30
0.0
 11
249.04549796085382
 21
368.83715376791088
 31
0.0
  0
LINE
  5
99
100
AcDbEntity
  8
0
  6
Continuous
 62
               7
100
AcDbLine
 10
267.40336233712355
 20
356.1361436411338
 30
0.0
 11
254.70235221034648
 21
368.83715376791088
 31
0.0
  0
LINE
  5
9A
100
AcDbEntity
  8
0
  6
Continuous
 62
               7
100
AcDbLine
 10
267.4033623371235
 20
353.30771651638804
 30
0.0
 11
251.87392508560066
 21
368.83715376791088
 31
0.0
  0
LINE
  5
9B
100
AcDbEntity
  8
0
  6
Continuous
 62
               7
100
AcDbLine
 10
267.40336233712355
 20
358.96457076588047
 30
0.0
 11
257.53077933509326
 21
368.83715376791088
 31
0.0
  0
LINE
  5
9C
100
AcDbEntity
  8
0
  6
Continuous
 62
               7
100
AcDbLine
 10
267.40336233712355
 20
367.44985214011729
 30
0.0
 11
266.01606070933013
 21
368.83715376791088
 31
0.0
  0
LINE
  5
9D
100
AcDbEntity
  8
0
  6
Continuous
 62
               7
100
AcDbLine
 10
267.40336233712355
 20
364.62142501537107
 30
0.0
 11
263.18763358458369
 21
368.83715376791088
 31
0.0
  0
LINE
  5
9E
100
AcDbEntity
  8
0
  6
Continuous
 62
               7
100
AcDbLine
 10
267.40336233712355
 20
361.79299789062543
 30
0.0
 11
260.35920645983799
 21
368.83715376791088
 31
0.0
  0
LINE
  5
9F
100
AcDbEntity
  8
0
  6
Continuous
 62
               7
100
AcDbLine
 10
267.40336233712344
 20
339.16558089265686
 30
0.0
 11
237.73178946186908
 21
368.83715376791088
 31
0.0
  0
LINE
  5
A0
100
AcDbEntity
  8
0
  6
Continuous
 62
               7
100
AcDbLine
 10
267.4033623371235
 20
347.65086226689573
 30
0.0
 11
246.21707083610858
 21
368.83715376791088
 31
0.0
  0
LINE
  5
A1
100
AcDbEntity
  8
0
  6
Continuous
 62
               7
100
AcDbLine
 10
267.4033623371235
 20
344.82243514214906
 30
0.0
 11
243.38864371136134
 21
368.83715376791088
 31
0.0
  0
LINE
  5
A2
100
AcDbEntity
  8
0
  6
Continuous
 62
               7
100
AcDbLine
 10
267.4033623371235
 20
341.99400801740296
 30
0.0
 11
240.56021658661484
 21
368.83715376791088
 31
0.0
  0
LINE
  5
A3
100
AcDbEntity
  8
0
  6
Continuous
 62
               7
100
AcDbLine
 10
282.40336233712378
 20
255.33715376791054
 30
0.0
 11
257.40336233712395
 21
230.33715376791071
 31
0.0
  0
LINE
  5
A4
100
AcDbEntity
  8
0
  6
Continuous
 62
               7
100
AcDbLine
 10
282.40336233712384
 20
258.16558089265664
 30
0.0
 11
257.40336233712389
 21
233.16558089265683
 31
0.0
  0
LINE
  5
A5
100
AcDbEntity
  8
0
  6
Continuous
 62
               7
100
AcDbLine
 10
282.40336233712384
 20
252.50872664316441
 30
0.0
 11
257.40336233712389
 21
227.50872664316458
 31
0.0
  0
LINE
  5
A6
100
AcDbEntity
  8
0
  6
Continuous
 62
               7
100
AcDbLine
 10
282.40336233712378
 20
260.99400801740273
 30
0.0
 11
257.40336233712384
 21
235.99400801740299
 31
0.0
  0
LINE
  5
A7
100
AcDbEntity
  8
0
  6
Continuous
 62
               7
100
AcDbLine
 10
282.40336233712384
 20
249.68029951841814
 30
0.0
 11
257.40336233712395
 21
224.68029951841834
 31
0.0
  0
LINE
  5
A8
100
AcDbEntity
  8
0
  6
Continuous
 62
               7
100
AcDbLine
 10
282.40336233712378
 20
263.82243514214895
 30
0.0
 11
257.40336233712384
 21
238.82243514214923
 31
0.0
  0
LINE
  5
A9
100
AcDbEntity
  8
0
  6
Continuous
 62
               7
100
AcDbLine
 10
282.40336233712384
 20
246.8518723936721
 30
0.0
 11
257.40336233712395
 21
221.85187239367227
 31
0.0
  0
LINE
  5
AA
100
AcDbEntity
  8
0
  6
Continuous
 62
               7
100
AcDbLine
 10
282.40336233712378
 20
266.65086226689516
 30
0.0
 11
257.40336233712384
 21
241.65086226689536
 31
0.0
  0
LINE
  5
AB
100
AcDbEntity
  8
0
  6
Continuous
 62
               7
100
AcDbLine
 10
282.40336233712389
 20
244.02344526892585
 30
0.0
 11
257.40336233712395
 21
219.02344526892605
 31
0.0
  0
LINE
  5
AC
100
AcDbEntity
  8
0
  6
Continuous
 62
               7
100
AcDbLine
 10
282.40336233712372
 20
269.47928939164137
 30
0.0
 11
257.40336233712384
 21
244.47928939164157
 31
0.0
  0
LINE
  5
AD
100
AcDbEntity
  8
0
  6
Continuous
 62
               7
100
AcDbLine
 10
282.40336233712384
 20
241.19501814417961
 30
0.0
 11
257.40336233712401
 21
216.19501814417987
 31
0.0
  0
LINE
  5
AE
100
AcDbEntity
  8
0
  6
Continuous
 62
               7
100
AcDbLine
 10
282.40336233712372
 20
272.30771651638736
 30
0.0
 11
257.40336233712384
 21
247.30771651638761
 31
0.0
  0
LINE
  5
AF
100
AcDbEntity
  8
0
  6
Continuous
 62
               7
100
AcDbLine
 10
282.40336233712389
 20
238.36659101943354
 30
0.0
 11
257.40336233712395
 21
213.36659101943374
 31
0.0
  0
LINE
  5
B0
100
AcDbEntity
  8
0
  6
Continuous
 62
               7
100
AcDbLine
 10
282.40336233712372
 20
275.13614364113357
 30
0.0
 11
257.40336233712384
 21
250.13614364113383
 31
0.0
  0
LINE
  5
B1
100
AcDbEntity
  8
0
  6
Continuous
 62
               7
100
AcDbLine
 10
282.40336233712384
 20
235.53816389468727
 30
0.0
 11
257.40336233712401
 21
210.5381638946875
 31
0.0
  0
LINE
  5
B2
100
AcDbEntity
  8
0
  6
Continuous
 62
               7
100
AcDbLine
 10
282.40336233712372
 20
277.96457076587978
 30
0.0
 11
257.40336233712378
 21
252.96457076588001
 31
0.0
  0
LINE
  5
B3
100
AcDbEntity
  8
0
  6
Continuous
 62
               7
100
AcDbLine
 10
282.40336233712389
 20
232.70973676994129
 30
0.0
 11
257.40336233712401
 21
207.70973676994149
 31
0.0
  0
LINE
  5
B4
100
AcDbEntity
  8
0
  6
Continuous
 62
               7
100
AcDbLine
 10
282.40336233712372
 20
280.792997890626
 30
0.0
 11
257.40336233712378
 21
255.79299789062614
 31
0.0
  0
LINE
  5
B5
100
AcDbEntity
  8
0
  6
Continuous
 62
               7
100
AcDbLine
 10
282.40336233712384
 20
229.88130964519505
 30
0.0
 11
257.40336233712401
 21
204.88130964519527
 31
0.0
  0
LINE
  5
B6
100
AcDbEntity
  8
0
  6
Continuous
 62
               7
100
AcDbLine
 10
282.40336233712367
 20
283.62142501537198
 30
0.0
 11
257.40336233712378
 21
258.62142501537221
 31
0.0
  0
LINE
  5
B7
100
AcDbEntity
  8
0
  6
Continuous
 62
               7
100
AcDbLine
 10
282.40336233712389
 20
227.05288252044886
 30
0.0
 11
257.40336233712401
 21
202.05288252044906
 31
0.0
  0
LINE
  5
B8
100
AcDbEntity
  8
0
  6
Continuous
 62
               7
100
AcDbLine
 10
282.40336233712372
 20
286.4498521401182
 30
0.0
 11
257.40336233712378
 21
261.44985214011842
 31
0.0
  0
LINE
  5
B9
100
AcDbEntity
  8
0
  6
Continuous
 62
               7
100
AcDbLine
 10
282.40336233712389
 20
224.22445539570279
 30
0.0
 11
257.40336233712401
 21
199.22445539570302
 31
0.0
  0
LINE
  5
BA
100
AcDbEntity
  8
0
  6
Continuous
 62
               7
100
AcDbLine
 10
282.40336233712367
 20
289.27827926486441
 30
0.0
 11
257.40336233712372
 21
264.27827926486452
 31
0.0
  0
LINE
  5
BB
100
AcDbEntity
  8
0
  6
Continuous
 62
               7
100
AcDbLine
 10
282.40336233712389
 20
221.39602827095666
 30
0.0
 11
257.40336233712401
 21
196.39602827095686
 31
0.0
  0
LINE
  5
BC
100
AcDbEntity
  8
0
  6
Continuous
 62
               7
100
AcDbLine
 10
282.40336233712372
 20
292.10670638961062
 30
0.0
 11
257.40336233712372
 21
267.10670638961074
 31
0.0
  0
LINE
  5
BD
100
AcDbEntity
  8
0
  6
Continuous
 62
               7
100
AcDbLine
 10
282.40336233712389
 20
218.56760114621051
 30
0.0
 11
257.40336233712407
 21
193.56760114621071
 31
0.0
  0
LINE
  5
BE
100
AcDbEntity
  8
0
  6
Continuous
 62
               7
100
AcDbLine
 10
282.40336233712372
 20
294.93513351435672
 30
0.0
 11
257.40336233712372
 21
269.93513351435683
 31
0.0
  0
LINE
  5
BF
100
AcDbEntity
  8
0
  6
Continuous
 62
               7
100
AcDbLine
 10
282.40336233712395
 20
215.73917402146432
 30
0.0
 11
257.40336233712407
 21
190.73917402146455
 31
0.0
  0
LINE
  5
C0
100
AcDbEntity
  8
0
  6
Continuous
 62
               7
100
AcDbLine
 10
282.40336233712367
 20
297.76356063910282
 30
0.0
 11
257.40336233712378
 21
272.76356063910305
 31
0.0
  0
LINE
  5
C1
100
AcDbEntity
  8
0
  6
Continuous
 62
               7
100
AcDbLine
 10
282.40336233712395
 20
212.91074689671805
 30
0.0
 11
257.40336233712412
 21
187.91074689671834
 31
0.0
  0
LINE
  5
C2
100
AcDbEntity
  8
0
  6
Continuous
 62
               7
100
AcDbLine
 10
282.40336233712367
 20
300.59198776384903
 30
0.0
 11
257.40336233712372
 21
275.59198776384926
 31
0.0
  0
LINE
  5
C3
100
AcDbEntity
  8
0
  6
Continuous
 62
               7
100
AcDbLine
 10
282.40336233712395
 20
210.08231977197192
 30
0.0
 11
257.40336233712407
 21
185.08231977197221
 31
0.0
  0
LINE
  5
C4
100
AcDbEntity
  8
0
  6
Continuous
 62
               3
100
AcDbLine
 10
237.40336233712361
 20
254.83715376791099
 30
0.0
 11
257.40336233712361
 21
254.83715376791099
 31
0.0
  0
LINE
  5
C5
100
AcDbEntity
  8
0
  6
Continuous
 62
               3
100
AcDbLine
 10
237.40336233712389
 20
254.83715376791102
 30
0.0
 11
237.40336233712361
 21
314.83715376791088
 31
0.0
  0
LINE
  5
C6
100
AcDbEntity
  8
0
  6
Continuous
 62
               7
100
AcDbLine
 10
282.40336233712361
 20
303.42041488859525
 30
0.0
 11
257.40336233712367
 21
278.42041488859536
 31
0.0
  0
LINE
  5
C7
100
AcDbEntity
  8
0
  6
Continuous
 62
               7
100
AcDbLine
 10
282.40336233712361
 20
306.24884201334135
 30
0.0
 11
257.40336233712367
 21
281.24884201334146
 31
0.0
  0
LINE
  5
C8
100
AcDbEntity
  8
0
  6
Continuous
 62
               7
100
AcDbLine
 10
282.40336233712367
 20
309.07726913808744
 30
0.0
 11
257.40336233712367
 21
284.07726913808756
 31
0.0
  0
LINE
  5
C9
100
AcDbEntity
  8
0
  6
Continuous
 62
               7
100
AcDbLine
 10
282.40336233712361
 20
311.90569626283354
 30
0.0
 11
257.40336233712367
 21
286.90569626283377
 31
0.0
  0
LINE
  5
CA
100
AcDbEntity
  8
0
  6
Continuous
 62
               7
100
AcDbLine
 10
282.40336233712355
 20
314.73412338757964
 30
0.0
 11
257.40336233712367
 21
289.73412338757998
 31
0.0
  0
LINE
  5
CB
100
AcDbEntity
  8
0
  6
Continuous
 62
               7
100
AcDbLine
 10
279.67796559270869
 20
314.83715376791099
 30
0.0
 11
257.40336233712367
 21
292.56255051232608
 31
0.0
  0
LINE
  5
CC
100
AcDbEntity
  8
0
  6
Continuous
 62
               7
100
AcDbLine
 10
276.8495384679623
 20
314.83715376791099
 30
0.0
 11
257.40336233712367
 21
295.39097763707218
 31
0.0
  0
LINE
  5
CD
100
AcDbEntity
  8
0
  6
Continuous
 62
               7
100
AcDbLine
 10
274.02111134321643
 20
314.83715376791099
 30
0.0
 11
257.40336233712361
 21
298.2194047618184
 31
0.0
  0
LINE
  5
CE
100
AcDbEntity
  8
0
  6
Continuous
 62
               7
100
AcDbLine
 10
271.19268421847011
 20
314.83715376791099
 30
0.0
 11
257.40336233712361
 21
301.0478318865645
 31
0.0
  0
LINE
  5
CF
100
AcDbEntity
  8
0
  6
Continuous
 62
               7
100
AcDbLine
 10
268.36425709372401
 20
314.83715376791099
 30
0.0
 11
257.40336233712361
 21
303.87625901131059
 31
0.0
  0
LINE
  5
D0
100
AcDbEntity
  8
0
  6
Continuous
 62
               7
100
AcDbLine
 10
265.53582996897779
 20
314.83715376791099
 30
0.0
 11
257.40336233712361
 21
306.70468613605669
 31
0.0
  0
LINE
  5
D1
100
AcDbEntity
  8
0
  6
Continuous
 62
               7
100
AcDbLine
 10
262.70740284423175
 20
314.83715376791099
 30
0.0
 11
257.40336233712355
 21
309.53311326080291
 31
0.0
  0
LINE
  5
D2
100
AcDbEntity
  8
0
  6
Continuous
 62
               7
100
AcDbLine
 10
259.87897571948554
 20
314.83715376791099
 30
0.0
 11
257.40336233712355
 21
312.36154038554901
 31
0.0
  0
LINE
  5
D3
100
AcDbEntity
  8
0
  6
Continuous
 62
               3
100
AcDbLine
 10
237.40336233712361
 20
314.83715376791099
 30
0.0
 11
237.40336233712361
 21
326.83715376791099
 31
0.0
  0
LINE
  5
D4
100
AcDbEntity
  8
0
  6
Continuous
 62
               7
100
AcDbLine
 10
237.9571862062848
 20
314.83715376791099
 30
0.0
 11
257.40336233712344
 21
295.39097763707218
 31
0.0
  0
LINE
  5
D5
100
AcDbEntity
  8
0
  6
Continuous
 62
               7
100
AcDbLine
 10
240.78561333103067
 20
314.83715376791099
 30
0.0
 11
257.4033623371235
 21
298.2194047618184
 31
0.0
  0
LINE
  5
D6
100
AcDbEntity
  8
0
  6
Continuous
 62
               7
100
AcDbLine
 10
243.614040455777
 20
314.83715376791099
 30
0.0
 11
257.4033623371235
 21
301.0478318865645
 31
0.0
  0
LINE
  5
D7
100
AcDbEntity
  8
0
  6
Continuous
 62
               7
100
AcDbLine
 10
246.4424675805231
 20
314.83715376791099
 30
0.0
 11
257.4033623371235
 21
303.87625901131059
 31
0.0
  0
LINE
  5
D8
100
AcDbEntity
  8
0
  6
Continuous
 62
               7
100
AcDbLine
 10
249.27089470526931
 20
314.83715376791099
 30
0.0
 11
257.4033623371235
 21
306.70468613605669
 31
0.0
  0
LINE
  5
D9
100
AcDbEntity
  8
0
  6
Continuous
 62
               7
100
AcDbLine
 10
252.09932183001536
 20
314.83715376791099
 30
0.0
 11
257.40336233712355
 21
309.53311326080291
 31
0.0
  0
LINE
  5
DA
100
AcDbEntity
  8
0
  6
Continuous
 62
               7
100
AcDbLine
 10
254.92774895476157
 20
314.83715376791099
 30
0.0
 11
257.40336233712355
 21
312.36154038554901
 31
0.0
  0
LINE
  5
DB
100
AcDbEntity
  8
0
  6
Continuous
 62
               7
100
AcDbLine
 10
237.40336233712378
 20
275.79299789062554
 30
0.0
 11
257.40336233712333
 21
255.79299789062614
 31
0.0
  0
LINE
  5
DC
100
AcDbEntity
  8
0
  6
Continuous
 62
               7
100
AcDbLine
 10
237.40336233712378
 20
278.62142501537164
 30
0.0
 11
257.40336233712333
 21
258.62142501537221
 31
0.0
  0
LINE
  5
DD
100
AcDbEntity
  8
0
  6
Continuous
 62
               7
100
AcDbLine
 10
237.40336233712372
 20
281.44985214011786
 30
0.0
 11
257.40336233712333
 21
261.44985214011842
 31
0.0
  0
LINE
  5
DE
100
AcDbEntity
  8
0
  6
Continuous
 62
               7
100
AcDbLine
 10
237.40336233712372
 20
284.27827926486407
 30
0.0
 11
257.40336233712338
 21
264.27827926486452
 31
0.0
  0
LINE
  5
DF
100
AcDbEntity
  8
0
  6
Continuous
 62
               7
100
AcDbLine
 10
237.40336233712372
 20
287.10670638961017
 30
0.0
 11
257.40336233712338
 21
267.10670638961074
 31
0.0
  0
LINE
  5
E0
100
AcDbEntity
  8
0
  6
Continuous
 62
               7
100
AcDbLine
 10
237.40336233712372
 20
289.93513351435638
 30
0.0
 11
257.40336233712338
 21
269.93513351435683
 31
0.0
  0
LINE
  5
E1
100
AcDbEntity
  8
0
  6
Continuous
 62
               7
100
AcDbLine
 10
237.40336233712367
 20
292.76356063910259
 30
0.0
 11
257.40336233712333
 21
272.76356063910305
 31
0.0
  0
LINE
  5
E2
100
AcDbEntity
  8
0
  6
Continuous
 62
               7
100
AcDbLine
 10
237.40336233712367
 20
295.59198776384881
 30
0.0
 11
257.40336233712338
 21
275.59198776384926
 31
0.0
  0
LINE
  5
E3
100
AcDbEntity
  8
0
  6
Continuous
 62
               7
100
AcDbLine
 10
237.40336233712367
 20
298.42041488859502
 30
0.0
 11
257.40336233712344
 21
278.42041488859536
 31
0.0
  0
LINE
  5
E4
100
AcDbEntity
  8
0
  6
Continuous
 62
               7
100
AcDbLine
 10
237.40336233712367
 20
301.24884201334112
 30
0.0
 11
257.40336233712344
 21
281.24884201334146
 31
0.0
  0
LINE
  5
E5
100
AcDbEntity
  8
0
  6
Continuous
 62
               7
100
AcDbLine
 10
237.40336233712361
 20
304.07726913808722
 30
0.0
 11
257.40336233712344
 21
284.07726913808756
 31
0.0
  0
LINE
  5
E6
100
AcDbEntity
  8
0
  6
Continuous
 62
               7
100
AcDbLine
 10
237.40336233712361
 20
306.90569626283343
 30
0.0
 11
257.40336233712344
 21
286.90569626283377
 31
0.0
  0
LINE
  5
E7
100
AcDbEntity
  8
0
  6
Continuous
 62
               7
100
AcDbLine
 10
237.40336233712361
 20
309.73412338757964
 30
0.0
 11
257.40336233712344
 21
289.73412338757998
 31
0.0
  0
LINE
  5
E8
100
AcDbEntity
  8
0
  6
Continuous
 62
               7
100
AcDbLine
 10
237.40336233712361
 20
312.56255051232574
 30
0.0
 11
257.40336233712344
 21
292.56255051232608
 31
0.0
  0
LINE
  5
E9
100
AcDbEntity
  8
0
  6
Continuous
 62
               7
100
AcDbLine
 10
249.87392508559981
 20
254.83715376791099
 30
0.0
 11
237.40336233712378
 21
267.3077165163869
 31
0.0
  0
LINE
  5
EA
100
AcDbEntity
  8
0
  6
Continuous
 62
               7
100
AcDbLine
 10
238.56021658661507
 20
254.83715376791099
 30
0.0
 11
237.40336233712384
 21
255.99400801740222
 31
0.0
  0
LINE
  5
EB
100
AcDbEntity
  8
0
  6
Continuous
 62
               7
100
AcDbLine
 10
241.38864371136134
 20
254.83715376791099
 30
0.0
 11
237.40336233712384
 21
258.82243514214849
 31
0.0
  0
LINE
  5
EC
100
AcDbEntity
  8
0
  6
Continuous
 62
               7
100
AcDbLine
 10
244.21707083610755
 20
254.83715376791099
 30
0.0
 11
237.40336233712384
 21
261.65086226689459
 31
0.0
  0
LINE
  5
ED
100
AcDbEntity
  8
0
  6
Continuous
 62
               7
100
AcDbLine
 10
247.04549796085382
 20
254.83715376791099
 30
0.0
 11
237.40336233712384
 21
264.47928939164092
 31
0.0
  0
LINE
  5
EE
100
AcDbEntity
  8
0
  6
Continuous
 62
               7
100
AcDbLine
 10
252.70235221034608
 20
254.83715376791099
 30
0.0
 11
237.40336233712378
 21
270.13614364113312
 31
0.0
  0
LINE
  5
EF
100
AcDbEntity
  8
0
  6
Continuous
 62
               7
100
AcDbLine
 10
255.53077933509229
 20
254.83715376791099
 30
0.0
 11
237.40336233712378
 21
272.96457076587933
 31
0.0
  0
LINE
  5
F0
100
AcDbEntity
  8
0
  6
Continuous
 62
               3
100
AcDbLine
 10
327.40336233712378
 20
269.83715376791099
 30
0.0
 11
327.40336233712367
 21
314.83715376791099
 31
0.0
  0
LINE
  5
F1
100
AcDbEntity
  8
0
  6
Continuous
 62
               7
100
AcDbLine
 10
282.40336233712361
 20
314.83715376791099
 30
0.0
 11
327.40336233712378
 21
269.83715376791099
 31
0.0
  0
LINE
  5
F2
100
AcDbEntity
  8
0
  6
Continuous
 62
               7
100
AcDbLine
 10
327.40336233712361
 20
314.8371537679111
 30
0.0
 11
282.4033623371235
 21
269.8371537679111
 31
0.0
  0
LINE
  5
F3
100
AcDbEntity
  8
0
  6
Continuous
 62
               7
100
AcDbLine
 10
257.40336233712412
 20
182.25389264722611
 30
0.0
 11
282.40336233712389
 21
207.25389264722583
 31
0.0
  0
LINE
  5
F4
100
AcDbEntity
  8
0
  6
Continuous
 62
               7
100
AcDbLine
 10
257.40336233712412
 20
179.42546552247978
 30
0.0
 11
282.40336233712395
 21
204.42546552247956
 31
0.0
  0
LINE
  5
F5
100
AcDbEntity
  8
0
  6
Continuous
 62
               7
100
AcDbLine
 10
257.40336233712412
 20
176.5970383977338
 30
0.0
 11
282.40336233712401
 21
201.59703839773351
 31
0.0
  0
LINE
  5
F6
100
AcDbEntity
  8
0
  6
Continuous
 62
               7
100
AcDbLine
 10
257.40336233712412
 20
173.76861127298773
 30
0.0
 11
282.40336233712395
 21
198.76861127298741
 31
0.0
  0
LINE
  5
F7
100
AcDbEntity
  8
0
  6
Continuous
 62
               7
100
AcDbLine
 10
257.40336233712412
 20
170.94018414824131
 30
0.0
 11
282.40336233712395
 21
195.94018414824123
 31
0.0
  0
LINE
  5
F8
100
AcDbEntity
  8
0
  6
Continuous
 62
               7
100
AcDbLine
 10
257.40336233712418
 20
168.11175702349539
 30
0.0
 11
282.40336233712395
 21
193.11175702349504
 31
0.0
  0
LINE
  5
F9
100
AcDbEntity
  8
0
  6
Continuous
 62
               7
100
AcDbLine
 10
257.40336233712412
 20
165.28332989874912
 30
0.0
 11
282.40336233712401
 21
190.28332989874886
 31
0.0
  0
LINE
  5
FA
100
AcDbEntity
  8
0
  6
Continuous
 62
               7
100
AcDbLine
 10
236.27632070018922
 20
270.41558089265698
 30
0.0
 11
236.27632070018961
 21
259.91558089265698
 31
0.0
  0
LINE
  5
FB
100
AcDbEntity
  8
0
  6
Continuous
 62
               7
100
AcDbLine
 10
235.77632070018961
 20
259.91558089265709
 30
0.0
 11
236.27632070018961
 21
259.91558089265698
 31
0.0
  0
LINE
  5
FC
100
AcDbEntity
  8
0
  6
Continuous
 62
               7
100
AcDbLine
 10
235.27632070018876
 20
269.91558089265652
 30
0.0
 11
235.27632070018916
 21
260.41558089265675
 31
0.0
  0
LINE
  5
FD
100
AcDbEntity
  8
0
  6
Continuous
 62
               7
100
AcDbLine
 10
235.77632070018922
 20
270.41558089265686
 30
0.0
 11
236.27632070018922
 21
270.41558089265698
 31
0.0
  0
LINE
  5
FE
100
AcDbEntity
  8
0
  6
Continuous
 62
               7
100
AcDbLine
 10
266.27632070019098
 20
267.16558089265595
 30
0.0
 11
236.27632070018922
 21
267.16558089265664
 31
0.0
  0
LINE
  5
FF
100
AcDbEntity
  8
0
  6
Continuous
 62
               7
100
AcDbLine
 10
268.27632070018939
 20
265.165580892658
 30
0.0
 11
266.27632070019098
 21
267.16558089265595
 31
0.0
  0
LINE
  5
100
100
AcDbEntity
  8
0
  6
Continuous
 62
               7
100
AcDbLine
 10
266.27632070018825
 20
263.16558089265698
 30
0.0
 11
268.27632070018939
 21
265.165580892658
 31
0.0
  0
LINE
  5
101
100
AcDbEntity
  8
0
  6
Continuous
 62
               7
100
AcDbLine
 10
266.27632070018825
 20
263.16558089265698
 30
0.0
 11
236.27632070018916
 21
263.16558089265709
 31
0.0
  0
LINE
  5
102
100
AcDbEntity
  8
0
  6
Continuous
 62
               3
100
AcDbLine
 10
717.07346841704691
 20
269.83715376791088
 30
0.0
 11
282.40336233712361
 21
269.83715376791099
 31
0.0
  0
LINE
  5
103
100
AcDbEntity
  8
0
  6
Continuous
 62
               3
100
AcDbLine
 10
717.07346841704691
 20
326.83715376791088
 30
0.0
 11
237.40336233712355
 21
326.83715376791099
 31
0.0
  0
LINE
  5
104
100
AcDbEntity
  8
0
  6
Continuous
 62
               3
100
AcDbLine
 10
717.07346841704702
 20
314.83715376791099
 30
0.0
 11
237.40336233712361
 21
314.83715376791099
 31
0.0
  0
LINE
  5
105
100
AcDbEntity
  8
0
  6
Continuous
 62
               7
100
AcDbLine
 10
717.07346841704702
 20
316.83715376791088
 30
0.0
 11
237.40336233712361
 21
316.8371537679111
 31
0.0
  0
LINE
  5
106
100
AcDbEntity
  8
0
  6
Continuous
 62
               7
100
AcDbLine
 10
717.07346841704702
 20
318.83715376791099
 30
0.0
 11
237.40336233712361
 21
318.83715376791088
 31
0.0
  0
LINE
  5
107
100
AcDbEntity
  8
0
  6
Continuous
 62
               7
100
AcDbLine
 10
717.07346841704702
 20
320.83715376791088
 30
0.0
 11
237.40336233712361
 21
320.83715376791099
 31
0.0
  0
LINE
  5
108
100
AcDbEntity
  8
0
  6
Continuous
 62
               7
100
AcDbLine
 10
717.07346841704702
 20
322.83715376791088
 30
0.0
 11
237.40336233712355
 21
322.83715376791088
 31
0.0
  0
LINE
  5
109
100
AcDbEntity
  8
0
  6
Continuous
 62
               7
100
AcDbLine
 10
717.07346841704702
 20
324.83715376791088
 30
0.0
 11
237.40336233712355
 21
324.83715376791099
 31
0.0
  0
LINE
  5
10A
100
AcDbEntity
  8
0
  6
Continuous
 62
               3
100
AcDbLine
 10
717.07346841704691
 20
179.83715376791088
 30
0.0
 11
282.40336233712361
 21
179.83715376791096
 31
0.0
  0
LINE
  5
10B
100
AcDbEntity
  8
0
  6
DASHED
 62
               6
100
AcDbLine
 10
717.07346841704691
 20
327.83715376791099
 30
0.0
 11
237.40336233712361
 21
327.8371537679111
 31
0.0
  0
LINE
  5
10C
100
AcDbEntity
  8
0
  6
Continuous
 62
               6
100
AcDbLine
 10
334.78596841704717
 20
373.83715376791088
 30
0.0
 11
334.78596841704729
 21
371.39551917727124
 31
0.0
  0
LINE
  5
10D
100
AcDbEntity
  8
0
  6
Continuous
 62
               6
100
AcDbLine
 10
348.78596841704717
 20
373.83715376791088
 30
0.0
 11
348.78596841704723
 21
371.39551917727147
 31
0.0
  0
LINE
  5
10E
100
AcDbEntity
  8
0
  6
DASHED
 62
               6
100
AcDbLine
 10
340.17835858762044
 20
373.83715376791076
 30
0.0
 11
338.05312840193034
 21
371.71192358222072
 31
0.0
  0
LINE
  5
10F
100
AcDbEntity
  8
0
  6
DASHED
 62
               6
100
AcDbLine
 10
337.34993146287417
 20
373.83715376791076
 30
0.0
 11
334.92583630732258
 21
371.41305861235912
 31
0.0
  0
LINE
  5
110
100
AcDbEntity
  8
0
  6
DASHED
 62
               6
100
AcDbLine
 10
343.00678571236665
 20
373.83715376791076
 30
0.0
 11
341.00125752609716
 21
371.83162558164122
 31
0.0
  0
LINE
  5
111
100
AcDbEntity
  8
0
  6
DASHED
 62
               6
100
AcDbLine
 10
345.83521283711281
 20
373.83715376791076
 30
0.0
 11
343.79882879612097
 21
371.80076972691893
 31
0.0
  0
LINE
  5
112
100
AcDbEntity
  8
0
  6
DASHED
 62
               6
100
AcDbLine
 10
348.66363996185908
 20
373.83715376791076
 30
0.0
 11
346.46661456609456
 21
371.64012837214625
 31
0.0
  0
LINE
  5
113
100
AcDbEntity
  8
0
  6
Continuous
 62
               2
100
AcDbLine
 10
268.40336233712361
 20
363.8371537679111
 30
0.0
 11
268.40336233712344
 21
328.83715376791099
 31
0.0
  0
LINE
  5
114
100
AcDbEntity
  8
0
  6
Continuous
 62
               7
100
AcDbLine
 10
268.53154898825426
 20
345.76368166590908
 30
0.0
 11
268.53154898825392
 21
356.26368166590908
 31
0.0
  0
LINE
  5
115
100
AcDbEntity
  8
0
  6
Continuous
 62
               7
100
AcDbLine
 10
269.03154898825392
 20
356.26368166590885
 30
0.0
 11
268.53154898825392
 21
356.26368166590908
 31
0.0
  0
LINE
  5
116
100
AcDbEntity
  8
0
  6
Continuous
 62
               7
100
AcDbLine
 10
269.53154898825477
 20
346.26368166590953
 30
0.0
 11
269.53154898825431
 21
355.7636816659093
 31
0.0
  0
LINE
  5
117
100
AcDbEntity
  8
0
  6
Continuous
 62
               7
100
AcDbLine
 10
269.03154898825426
 20
345.76368166590908
 30
0.0
 11
268.53154898825426
 21
345.76368166590908
 31
0.0
  0
LINE
  5
118
100
AcDbEntity
  8
0
  6
Continuous
 62
               7
100
AcDbLine
 10
245.53154898825431
 20
353.01368166590896
 30
0.0
 11
268.53154898825431
 21
353.01368166590885
 31
0.0
  0
LINE
  5
119
100
AcDbEntity
  8
0
  6
Continuous
 62
               7
100
AcDbLine
 10
243.53154898825386
 20
351.01368166590851
 30
0.0
 11
245.53154898825386
 21
353.01368166590828
 31
0.0
  0
LINE
  5
11A
100
AcDbEntity
  8
0
  6
Continuous
 62
               7
100
AcDbLine
 10
245.53154898825295
 20
349.01368166590987
 30
0.0
 11
243.53154898825386
 21
351.01368166590851
 31
0.0
  0
LINE
  5
11B
100
AcDbEntity
  8
0
  6
Continuous
 62
               7
100
AcDbLine
 10
245.53154898825295
 20
349.01368166590987
 30
0.0
 11
268.53154898825431
 21
349.0136816659093
 31
0.0
  0
LINE
  5
11C
100
AcDbEntity
  8
0
  6
Continuous
 62
               2
100
AcDbLine
 10
383.28086415761589
 20
351.99283841393719
 30
0.0
 11
374.62061011977153
 21
356.99283841393719
 31
0.0
  0
LINE
  5
11D
100
AcDbEntity
  8
0
  6
Continuous
 62
               2
100
AcDbLine
 10
364.26497592838842
 20
373.83715376791088
 30
0.0
 11
384.695077719989
 21
353.4070519763103
 31
0.0
  0
LINE
  5
11E
100
AcDbEntity
  8
0
  6
Continuous
 62
               2
100
AcDbLine
 10
364.26497592838842
 20
373.83715376791088
 30
0.0
 11
236.40336233712361
 21
373.83715376791076
 31
0.0
  0
LINE
  5
11F
100
AcDbEntity
  8
0
  6
Continuous
 62
               7
100
AcDbLine
 10
650.47346841704666
 20
374.19306101055111
 30
0.0
 11
639.97346841704666
 21
374.19306101055065
 31
0.0
  0
LINE
  5
120
100
AcDbEntity
  8
0
  6
Continuous
 62
               7
100
AcDbLine
 10
639.973468417047
 20
374.69306101055076
 30
0.0
 11
639.97346841704666
 21
374.19306101055065
 31
0.0
  0
LINE
  5
121
100
AcDbEntity
  8
0
  6
Continuous
 62
               7
100
AcDbLine
 10
650.47346841704666
 20
374.69306101055122
 30
0.0
 11
650.47346841704666
 21
374.19306101055111
 31
0.0
  0
LINE
  5
122
100
AcDbEntity
  8
0
  6
Continuous
 62
               7
100
AcDbLine
 10
649.22346841704677
 20
374.19306101055111
 30
0.0
 11
649.22346841704677
 21
371.83715376791054
 31
0.0
  0
LINE
  5
123
100
AcDbEntity
  8
0
  6
Continuous
 62
               7
100
AcDbLine
 10
645.22346841704973
 20
304.19306101055099
 30
0.0
 11
643.2234684170503
 21
306.19306101055145
 31
0.0
  0
LINE
  5
124
100
AcDbEntity
  8
0
  6
Continuous
 62
               7
100
AcDbLine
 10
647.22346841704507
 20
306.19306101054656
 30
0.0
 11
645.22346841704973
 21
304.19306101055099
 31
0.0
  0
LINE
  5
125
100
AcDbEntity
  8
0
  6
Continuous
 62
               7
100
AcDbLine
 10
643.223468417047
 20
371.83715376791054
 30
0.0
 11
643.22346841704723
 21
306.19306101055452
 31
0.0
  0
LINE
  5
126
100
AcDbEntity
  8
0
  6
Continuous
 62
               7
100
AcDbLine
 10
647.22346841704643
 20
371.83715376791054
 30
0.0
 11
647.22346841704507
 21
306.19306101054656
 31
0.0
  0
LINE
  5
127
100
AcDbEntity
  8
0
  6
Continuous
 62
               7
100
AcDbLine
 10
641.22346841704666
 20
371.83715376791054
 30
0.0
 11
641.22346841704655
 21
374.19306101055076
 31
0.0
  0
LINE
  5
128
100
AcDbEntity
  8
0
  6
Continuous
 62
               7
100
AcDbLine
 10
649.22346841704677
 20
371.83715376791054
 30
0.0
 11
641.22346841704666
 21
371.83715376791054
 31
0.0
  0
LINE
  5
129
100
AcDbEntity
  8
0
  6
Continuous
 62
               3
100
AcDbLine
 10
667.72346841704996
 20
269.83715376791099
 30
0.0
 11
667.72346841704984
 21
314.83715376791099
 31
0.0
  0
LINE
  5
12A
100
AcDbEntity
  8
0
  6
Continuous
 62
               7
100
AcDbLine
 10
622.72346841704973
 20
314.83715376791099
 30
0.0
 11
667.72346841704996
 21
269.83715376791099
 31
0.0
  0
LINE
  5
12B
100
AcDbEntity
  8
0
  6
Continuous
 62
               7
100
AcDbLine
 10
667.72346841704973
 20
314.8371537679111
 30
0.0
 11
622.72346841704973
 21
269.8371537679111
 31
0.0
  0
LINE
  5
12C
100
AcDbEntity
  8
0
  6
Continuous
 62
               3
100
AcDbLine
 10
622.7234684170495
 20
269.83715376791099
 30
0.0
 11
622.72346841704962
 21
314.83715376791099
 31
0.0
  0
LINE
  5
12D
100
AcDbEntity
  8
0
  6
Continuous
 62
               3
100
AcDbLine
 10
282.40336233712407
 20
154.83715376791102
 30
0.0
 11
257.40336233712418
 21
154.83715376791102
 31
0.0
  0
LINE
  5
12E
100
AcDbEntity
  8
0
  6
Continuous
 62
               3
100
AcDbLine
 10
257.40336233712418
 20
154.83715376791102
 30
0.0
 11
257.40336233712355
 21
314.83715376791099
 31
0.0
  0
LINE
  5
12F
100
AcDbEntity
  8
0
  6
Continuous
 62
               3
100
AcDbLine
 10
282.40336233712412
 20
154.83715376791102
 30
0.0
 11
282.40336233712361
 21
314.83715376791088
 31
0.0
  0
LINE
  5
130
100
AcDbEntity
  8
0
  6
Continuous
 62
               7
100
AcDbLine
 10
258.27089470527062
 20
154.83715376791102
 30
0.0
 11
282.40336233712395
 21
178.96962139976443
 31
0.0
  0
LINE
  5
131
100
AcDbEntity
  8
0
  6
Continuous
 62
               7
100
AcDbLine
 10
261.09932183001661
 20
154.83715376791102
 30
0.0
 11
282.40336233712395
 21
176.14119427501825
 31
0.0
  0
LINE
  5
132
100
AcDbEntity
  8
0
  6
Continuous
 62
               7
100
AcDbLine
 10
263.92774895476276
 20
154.83715376791102
 30
0.0
 11
282.40336233712401
 21
173.31276715027207
 31
0.0
  0
LINE
  5
133
100
AcDbEntity
  8
0
  6
Continuous
 62
               7
100
AcDbLine
 10
266.75617607950898
 20
154.83715376791102
 30
0.0
 11
282.40336233712401
 21
170.48434002552605
 31
0.0
  0
LINE
  5
134
100
AcDbEntity
  8
0
  6
Continuous
 62
               7
100
AcDbLine
 10
269.58460320425502
 20
154.83715376791102
 30
0.0
 11
282.40336233712401
 21
167.65591290077992
 31
0.0
  0
LINE
  5
135
100
AcDbEntity
  8
0
  6
Continuous
 62
               7
100
AcDbLine
 10
257.40336233712418
 20
162.4549027740029
 30
0.0
 11
282.40336233712401
 21
187.45490277400285
 31
0.0
  0
LINE
  5
136
100
AcDbEntity
  8
0
  6
Continuous
 62
               7
100
AcDbLine
 10
257.40336233712418
 20
159.62647564925726
 30
0.0
 11
282.40336233712401
 21
184.62647564925672
 31
0.0
  0
LINE
  5
137
100
AcDbEntity
  8
0
  6
Continuous
 62
               7
100
AcDbLine
 10
257.40336233712418
 20
156.79804852451099
 30
0.0
 11
282.40336233712395
 21
181.79804852451062
 31
0.0
  0
LINE
  5
138
100
AcDbEntity
  8
0
  6
Continuous
 62
               7
100
AcDbLine
 10
282.40336233712412
 20
164.82748577603405
 30
0.0
 11
272.413030329001
 21
154.83715376791102
 31
0.0
  0
LINE
  5
139
100
AcDbEntity
  8
0
  6
Continuous
 62
               7
100
AcDbLine
 10
282.40336233712412
 20
161.9990586512879
 30
0.0
 11
275.24145745374716
 21
154.83715376791102
 31
0.0
  0
LINE
  5
13A
100
AcDbEntity
  8
0
  6
Continuous
 62
               7
100
AcDbLine
 10
282.40336233712412
 20
159.17063152654174
 30
0.0
 11
278.06988457849337
 21
154.83715376791102
 31
0.0
  0
LINE
  5
13B
100
AcDbEntity
  8
0
  6
Continuous
 62
               7
100
AcDbLine
 10
282.40336233712412
 20
156.34220440179573
 30
0.0
 11
280.89831170323941
 21
154.83715376791102
 31
0.0
  0
LINE
  5
13C
100
AcDbEntity
  8
0
  6
Continuous
 62
               2
100
AcDbLine
 10
231.40336233712316
 20
293.83715376791025
 30
0.0
 11
231.40336233712361
 21
318.83715376791025
 31
0.0
  0
LINE
  5
13D
100
AcDbEntity
  8
0
  6
Continuous
 62
               2
100
AcDbLine
 10
241.63834792739371
 20
250.03787673912038
 30
0.0
 11
237.16061021481786
 21
243.40840730504218
 31
0.0
  0
LINE
  5
13E
100
AcDbEntity
  8
0
  6
Continuous
 62
               2
100
AcDbLine
 10
236.40336233712341
 20
323.83715376791008
 30
0.0
 11
231.40336233712358
 21
318.83715376791025
 31
0.0
  0
LINE
  5
13F
100
AcDbEntity
  8
0
  6
Continuous
 62
               2
100
AcDbLine
 10
236.40336233712341
 20
323.83715376791008
 30
0.0
 11
236.40336233712361
 21
373.83715376791076
 31
0.0
  0
LINE
  5
140
100
AcDbEntity
  8
0
  6
Continuous
 62
               2
100
AcDbLine
 10
236.40336233712341
 20
288.83715376791042
 30
0.0
 11
231.40336233712358
 21
293.83715376791025
 31
0.0
  0
LINE
  5
141
100
AcDbEntity
  8
0
  6
Continuous
 62
               2
100
AcDbLine
 10
236.40336233712409
 20
288.83715376790974
 30
0.0
 11
236.40336233712389
 21
243.83715376791022
 31
0.0
  0
LINE
  5
142
100
AcDbEntity
  8
0
  6
Continuous
 62
               2
100
AcDbLine
 10
319.1607216500139
 20
331.66558089264834
 30
0.0
 11
315.62518774407692
 21
335.20111479858508
 31
0.0
  0
LINE
  5
143
100
AcDbEntity
  8
0
  6
Continuous
 62
               2
100
AcDbLine
 10
269.40336233712344
 20
358.83715376790349
 30
0.0
 11
269.40336233712344
 21
363.8371537679094
 31
0.0
  0
LINE
  5
144
100
AcDbEntity
  8
0
  6
Continuous
 62
               2
100
AcDbLine
 10
323.40336233712367
 20
328.83715376791099
 30
0.0
 11
316.33229452526359
 21
335.90822157977152
 31
0.0
  0
LINE
  5
145
100
AcDbEntity
  8
0
  6
Continuous
 62
               2
100
AcDbLine
 10
323.40336233712367
 20
328.83715376791099
 30
0.0
 11
268.40336233712344
 21
328.83715376791099
 31
0.0
  0
LINE
  5
146
100
AcDbEntity
  8
0
  6
Continuous
 62
               4
100
AcDbLine
 10
396.0
 20
36.0
 30
0.0
 11
396.0
 21
20.0
 31
0.0
  0
LINE
  5
147
100
AcDbEntity
  8
0
  6
Continuous
 62
               4
100
AcDbLine
 10
396.0
 20
20.0
 30
0.0
 11
444.0
 21
20.0
 31
0.0
  0
LINE
  5
148
100
AcDbEntity
  8
0
  6
Continuous
 62
               4
100
AcDbLine
 10
444.0
 20
20.0
 30
0.0
 11
444.0
 21
36.0
 31
0.0
  0
LINE
  5
149
100
AcDbEntity
  8
0
  6
Continuous
 62
               4
100
AcDbLine
 10
444.0
 20
36.0
 30
0.0
 11
396.0
 21
36.0
 31
0.0
  0
CIRCLE
  5
14A
100
AcDbEntity
  8
0
  6
Continuous
 62
               4
100
AcDbCircle
 10
237.40336233712389
 20
218.83715376791105
 30
0.0
 40
1.0
  0
CIRCLE
  5
14B
100
AcDbEntity
  8
0
  6
Continuous
 62
               4
100
AcDbCircle
 10
257.40336233712355
 20
218.83715376791105
 30
0.0
 40
1.0
  0
CIRCLE
  5
14C
100
AcDbEntity
  8
0
  6
Continuous
 62
               4
100
AcDbCircle
 10
236.40336233712355
 20
445.83715376791088
 30
0.0
 40
1.0
  0
CIRCLE
  5
14D
100
AcDbEntity
  8
0
  6
Continuous
 62
               4
100
AcDbCircle
 10
341.78596841704717
 20
445.83715376791088
 30
0.0
 40
1.0
  0
CIRCLE
  5
14E
100
AcDbEntity
  8
0
  6
Continuous
 62
               4
100
AcDbCircle
 10
341.78596841704717
 20
433.83715376791122
 30
0.0
 40
1.0
  0
CIRCLE
  5
14F
100
AcDbEntity
  8
0
  6
Continuous
 62
               4
100
AcDbCircle
 10
493.48596841704705
 20
433.83715376791122
 30
0.0
 40
1.0
  0
CIRCLE
  5
150
100
AcDbEntity
  8
0
  6
Continuous
 62
               4
100
AcDbCircle
 10
493.48596841704705
 20
433.83715376791122
 30
0.0
 40
1.0
  0
CIRCLE
  5
151
100
AcDbEntity
  8
0
  6
Continuous
 62
               4
100
AcDbCircle
 10
645.18596841704687
 20
433.83715376791133
 30
0.0
 40
1.0
  0
CIRCLE
  5
152
100
AcDbEntity
  8
0
  6
Continuous
 62
               4
100
AcDbCircle
 10
441.63596841704651
 20
328.83715376791099
 30
0.0
 40
1.0
  0
CIRCLE
  5
153
100
AcDbEntity
  8
0
  6
Continuous
 62
               4
100
AcDbCircle
 10
441.6359684170464
 20
371.83715376791076
 30
0.0
 40
1.0
  0
ARC
  5
154
100
AcDbEntity
  8
0
  6
Continuous
 62
               7
100
AcDbCircle
 10
341.78596841704723
 20
372.43056101055095
 30
0.0
 40
6.7625000000001956
100
AcDbArc
 50
39.073309876260055
 51
140.92669012374091
  0
ARC
  5
155
100
AcDbEntity
  8
0
  6
Continuous
 62
               7
100
AcDbCircle
 10
235.77632070018961
 20
260.41558089265686
 30
0.0
 40
0.5
100
AcDbArc
 50
179.99999999999986
 51
269.99999999999989
  0
ARC
  5
156
100
AcDbEntity
  8
0
  6
Continuous
 62
               7
100
AcDbCircle
 10
235.77632070018922
 20
269.91558089265686
 30
0.0
 40
0.5
100
AcDbArc
 50
89.999999999999687
 51
179.99999999999986
  0
ARC
  5
157
100
AcDbEntity
  8
0
  6
Continuous
 62
               7
100
AcDbCircle
 10
269.03154898825386
 20
355.76368166590908
 30
0.0
 40
0.5
100
AcDbArc
 50
0.0
 51
89.999999999999915
  0
ARC
  5
158
100
AcDbEntity
  8
0
  6
Continuous
 62
               7
100
AcDbCircle
 10
269.03154898825431
 20
346.26368166590908
 30
0.0
 40
0.5
100
AcDbArc
 50
269.99999999999972
 51
0.0
  0
ARC
  5
159
100
AcDbEntity
  8
0
  6
Continuous
 62
               2
100
AcDbCircle
 10
341.78596841704723
 20
327.63818574465449
 30
0.0
 40
44.1989680232561
100
AcDbArc
 50
30.901472448533983
 51
149.09852755146596
  0
ARC
  5
15A
100
AcDbEntity
  8
0
  6
Continuous
 62
               2
100
AcDbCircle
 10
493.48596841704705
 20
327.63818574465449
 30
0.0
 40
44.1989680232561
100
AcDbArc
 50
30.901472448533983
 51
149.09852755146596
  0
ARC
  5
15B
100
AcDbEntity
  8
0
  6
Continuous
 62
               2
100
AcDbCircle
 10
417.63596841704714
 20
373.03612179116681
 30
0.0
 40
44.198968023255816
100
AcDbArc
 50
210.90147244853341
 51
329.09852755146659
  0
ARC
  5
15C
100
AcDbEntity
  8
0
  6
Continuous
 62
               2
100
AcDbCircle
 10
645.18596841704687
 20
327.63818574465449
 30
0.0
 40
44.1989680232561
100
AcDbArc
 50
30.901472448533983
 51
149.09852755146596
  0
ARC
  5
15D
100
AcDbEntity
  8
0
  6
Continuous
 62
               2
100
AcDbCircle
 10
569.33596841704696
 20
373.03612179116681
 30
0.0
 40
44.198968023255816
100
AcDbArc
 50
210.90147244853341
 51
329.09852755146659
  0
ARC
  5
15E
100
AcDbEntity
  8
0
  6
Continuous
 62
               2
100
AcDbCircle
 10
721.03596841704689
 20
373.03612179116692
 30
0.0
 40
44.198968023255816
100
AcDbArc
 50
210.90147244853381
 51
264.85644645720294
  0
ARC
  5
15F
100
AcDbEntity
  8
0
  6
Continuous
 62
               2
100
AcDbCircle
 10
383.98797093880245
 20
352.69994519512375
 30
0.0
 40
1.000000000000008
100
AcDbArc
 50
224.99999999999997
 51
45.0
  0
ARC
  5
160
100
AcDbEntity
  8
0
  6
Continuous
 62
               7
100
AcDbCircle
 10
645.22346841704677
 20
370.43056101055072
 30
0.0
 40
6.7625000000001956
100
AcDbArc
 50
39.073309876260055
 51
140.92669012374091
  0
ARC
  5
161
100
AcDbEntity
  8
0
  6
Continuous
 62
               2
100
AcDbCircle
 10
236.90336233712387
 20
243.83715376791022
 30
0.0
 40
0.499999999999958
100
AcDbArc
 50
180.0
 51
300.96375652943891
  0
ARC
  5
162
100
AcDbEntity
  8
0
  6
Continuous
 62
               2
100
AcDbCircle
 10
315.97874113467026
 20
335.55466818917819
 30
0.0
 40
0.499999999999924
100
AcDbArc
 50
45.000000000000036
 51
224.99999999999997
  0
ARC
  5
163
100
AcDbEntity
  8
0
  6
Continuous
 62
               2
100
AcDbCircle
 10
268.90336233712344
 20
363.8371537679094
 30
0.0
 40
0.500000000000114
100
AcDbArc
 50
0.0
 51
180.0
  0
TEXT
  5
164
100
AcDbEntity
  8
0
 62
               7
100
AcDbText
 10
243.40336233712372
 20
218.83715376791105
 30
0.0
 40
8.0
  1
20
 41
0.7695
  7
FontTableH_0
 72
               5
 11
251.40336233712372
 21
218.83715376791105
 31
0.0
100
AcDbText
  0
TEXT
  5
165
100
AcDbEntity
  8
0
 62
               7
100
AcDbText
 10
336.34124652507938
 20
238.12863853509629
 30
0.0
 40
8.0000000000000568
  1
たる木
 41
0.7695
  7
FontTableH_0
 72
               5
 11
360.34124652507938
 21
238.12863853509629
 31
0.0
100
AcDbText
  0
TEXT
  5
166
100
AcDbEntity
  8
0
 62
               7
100
AcDbText
 10
269.09466537708533
 20
445.83715376791088
 30
0.0
 40
8.0
  1
現場合わせ
 41
0.7695
  7
FontTableH_0
 72
               5
 11
309.09466537708533
 21
445.83715376791088
 31
0.0
100
AcDbText
  0
TEXT
  5
167
100
AcDbEntity
  8
0
 62
               7
100
AcDbText
 10
264.3011047339196
 20
416.41445094494907
 30
0.0
 40
8.0
  1
タッピング 70
 41
0.7695
  7
FontTableH_0
 72
               5
 11
316.3011047339196
 21
416.4144509449518
 31
0.0
100
AcDbText
  0
TEXT
  5
168
100
AcDbEntity
  8
0
 62
               7
100
AcDbText
 10
169.18312845284399
 20
342.93113029553524
 30
0.0
 40
8.0
  1
けらば包み
 41
0.7695
  7
FontTableH_0
 72
               5
 11
209.18312845284399
 21
342.93113029553524
 31
0.0
100
AcDbText
  0
TEXT
  5
169
100
AcDbEntity
  8
0
 62
               7
100
AcDbText
 10
136.81485599350313
 20
440.68115121518963
 30
0.0
 40
8.0
  1
けらば桟木 30X40
 41
0.7695
  7
FontTableH_0
 72
               5
 11
200.81485599350313
 21
440.68115121518963
 31
0.0
100
AcDbText
  0
TEXT
  5
16A
100
AcDbEntity
  8
0
 62
               7
100
AcDbText
 10
168.24471151135916
 20
466.59984356502434
 30
0.0
 40
8.0000000000001137
  1
けらば捨て谷
 41
0.7695
  7
FontTableH_0
 72
               5
 11
216.24471151135916
 21
466.59984356502616
 31
0.0
100
AcDbText
  0
TEXT
  5
16B
100
AcDbEntity
  8
0
 62
               7
100
AcDbText
 10
407.63596841704714
 20
433.83715376791122
 30
0.0
 40
8.0
  1
151.7
 41
0.7695
  7
FontTableH_0
 72
               5
 11
427.63596841704714
 21
433.83715376791122
 31
0.0
100
AcDbText
  0
TEXT
  5
16C
100
AcDbEntity
  8
0
 62
               7
100
AcDbText
 10
559.33596841704696
 20
433.83715376791133
 30
0.0
 40
8.0
  1
151.7
 41
0.7695
  7
FontTableH_0
 72
               5
 11
579.33596841704696
 21
433.83715376791133
 31
0.0
100
AcDbText
  0
TEXT
  5
16D
100
AcDbEntity
  8
0
 62
               7
100
AcDbText
 10
434.66240836305076
 20
292.39254504053633
 30
0.0
 40
8.0
  1
野地板 12
 41
0.7695
  7
FontTableH_0
 72
               5
 11
470.66240836305087
 21
292.39254504053633
 31
0.0
100
AcDbText
  0
TEXT
  5
16E
100
AcDbEntity
  8
0
 62
               7
100
AcDbText
 10
441.63596841704646
 20
346.33715376791088
 30
0.0
 40
8.0
  1
43
 50
90.000000000000028
 41
0.7695
  7
FontTableH_0
 72
               5
 11
441.63596841704646
 21
354.33715376791088
 31
0.0
100
AcDbText
  0
TEXT
  5
16F
100
AcDbEntity
  8
0
 62
               7
100
AcDbText
 10
116.52620338660577
 20
221.58458111364786
 30
0.0
 40
8.0000000000000568
  1
カラーステンレスくぎ 32
 41
0.7695
  7
FontTableH_0
 72
               5
 11
208.52620338660577
 21
221.58458111364786
 31
0.0
100
AcDbText
  0
TEXT
  5
170
100
AcDbEntity
  8
0
 62
               7
100
AcDbText
 10
155.87209796314499
 20
197.59408427038704
 30
0.0
 40
8.0000000000000568
  1
登り桟木 20X60
 41
0.7695
  7
FontTableH_0
 72
               5
 11
211.87209796314499
 21
197.59408427038704
 31
0.0
100
AcDbText
  0
TEXT
  5
171
100
AcDbEntity
  8
0
 62
               7
100
AcDbText
 10
215.34070526908107
 20
165.54737574679496
 30
0.0
 40
8.0
  1
破風板
 41
0.7695
  7
FontTableH_0
 72
               5
 11
239.34070526908107
 21
165.54737574679496
 31
0.0
100
AcDbText
  0
TEXT
  5
172
100
AcDbEntity
  8
0
 62
               7
100
AcDbText
 10
421.76301369863006
 20
158.53561643835619
 30
0.0
 40
8.0
  1
母屋
 41
0.7695
  7
FontTableH_0
 72
               5
 11
437.76301369863006
 21
158.53561643835619
 31
0.0
100
AcDbText
  0
TEXT
  5
173
100
AcDbEntity
  8
0
 62
               7
100
AcDbText
 10
552.65323149205142
 20
278.34357092775883
 30
0.0
 40
8.0
  1
タッピング 70
 41
0.7695
  7
FontTableH_0
 72
               5
 11
604.65323149205142
 21
278.34357092775883
 31
0.0
100
AcDbText
  0
TEXT
  5
174
100
AcDbEntity
  8
0
 62
               7
100
AcDbText
 10
579.48880327245047
 20
393.43134512937593
 30
0.0
 40
8.0
  1
アスファルトルーフィング 22kg
 41
0.7695
  7
FontTableH_0
 72
               5
 11
695.48880327245047
 21
393.43134512937593
 31
0.0
100
AcDbText
  0
TEXT
  5
175
100
AcDbEntity
  8
0
 62
               7
100
AcDbText
 10
569.67858637747327
 20
412.58088850837134
 30
0.0
 40
8.0
  1
フィンルーフ本体
 41
0.7695
  7
FontTableH_0
 72
               5
 11
633.67858637747327
 21
412.58088850837134
 31
0.0
100
AcDbText
  0
TEXT
  5
176
100
AcDbEntity
  8
0
 62
               7
100
AcDbText
 10
364.35393255055243
 20
402.7522726529096
 30
0.0
 40
8.0
  1
けらばケミカル面戸
 41
0.7695
  7
FontTableH_0
 72
               5
 11
436.35393255055243
 21
402.7522726529096
 31
0.0
100
AcDbText
  0
TEXT
  5
177
100
AcDbEntity
  8
図枠
 62
               7
100
AcDbText
 10
400.0
 20
24.0
 30
0.0
 40
8.0
  1
けらば納め
 41
0.7695
  7
FontTableH_0
 72
               5
 11
440.0
 21
24.0
 31
0.0
100
AcDbText
  0
ENDSEC
  0
SECTION
  2
OBJECTS
  0
DICTIONARY
  5
19
100
AcDbDictionary
  3
ACAD_GROUP
350
1A
  3
ACAD_MLINESTYLE
350
1B
  3
DWGPROPS
350
178
  0
DICTIONARY
  5
1A
102
{ACAD_REACTORS
330
19
102
}
100
AcDbDictionary
  0
DICTIONARY
  5
1B
102
{ACAD_REACTORS
330
19
102
}
100
AcDbDictionary
  3
STANDARD
350
1C
  0
MLINESTYLE
  5
1C
102
{ACAD_REACTORS
330
1B
102
}
100
AcDbMlineStyle
  2
Standard
 70
               0
  3

 62
               0
 51
90.0
 52
90.0
 71
               2
 49
0.5
 62
             256
  6
ByLayer
 49
-0.5
 62
             256
  6
ByLayer
  0
XRECORD
  5
178
100
AcDbXrecord
  1
DWGPROPS COOKIE
  2

  3

  4

  6

  7

  0
ENDSEC
  0
EOF
