  0
SECTION
  2
HEADER
  9
$ACADVER
  1
AC1014
  9
$ACADMAINTVER
 70
               0
  9
$DWGCODEPAGE
  3
ANSI_932
  9
$INSBASE
 10
0.0
 20
0.0
 30
0.0
  9
$EXTMIN
 10
0.0
 20
0.0
 30
0.0
  9
$EXTMAX
 10
891.00000000000091
 20
630.00000000000068
 30
0.0
  9
$LIMMIN
 10
0.0
 20
0.0
  9
$LIMMAX
 10
891.00000000000091
 20
630.00000000000068
  9
$ORTHOMODE
 70
               0
  9
$REGENMODE
 70
               1
  9
$FILLMODE
 70
               1
  9
$QTEXTMODE
 70
               0
  9
$MIRRTEXT
 70
               1
  9
$DRAGMODE
 70
               2
  9
$LTSCALE
 40
3.0000000000000031
  9
$OSMODE
 70
               0
  9
$ATTMODE
 70
               1
  9
$TEXTSIZE
 40
0.2
  9
$TRACEWID
 40
0.05
  9
$TEXTSTYLE
  7
Standard
  9
$CLAYER
  8
0
  9
$CELTYPE
  6
Continuous
  9
$CECOLOR
 62
             256
  9
$CELTSCALE
 40
1.0
  9
$DELOBJ
 70
               1
  9
$DISPSILH
 70
               0
  9
$DIMSCALE
 40
1.0
  9
$DIMASZ
 40
0.18
  9
$DIMEXO
 40
0.0625
  9
$DIMDLI
 40
0.38
  9
$DIMRND
 40
0.0
  9
$DIMDLE
 40
0.0
  9
$DIMEXE
 40
0.18
  9
$DIMTP
 40
0.0
  9
$DIMTM
 40
0.0
  9
$DIMTXT
 40
0.18
  9
$DIMCEN
 40
0.09
  9
$DIMTSZ
 40
0.0
  9
$DIMTOL
 70
               0
  9
$DIMLIM
 70
               0
  9
$DIMTIH
 70
               1
  9
$DIMTOH
 70
               1
  9
$DIMSE1
 70
               0
  9
$DIMSE2
 70
               0
  9
$DIMTAD
 70
               0
  9
$DIMZIN
 70
               0
  9
$DIMBLK
  1

  9
$DIMASO
 70
               1
  9
$DIMSHO
 70
               1
  9
$DIMPOST
  1

  9
$DIMAPOST
  1

  9
$DIMALT
 70
               0
  9
$DIMALTD
 70
               2
  9
$DIMALTF
 40
25.399999999999999
  9
$DIMLFAC
 40
1.0
  9
$DIMTOFL
 70
               0
  9
$DIMTVP
 40
0.0
  9
$DIMTIX
 70
               0
  9
$DIMSOXD
 70
               0
  9
$DIMSAH
 70
               0
  9
$DIMBLK1
  1

  9
$DIMBLK2
  1

  9
$DIMSTYLE
  2
Standard
  9
$DIMCLRD
 70
               0
  9
$DIMCLRE
 70
               0
  9
$DIMCLRT
 70
               0
  9
$DIMTFAC
 40
1.0
  9
$DIMGAP
 40
0.09
  9
$DIMJUST
 70
               0
  9
$DIMSD1
 70
               0
  9
$DIMSD2
 70
               0
  9
$DIMTOLJ
 70
               1
  9
$DIMTZIN
 70
               0
  9
$DIMALTZ
 70
               0
  9
$DIMALTTZ
 70
               0
  9
$DIMFIT
 70
               3
  9
$DIMUPT
 70
               0
  9
$DIMUNIT
 70
               2
  9
$DIMDEC
 70
               4
  9
$DIMTDEC
 70
               4
  9
$DIMALTU
 70
               2
  9
$DIMALTTD
 70
               2
  9
$DIMTXSTY
  7
Standard
  9
$DIMAUNIT
 70
               0
  9
$LUNITS
 70
               2
  9
$LUPREC
 70
               4
  9
$SKETCHINC
 40
0.1
  9
$FILLETRAD
 40
0.0
  9
$AUNITS
 70
               0
  9
$AUPREC
 70
               0
  9
$MENU
  1
acad
  9
$ELEVATION
 40
0.0
  9
$PELEVATION
 40
0.0
  9
$THICKNESS
 40
0.0
  9
$LIMCHECK
 70
               0
  9
$BLIPMODE
 70
               1
  9
$CHAMFERA
 40
0.0
  9
$CHAMFERB
 40
0.0
  9
$CHAMFERC
 40
0.0
  9
$CHAMFERD
 40
0.0
  9
$SKPOLY
 70
               0
  9
$TDCREATE
 40
0.000000000
  9
$TDUPDATE
 40
0.000000000
  9
$TDINDWG
 40
0.0000000000
  9
$TDUSRTIMER
 40
0.0000000000
  9
$USRTIMER
 70
               1
  9
$ANGBASE
 50
0.0
  9
$ANGDIR
 70
               0
  9
$PDMODE
 70
               0
  9
$PDSIZE
 40
0.0
  9
$PLINEWID
 40
0.0
  9
$COORDS
 70
               0
  9
$SPLFRAME
 70
               0
  9
$SPLINETYPE
 70
               6
  9
$SPLINESEGS
 70
               8
  9
$ATTDIA
 70
               0
  9
$ATTREQ
 70
               1
  9
$HANDLING
 70
               1
  9
$HANDSEED
  5
1E8
  9
$SURFTAB1
 70
               6
  9
$SURFTAB2
 70
               6
  9
$SURFTYPE
 70
               6
  9
$SURFU
 70
               6
  9
$SURFV
 70
               6
  9
$UCSNAME
  2

  9
$UCSORG
 10
0.0
 20
0.0
 30
0.0
  9
$UCSXDIR
 10
1.0
 20
0.0
 30
0.0
  9
$UCSYDIR
 10
0.0
 20
1.0
 30
0.0
  9
$PUCSNAME
  2

  9
$PUCSORG
 10
0.0
 20
0.0
 30
0.0
  9
$PUCSXDIR
 10
1.0
 20
0.0
 30
0.0
  9
$PUCSYDIR
 10
0.0
 20
1.0
 30
0.0
  9
$USERI1
 70
               0
  9
$USERI2
 70
               0
  9
$USERI3
 70
               0
  9
$USERI4
 70
               0
  9
$USERI5
 70
               0
  9
$USERR1
 40
0.0
  9
$USERR2
 40
0.0
  9
$USERR3
 40
0.0
  9
$USERR4
 40
0.0
  9
$USERR5
 40
0.0
  9
$WORLDVIEW
 70
               1
  9
$SHADEDGE
 70
               3
  9
$SHADEDIF
 70
              70
  9
$TILEMODE
 70
               1
  9
$MAXACTVP
 70
              16
  9
$PINSBASE
 10
0.0
 20
0.0
 30
0.0
  9
$PLIMCHECK
 70
               0
  9
$PEXTMIN
 10
1.0000000000000000E+20
 20
1.0000000000000000E+20
 30
1.0000000000000000E+20
  9
$PEXTMAX
 10
-1.0000000000000000E+20
 20
-1.0000000000000000E+20
 30
-1.0000000000000000E+20
  9
$PLIMMIN
 10
0.0
 20
0.0
  9
$PLIMMAX
 10
12.0
 20
9.0
  9
$UNITMODE
 70
               0
  9
$VISRETAIN
 70
               0
  9
$PLINEGEN
 70
               1
  9
$PSLTSCALE
 70
               0
  9
$TREEDEPTH
 70
            3020
  9
$PICKSTYLE
 70
               1
  9
$CMLSTYLE
  2
Standard
  9
$CMLJUST
 70
               0
  9
$CMLSCALE
 40
1.0
  9
$PROXYGRAPHICS
 70
               0
  9
$MEASUREMENT
 70
               0
  0
ENDSEC
  0
SECTION
  2
CLASSES
  0
CLASS
  1
LWPOLYLINE
  2
AcDbPolyline
  3
"AutoCAD"
 90
        0
280
               0
281
               1
  0
CLASS
  1
IMAGE
  2
AcDbRasterImage
  3
ISM
 90
      127
280
               0
281
               1
  0
CLASS
  1
OLE2FRAME
  2
AcDbOle2Frame
  3
""
 90
        0
280
               0
281
               1
  0
CLASS
  1
HATCH
  2
AcDbHatch
  3
"ACAD_SEDONA"
 90
        0
280
               0
281
               1
  0
CLASS
  1
DICTIONARYVAR
  2
AcDbDictionaryVar
  3
"AutoCAD"
 90
        0
280
               0
281
               0
  0
CLASS
  1
RASTERVARIABLES
  2
AcDbRasterVariables
  3
ISM
 90
        0
280
               0
281
               0
  0
CLASS
  1
IMAGEDEF
  2
AcDbRasterImageDef
  3
ISM
 90
        0
280
               0
281
               0
  0
CLASS
  1
IMAGEDEF_REACTOR
  2
AcDbRasterImageDefReactor
  3
ISM
 90
        1
280
               0
281
               0
  0
CLASS
  1
IDBUFFER
  2
AcDbIdBuffer
  3
"Acad"
 90
        0
280
               0
281
               0
  0
CLASS
  1
SPATIAL_FILTER
  2
AcDbSpatialFilter
  3
"Acad"
 90
        0
280
               0
281
               0
  0
CLASS
  1
XRECORD
  2
AcDbXrecord
  3
"<Built In>"
 90
        0
280
               0
281
               0
  0
CLASS
  1
SORTENTSTABLE
  2
AcDbSortentsTable
  3
"AutoCAD"
 90
        0
280
               0
281
               0
  0
CLASS
  1
LAYER_INDEX
  2
AcDbLayerIndex
  3
"Acad"
 90
        0
280
               0
281
               0
  0
CLASS
  1
SPATIAL_INDEX
  2
AcDbSpatialIndex
  3
"Acad"
 90
        0
280
               0
281
               0
  0
CLASS
  1
OBJECT_PTR
  2
CAseDLPNTableRecord
  3
"ASE-LPNTableRecord"
 90
        1
280
               0
281
               0
  0
CLASS
  1
LAYOUT
  2
AcDbLayout
  3
"AutoCAD 2000"
 90
        0
280
               0
281
               0
  0
CLASS
  1
PLOTSETTINGS
  2
AcDbPlotSettings
  3
"AutoCAD 2000"
 90
        0
280
               0
281
               0
  0
CLASS
  1
ACDBDICTIONARYWDFLT
  2
AcDbDictionaryWithDefault
  3
"AutoCAD 2000"
 90
        0
280
               0
281
               0
  0
CLASS
  1
ACDBPLACEHOLDER
  2
AcDbPlaceHolder
  3
"AutoCAD 2000"
 90
        0
280
               0
281
               0
  0
CLASS
  1
VBA_PROJECT
  2
AcDbVbaProject
  3
"acadvba"
 90
        0
280
               0
281
               0
  0
CLASS
  1
WIPEOUT
  2
AcDbWipeout
  3
WipeOut|AutoCAD Express Tool|expresstools@autodesk.com
 90
      127
280
               0
281
               1
  0
CLASS
  1
WIPEOUTVARIABLES
  2
AcDbWipeoutVariables
  3
WipeOut|AutoCAD Express Tool|expresstools@autodesk.com
 90
        0
280
               0
281
               0
  0
CLASS
  1
RTEXT
  2
RText
  3
RText|AutoCAD Express Tool|expresstools@autodesk.com
 90
        0
280
               0
281
               1
  0
CLASS
  1
ARCALIGNEDTEXT
  2
AcDbArcAlignedText
  3
ATEXT|AutoCAD Express Tool|expresstools@autodesk.com
 90
        0
280
               0
281
               1
  0
ENDSEC
  0
SECTION
  2
TABLES
  0
TABLE
  2
VPORT
  5
7
100
AcDbSymbolTable
 70
               1
  0
VPORT
  5
15
100
AcDbSymbolTableRecord
100
AcDbViewportTableRecord
  2
*ACTIVE
 70
               0
 10
0.0
 20
0.0
 11
1.0
 21
1.0
 12
445.50000000000045
 22
315.00000000000034
 13
0.0
 23
0.0
 14
10.0
 24
10.0
 15
10.0
 25
10.0
 16
0.0
 26
0.0
 36
1.0
 17
0.0
 27
0.0
 37
0.0
 40
630.00000000000068
 41
1.4142857142857141
 42
50.0
 43
0.0
 44
0.0
 50
0.0
 51
0.0
 71
               0
 72
             100
 73
               1
 74
               1
 75
               0
 76
               0
 77
               0
 78
               0
  0
ENDTAB
  0
TABLE
  2
LTYPE
  5
4
100
AcDbSymbolTable
 70
              24
  0
LTYPE
  5
11
100
AcDbSymbolTableRecord
100
AcDbLinetypeTableRecord
  2
ByBlock
 70
              64
  3

 72
              65
 73
               0
 40
0.0
  0
LTYPE
  5
12
100
AcDbSymbolTableRecord
100
AcDbLinetypeTableRecord
  2
ByLayer
 70
              64
  3

 72
              65
 73
               0
 40
0.0
  0
LTYPE
  5
13
100
AcDbSymbolTableRecord
100
AcDbLinetypeTableRecord
  2
Continuous
 70
              64
  3
Solid line
 72
              65
 73
               0
 40
0.0
  0
LTYPE
  5
1D
100
AcDbSymbolTableRecord
100
AcDbLinetypeTableRecord
  2
DOT
 70
              64
  3
Dot . . . . . . . . . . . . . . . . . . . . . .
 72
              65
 73
               2
 40
6.3499999999999996
 49
0.35
 74
               0
 49
-6.0
 74
               0
  0
LTYPE
  5
1E
100
AcDbSymbolTableRecord
100
AcDbLinetypeTableRecord
  2
DASHED
 70
              64
  3
Dashed __ __ __ __ __ __ __ __ __ __ __ __ __ _
 72
              65
 73
               2
 40
12.699999999999999
 49
6.3499999999999996
 74
               0
 49
-6.3499999999999996
 74
               0
  0
LTYPE
  5
1F
100
AcDbSymbolTableRecord
100
AcDbLinetypeTableRecord
  2
DASHDOT
 70
              64
  3
Dash dot __ . __ . __ . __ . __ . __ . __ . __
 72
              65
 73
               4
 40
25.399999999999999
 49
12.699999999999999
 74
               0
 49
-6.0
 74
               0
 49
0.7
 74
               0
 49
-6.0
 74
               0
  0
LTYPE
  5
20
100
AcDbSymbolTableRecord
100
AcDbLinetypeTableRecord
  2
DIVIDE
 70
              64
  3
Divide ____ . . ____ . . ____ . . ____ . . ____
 72
              65
 73
               6
 40
31.75
 49
12.699999999999999
 74
               0
 49
-6.0
 74
               0
 49
0.875
 74
               0
 49
-6.0
 74
               0
 49
0.875
 74
               0
 49
-6.0
 74
               0
  0
LTYPE
  5
21
100
AcDbSymbolTableRecord
100
AcDbLinetypeTableRecord
  2
HIDDEN
 70
              64
  3
Hidden __ __ __ __ __ __ __ __ __ __ __ __ __ _
 72
              65
 73
               2
 40
9.5250000000000004
 49
6.3499999999999996
 74
               0
 49
-3.1749999999999998
 74
               0
  0
LTYPE
  5
22
100
AcDbSymbolTableRecord
100
AcDbLinetypeTableRecord
  2
CENTER
 70
              64
  3
Center ____ _ ____ _ ____ _ ____ _ ____ _ ____
 72
              65
 73
               4
 40
50.799999999999997
 49
31.75
 74
               0
 49
-6.3499999999999996
 74
               0
 49
6.3499999999999996
 74
               0
 49
-6.3499999999999996
 74
               0
  0
LTYPE
  5
23
100
AcDbSymbolTableRecord
100
AcDbLinetypeTableRecord
  2
PHANTOM
 70
              64
  3
Phantom ______  __  __  ______  __  __  ______
 72
              65
 73
               6
 40
63.5
 49
31.75
 74
               0
 49
-6.3499999999999996
 74
               0
 49
6.3499999999999996
 74
               0
 49
-6.3499999999999996
 74
               0
 49
6.3499999999999996
 74
               0
 49
-6.3499999999999996
 74
               0
  0
LTYPE
  5
24
100
AcDbSymbolTableRecord
100
AcDbLinetypeTableRecord
  2
ACAD_ISO02W100
 70
              64
  3
ISO dash __ __ __ __ __ __ __ __ __ __ __ __ __
 72
              65
 73
               2
 40
15.0
 49
12.0
 74
               0
 49
-3.0
 74
               0
  0
LTYPE
  5
25
100
AcDbSymbolTableRecord
100
AcDbLinetypeTableRecord
  2
ACAD_ISO03W100
 70
              64
  3
ISO dash space __ __ __ __ __ __ __ __ __ __ __ __ __ __
 72
              65
 73
               2
 40
30.0
 49
12.0
 74
               0
 49
-18.0
 74
               0
  0
LTYPE
  5
26
100
AcDbSymbolTableRecord
100
AcDbLinetypeTableRecord
  2
ACAD_ISO04W100
 70
              64
  3
ISO long-dash dot ____ . ____ . ____ . ____ . _
 72
              65
 73
               4
 40
30.0
 49
24.0
 74
               0
 49
-3.0
 74
               0
 49
0.0
 74
               0
 49
-3.0
 74
               0
  0
LTYPE
  5
27
100
AcDbSymbolTableRecord
100
AcDbLinetypeTableRecord
  2
ACAD_ISO05W100
 70
              64
  3
ISO long-dash double-dot ____ .. ____ .. ____ .
 72
              65
 73
               6
 40
33.0
 49
24.0
 74
               0
 49
-3.0
 74
               0
 49
0.0
 74
               0
 49
-3.0
 74
               0
 49
0.0
 74
               0
 49
-3.0
 74
               0
  0
LTYPE
  5
28
100
AcDbSymbolTableRecord
100
AcDbLinetypeTableRecord
  2
ACAD_ISO06W100
 70
              64
  3
ISO long-dash triple-dot ____ ... ____ ... ____
 72
              65
 73
               8
 40
36.0
 49
24.0
 74
               0
 49
-3.0
 74
               0
 49
0.0
 74
               0
 49
-3.0
 74
               0
 49
0.0
 74
               0
 49
-3.0
 74
               0
 49
0.0
 74
               0
 49
-3.0
 74
               0
  0
LTYPE
  5
29
100
AcDbSymbolTableRecord
100
AcDbLinetypeTableRecord
  2
ACAD_ISO07W100
 70
              64
  3
ISO dot . . . . . . . . . . . . . . . . . . . .
 72
              65
 73
               2
 40
3.0
 49
0.0
 74
               0
 49
-3.0
 74
               0
  0
LTYPE
  5
2A
100
AcDbSymbolTableRecord
100
AcDbLinetypeTableRecord
  2
ACAD_ISO08W100
 70
              64
  3
ISO long-dash short-dash ____ __ ____ __ ____ _
 72
              65
 73
               4
 40
36.0
 49
24.0
 74
               0
 49
-3.0
 74
               0
 49
6.0
 74
               0
 49
-3.0
 74
               0
  0
LTYPE
  5
2B
100
AcDbSymbolTableRecord
100
AcDbLinetypeTableRecord
  2
ACAD_ISO09W100
 70
              64
  3
ISO long-dash double-short-dash ____ __ __ ____
 72
              65
 73
               6
 40
45.0
 49
24.0
 74
               0
 49
-3.0
 74
               0
 49
6.0
 74
               0
 49
-3.0
 74
               0
 49
6.0
 74
               0
 49
-3.0
 74
               0
  0
LTYPE
  5
2C
100
AcDbSymbolTableRecord
100
AcDbLinetypeTableRecord
  2
ACAD_ISO10W100
 70
              64
  3
ISO dash dot __ . __ . __ . __ . __ . __ . __ .
 72
              65
 73
               4
 40
18.0
 49
12.0
 74
               0
 49
-3.0
 74
               0
 49
0.0
 74
               0
 49
-3.0
 74
               0
  0
LTYPE
  5
2D
100
AcDbSymbolTableRecord
100
AcDbLinetypeTableRecord
  2
ACAD_ISO11W100
 70
              64
  3
ISO double-dash dot __ __ . __ __ . __ __ . __ 
 72
              65
 73
               6
 40
33.0
 49
12.0
 74
               0
 49
-3.0
 74
               0
 49
12.0
 74
               0
 49
-3.0
 74
               0
 49
0.0
 74
               0
 49
-3.0
 74
               0
  0
LTYPE
  5
2E
100
AcDbSymbolTableRecord
100
AcDbLinetypeTableRecord
  2
ACAD_ISO12W100
 70
              64
  3
ISO dash double-dot __ . . __ . . __ . . __ . .
 72
              65
 73
               6
 40
21.0
 49
12.0
 74
               0
 49
-3.0
 74
               0
 49
0.0
 74
               0
 49
-3.0
 74
               0
 49
0.0
 74
               0
 49
-3.0
 74
               0
  0
LTYPE
  5
2F
100
AcDbSymbolTableRecord
100
AcDbLinetypeTableRecord
  2
ACAD_ISO13W100
 70
              64
  3
ISO double-dash double-dot __ __ . . __ __ . . 
 72
              65
 73
               8
 40
36.0
 49
12.0
 74
               0
 49
-3.0
 74
               0
 49
12.0
 74
               0
 49
-3.0
 74
               0
 49
0.0
 74
               0
 49
-3.0
 74
               0
 49
0.0
 74
               0
 49
-3.0
 74
               0
  0
LTYPE
  5
30
100
AcDbSymbolTableRecord
100
AcDbLinetypeTableRecord
  2
ACAD_ISO14W100
 70
              64
  3
ISO dash triple-dot __ . . . __ . . . __ . . . 
 72
              65
 73
               8
 40
24.0
 49
12.0
 74
               0
 49
-3.0
 74
               0
 49
0.0
 74
               0
 49
-3.0
 74
               0
 49
0.0
 74
               0
 49
-3.0
 74
               0
 49
0.0
 74
               0
 49
-3.0
 74
               0
  0
LTYPE
  5
31
100
AcDbSymbolTableRecord
100
AcDbLinetypeTableRecord
  2
ACAD_ISO15W100
 70
              64
  3
ISO double-dash double-dot __ __ . . __ __ . . 
 72
              65
 73
              10
 40
39.0
 49
12.0
 74
               0
 49
-3.0
 74
               0
 49
12.0
 74
               0
 49
-3.0
 74
               0
 49
0.0
 74
               0
 49
-3.0
 74
               0
 49
0.0
 74
               0
 49
-3.0
 74
               0
 49
0.0
 74
               0
 49
-3.0
 74
               0
  0
ENDTAB
  0
TABLE
  2
LAYER
  5
2
100
AcDbSymbolTable
 70
              16
  0
LAYER
  5
14
100
AcDbSymbolTableRecord
100
AcDbLayerTableRecord
  2
0
 70
               0
 62
               7
  6
Continuous
  0
LAYER
  5
35
100
AcDbSymbolTableRecord
100
AcDbLayerTableRecord
  2
Layer00001
 70
               0
 62
               7
  6
Continuous
  0
LAYER
  5
36
100
AcDbSymbolTableRecord
100
AcDbLayerTableRecord
  2
Layer00002
 70
               0
 62
               7
  6
Continuous
  0
LAYER
  5
37
100
AcDbSymbolTableRecord
100
AcDbLayerTableRecord
  2
Layer00003
 70
               0
 62
               7
  6
Continuous
  0
LAYER
  5
38
100
AcDbSymbolTableRecord
100
AcDbLayerTableRecord
  2
Layer00004
 70
               0
 62
               7
  6
Continuous
  0
LAYER
  5
39
100
AcDbSymbolTableRecord
100
AcDbLayerTableRecord
  2
Layer00005
 70
               0
 62
               7
  6
Continuous
  0
LAYER
  5
3A
100
AcDbSymbolTableRecord
100
AcDbLayerTableRecord
  2
Layer00006
 70
               0
 62
               7
  6
Continuous
  0
LAYER
  5
3B
100
AcDbSymbolTableRecord
100
AcDbLayerTableRecord
  2
Layer00007
 70
               0
 62
               7
  6
Continuous
  0
LAYER
  5
3C
100
AcDbSymbolTableRecord
100
AcDbLayerTableRecord
  2
Layer00008
 70
               0
 62
               7
  6
Continuous
  0
LAYER
  5
3D
100
AcDbSymbolTableRecord
100
AcDbLayerTableRecord
  2
Layer00009
 70
               0
 62
               7
  6
Continuous
  0
LAYER
  5
3E
100
AcDbSymbolTableRecord
100
AcDbLayerTableRecord
  2
Layer00010
 70
               0
 62
               7
  6
Continuous
  0
LAYER
  5
3F
100
AcDbSymbolTableRecord
100
AcDbLayerTableRecord
  2
Layer00011
 70
               0
 62
               7
  6
Continuous
  0
LAYER
  5
40
100
AcDbSymbolTableRecord
100
AcDbLayerTableRecord
  2
Layer00012
 70
               0
 62
               7
  6
Continuous
  0
LAYER
  5
41
100
AcDbSymbolTableRecord
100
AcDbLayerTableRecord
  2
Layer00013
 70
               0
 62
               7
  6
Continuous
  0
LAYER
  5
42
100
AcDbSymbolTableRecord
100
AcDbLayerTableRecord
  2
Layer00014
 70
               0
 62
               7
  6
Continuous
  0
LAYER
  5
43
100
AcDbSymbolTableRecord
100
AcDbLayerTableRecord
  2
Layer00015
 70
               0
 62
               7
  6
Continuous
  0
ENDTAB
  0
TABLE
  2
STYLE
  5
3
100
AcDbSymbolTable
 70
               4
  0
STYLE
  5
17
100
AcDbSymbolTableRecord
100
AcDbTextStyleTableRecord
  2
Standard
 70
               0
 40
0.0
 41
1.0
 50
0.0
 71
               0
 42
0.0
  3
txt.shx
  4
bigfont.shx
  0
STYLE
  5
32
100
AcDbSymbolTableRecord
100
AcDbTextStyleTableRecord
  2
STANDARD_T
 70
               4
 40
0.0
 41
1.0
 50
0.0
 71
               0
 42
0.0
  3
txt.shx
  4
bigfont.shx
  0
STYLE
  5
33
100
AcDbSymbolTableRecord
100
AcDbTextStyleTableRecord
  2
FontTableH_0
 70
               0
 40
0.0
 41
1.0
 50
0.0
 71
               0
 42
0.0
  3
MS Gothic.ttf
  4

1001
ACAD
1000
MS Gothic
1071
    32817
  0
STYLE
  5
34
100
AcDbSymbolTableRecord
100
AcDbTextStyleTableRecord
  2
FontTableV_0
 70
               0
 40
0.0
 41
1.0
 50
0.0
 71
               0
 42
0.0
  3
@MS Gothic.ttf
  4

1001
ACAD
1000
@MS Gothic
1071
    32817
  0
ENDTAB
  0
TABLE
  2
VIEW
  5
5
100
AcDbSymbolTable
 70
               0
  0
ENDTAB
  0
TABLE
  2
UCS
  5
6
100
AcDbSymbolTable
 70
               0
  0
ENDTAB
  0
TABLE
  2
APPID
  5
8
100
AcDbSymbolTable
 70
               1
  0
APPID
  5
16
100
AcDbSymbolTableRecord
100
AcDbRegAppTableRecord
  2
ACAD
 70
               0
  0
ENDTAB
  0
TABLE
  2
DIMSTYLE
  5
9
100
AcDbSymbolTable
 70
               1
  0
DIMSTYLE
105
18
100
AcDbSymbolTableRecord
100
AcDbDimStyleTableRecord
  2
Standard
 70
               0
  3

  4

  5

  6

  7

 40
1.0
 41
0.18
 42
0.0625
 43
0.38
 44
0.18
 45
0.0
 46
0.0
 47
0.0
 48
0.0
 71
               0
 72
               0
 73
               1
 74
               1
 75
               0
 76
               0
 77
               0
 78
               0
140
0.18
141
0.09
142
0.0
143
25.399999999999999
144
1.0
145
0.0
146
1.0
147
0.09
170
               0
171
               2
172
               0
173
               0
174
               0
175
               0
176
               0
177
               0
178
               0
270
               2
271
               4
272
               4
273
               2
274
               2
275
               0
280
               0
281
               0
282
               0
283
               1
284
               0
285
               0
286
               0
287
               0
288
               0
340
17
  0
ENDTAB
  0
TABLE
  2
BLOCK_RECORD
  5
1
100
AcDbSymbolTable
 70
               0
  0
BLOCK_RECORD
  5
A
100
AcDbSymbolTableRecord
100
AcDbBlockTableRecord
  2
*MODEL_SPACE
  0
BLOCK_RECORD
  5
B
100
AcDbSymbolTableRecord
100
AcDbBlockTableRecord
  2
*PAPER_SPACE
  0
ENDTAB
  0
ENDSEC
  0
SECTION
  2
BLOCKS
  0
BLOCK
  5
D
100
AcDbEntity
  8
0
100
AcDbBlockBegin
  2
*MODEL_SPACE
 70
               0
 10
0.0
 20
0.0
 30
0.0
  3
*MODEL_SPACE
  1

  0
ENDBLK
  5
E
100
AcDbEntity
  8
0
100
AcDbBlockEnd
  0
BLOCK
  5
F
100
AcDbEntity
 67
               1
  8
0
100
AcDbBlockBegin
  2
*PAPER_SPACE
 70
               0
 10
0.0
 20
0.0
 30
0.0
  3
*PAPER_SPACE
  1

  0
ENDBLK
  5
10
100
AcDbEntity
 67
               1
  8
0
100
AcDbBlockEnd
  0
ENDSEC
  0
SECTION
  2
ENTITIES
  0
LINE
  5
44
100
AcDbEntity
  8
0
  6
Continuous
 62
               4
100
AcDbLine
 10
335.48984207822696
 20
415.86023063814656
 30
0.0
 11
328.59349263160931
 21
438.8480614255464
 31
0.0
  0
LINE
  5
45
100
AcDbEntity
  8
0
  6
Continuous
 62
               4
100
AcDbLine
 10
364.12883854926406
 20
389.99892194318198
 30
0.0
 11
347.75000962303255
 21
444.59501669830485
 31
0.0
  0
LINE
  5
46
100
AcDbEntity
  8
0
  6
Continuous
 62
               4
100
AcDbLine
 10
329.45553631243649
 20
435.97458257712134
 30
0.0
 11
348.61205330385974
 21
441.72153784987978
 31
0.0
  0
LINE
  5
47
100
AcDbEntity
  8
0
  6
Continuous
 62
               4
100
AcDbLine
 10
335.48984209029106
 20
415.86023059793303
 30
0.0
 11
320.83509950416436
 21
464.7093710613712
 31
0.0
  0
LINE
  5
48
100
AcDbEntity
  8
0
  6
Continuous
 62
               4
100
AcDbLine
 10
398.85004138853077
 20
361.26413338654726
 30
0.0
 11
363.93727326419349
 21
477.64002358387569
 31
0.0
  0
LINE
  5
49
100
AcDbEntity
  8
0
  6
Continuous
 62
               4
100
AcDbLine
 10
321.69714318499155
 20
461.83589221294625
 30
0.0
 11
364.79931694502068
 21
474.76654473545074
 31
0.0
  0
LINE
  5
4A
100
AcDbEntity
  8
0
  6
Continuous
 62
               4
100
AcDbLine
 10
483.42610195359794
 20
427.35414694081868
 30
0.0
 11
459.71990143873273
 21
506.37481291289492
 31
0.0
  0
LINE
  5
4B
100
AcDbEntity
  8
0
  6
Continuous
 62
               4
100
AcDbLine
 10
364.79931694502068
 20
474.76654473545074
 30
0.0
 11
460.58194511955992
 21
503.50133406446986
 31
0.0
  0
LINE
  5
4C
100
AcDbEntity
  8
0
  6
Continuous
 62
               4
100
AcDbLine
 10
359.85292591091854
 20
384.25196424633197
 30
0.0
 11
308.85292591091849
 21
384.25196424633197
 31
0.0
  0
LINE
  5
4D
100
AcDbEntity
  8
0
  6
Continuous
 62
               4
100
AcDbLine
 10
359.85292591091854
 20
334.25196424633191
 30
0.0
 11
308.85292591091849
 21
334.25196424633191
 31
0.0
  0
LINE
  5
4E
100
AcDbEntity
  8
0
  6
Continuous
 62
               4
100
AcDbLine
 10
311.85292591091849
 20
384.25196424633197
 30
0.0
 11
311.85292591091849
 21
334.25196424633191
 31
0.0
  0
LINE
  5
4F
100
AcDbEntity
  8
0
  6
Continuous
 62
               4
100
AcDbLine
 10
365.85292591091854
 20
359.25196424633191
 30
0.0
 11
337.36320445005447
 21
309.90631918262989
 31
0.0
  0
LINE
  5
50
100
AcDbEntity
  8
0
  6
Continuous
 62
               4
100
AcDbLine
 10
337.36320445005447
 20
309.90631918262989
 30
0.0
 11
288.33244146305969
 21
309.90631918263398
 31
0.0
  0
LINE
  5
51
100
AcDbEntity
  8
0
  6
Continuous
 62
               4
100
AcDbLine
 10
365.85292591091854
 20
359.25196424633191
 30
0.0
 11
362.77474462098746
 21
350.79473065925873
 31
0.0
  0
LINE
  5
52
100
AcDbEntity
  8
0
  6
Continuous
 62
               4
100
AcDbLine
 10
365.85292591091854
 20
359.25196424633191
 30
0.0
 11
360.06783742373966
 21
352.35756425826105
 31
0.0
  0
LINE
  5
53
100
AcDbEntity
  8
0
  6
Continuous
 62
               4
100
AcDbLine
 10
330.56748588284916
 20
238.32447061553933
 30
0.0
 11
312.98226313653583
 21
268.78296987456991
 31
0.0
  0
LINE
  5
54
100
AcDbEntity
  8
0
  6
Continuous
 62
               4
100
AcDbLine
 10
312.98226313653583
 20
268.78296987456991
 30
0.0
 11
286.96663721696655
 21
268.78296987456991
 31
0.0
  0
LINE
  5
55
100
AcDbEntity
  8
0
  6
Continuous
 62
               4
100
AcDbLine
 10
330.56748588284916
 20
238.32447061553933
 30
0.0
 11
324.78239739567027
 21
245.21887060361013
 31
0.0
  0
LINE
  5
56
100
AcDbEntity
  8
0
  6
Continuous
 62
               4
100
AcDbLine
 10
330.56748588284916
 20
238.32447061553933
 30
0.0
 11
327.48930459291813
 21
246.78170420261256
 31
0.0
  0
LINE
  5
57
100
AcDbEntity
  8
0
  6
Continuous
 62
               4
100
AcDbLine
 10
511.57970983846798
 20
360.82363610832704
 30
0.0
 11
487.25971414793383
 21
270.06017655139749
 31
0.0
  0
LINE
  5
58
100
AcDbEntity
  8
0
  6
Continuous
 62
               4
100
AcDbLine
 10
487.25971414793383
 20
270.06017655139749
 30
0.0
 11
387.90792338818449
 21
270.06017655139505
 31
0.0
  0
LINE
  5
59
100
AcDbEntity
  8
0
  6
Continuous
 62
               4
100
AcDbLine
 10
511.57970983846798
 20
360.82363610832704
 30
0.0
 11
510.79530815373909
 21
351.85788382550129
 31
0.0
  0
LINE
  5
5A
100
AcDbEntity
  8
0
  6
Continuous
 62
               4
100
AcDbLine
 10
511.57970983846798
 20
360.82363610832704
 30
0.0
 11
507.77614548280167
 21
352.6668660249972
 31
0.0
  0
LINE
  5
5B
100
AcDbEntity
  8
0
  6
Continuous
 62
               4
100
AcDbLine
 10
500.57412875018525
 20
147.65571870170044
 30
0.0
 11
481.01912120240587
 21
181.52598531684731
 31
0.0
  0
LINE
  5
5C
100
AcDbEntity
  8
0
  6
Continuous
 62
               4
100
AcDbLine
 10
481.01912120240587
 20
181.52598531684731
 30
0.0
 11
430.35228833934411
 21
181.52598531684731
 31
0.0
  0
LINE
  5
5D
100
AcDbEntity
  8
0
  6
Continuous
 62
               4
100
AcDbLine
 10
500.57412875018525
 20
147.65571870170044
 30
0.0
 11
494.78904026300643
 21
154.5501186897713
 31
0.0
  0
LINE
  5
5E
100
AcDbEntity
  8
0
  6
Continuous
 62
               4
100
AcDbLine
 10
500.57412875018525
 20
147.65571870170044
 30
0.0
 11
497.49594746025423
 21
156.11295228877367
 31
0.0
  0
LINE
  5
5F
100
AcDbEntity
  8
0
  6
Continuous
 62
               4
100
AcDbLine
 10
619.93819881798606
 20
273.07404428350782
 30
0.0
 11
628.37998798642695
 21
241.56885820010166
 31
0.0
  0
LINE
  5
60
100
AcDbEntity
  8
0
  6
Continuous
 62
               4
100
AcDbLine
 10
628.37998798642695
 20
241.56885820010166
 30
0.0
 11
678.03329861906195
 21
241.56885820010166
 31
0.0
  0
LINE
  5
61
100
AcDbEntity
  8
0
  6
Continuous
 62
               4
100
AcDbLine
 10
619.93819881798606
 20
273.07404428350782
 30
0.0
 11
623.74176317365243
 21
264.91727420017793
 31
0.0
  0
LINE
  5
62
100
AcDbEntity
  8
0
  6
Continuous
 62
               4
100
AcDbLine
 10
619.93819881798606
 20
273.07404428350782
 30
0.0
 11
620.72260050271495
 21
264.10829200068207
 31
0.0
  0
LINE
  5
63
100
AcDbEntity
  8
0
  6
Continuous
 62
               4
100
AcDbLine
 10
600.29318170810029
 20
258.51508474814619
 30
0.0
 11
611.78512770685347
 21
215.626558402961
 31
0.0
  0
LINE
  5
64
100
AcDbEntity
  8
0
  6
Continuous
 62
               4
100
AcDbLine
 10
611.78512770685347
 20
215.626558402961
 30
0.0
 11
733.37898269991001
 21
215.626558402961
 31
0.0
  0
LINE
  5
65
100
AcDbEntity
  8
0
  6
Continuous
 62
               4
100
AcDbLine
 10
600.29318170810029
 20
258.51508474814619
 30
0.0
 11
604.09674606376643
 21
250.35831466481631
 31
0.0
  0
LINE
  5
66
100
AcDbEntity
  8
0
  6
Continuous
 62
               4
100
AcDbLine
 10
600.29318170810029
 20
258.51508474814619
 30
0.0
 11
601.07758339282918
 21
249.5493324653205
 31
0.0
  0
LINE
  5
67
100
AcDbEntity
  8
0
  6
Continuous
 62
               4
100
AcDbLine
 10
573.8189355941438
 20
434.92006394213848
 30
0.0
 11
531.27678432707148
 21
508.60523139998867
 31
0.0
  0
LINE
  5
68
100
AcDbEntity
  8
0
  6
Continuous
 62
               4
100
AcDbLine
 10
531.27678432707148
 20
508.60523139998867
 30
0.0
 11
492.7709651392388
 21
508.60523139998742
 31
0.0
  0
LINE
  5
69
100
AcDbEntity
  8
0
  6
Continuous
 62
               4
100
AcDbLine
 10
573.8189355941438
 20
434.92006394213848
 30
0.0
 11
568.03384710696491
 21
441.81446393020934
 31
0.0
  0
LINE
  5
6A
100
AcDbEntity
  8
0
  6
Continuous
 62
               4
100
AcDbLine
 10
573.8189355941438
 20
434.92006394213848
 30
0.0
 11
570.74075430421271
 21
443.3772975292116
 31
0.0
  0
LINE
  5
6B
100
AcDbEntity
  8
0
  6
Continuous
 62
               4
100
AcDbLine
 10
612.59444226179994
 20
432.69566820476535
 30
0.0
 11
557.0759423491661
 21
528.85653081345527
 31
0.0
  0
LINE
  5
6C
100
AcDbEntity
  8
0
  6
Continuous
 62
               4
100
AcDbLine
 10
557.0759423491661
 20
528.85653081345527
 30
0.0
 11
505.72734366842388
 21
528.85653081345413
 31
0.0
  0
LINE
  5
6D
100
AcDbEntity
  8
0
  6
Continuous
 62
               4
100
AcDbLine
 10
612.59444226179994
 20
432.69566820476535
 30
0.0
 11
606.80935377462106
 21
439.5900681928361
 31
0.0
  0
LINE
  5
6E
100
AcDbEntity
  8
0
  6
Continuous
 62
               4
100
AcDbLine
 10
612.59444226179994
 20
432.69566820476535
 30
0.0
 11
609.51626097186886
 21
441.15290179183847
 31
0.0
  0
LINE
  5
6F
100
AcDbEntity
  8
0
  6
Continuous
 62
               4
100
AcDbLine
 10
624.01368125214378
 20
481.81449384797344
 30
0.0
 11
581.83621399222693
 21
554.8680100767217
 31
0.0
  0
LINE
  5
70
100
AcDbEntity
  8
0
  6
Continuous
 62
               4
100
AcDbLine
 10
581.83621399222693
 20
554.8680100767217
 30
0.0
 11
406.84569438970146
 21
554.8680100767067
 31
0.0
  0
LINE
  5
71
100
AcDbEntity
  8
0
  6
Continuous
 62
               4
100
AcDbLine
 10
624.01368125214378
 20
481.81449384797344
 30
0.0
 11
618.2285927649649
 21
488.70889383604418
 31
0.0
  0
LINE
  5
72
100
AcDbEntity
  8
0
  6
Continuous
 62
               4
100
AcDbLine
 10
624.01368125214378
 20
481.81449384797344
 30
0.0
 11
620.93549996221282
 21
490.27172743504656
 31
0.0
  0
LINE
  5
73
100
AcDbEntity
  8
0
  6
Continuous
 62
               4
100
AcDbLine
 10
650.96121084849483
 20
504.23746023547523
 30
0.0
 11
659.58164743280315
 21
475.50267249777193
 31
0.0
  0
LINE
  5
74
100
AcDbEntity
  8
0
  6
Continuous
 62
               4
100
AcDbLine
 10
660.01266927321683
 20
474.06593307355939
 30
0.0
 11
667.19636661344373
 21
450.12027600335108
 31
0.0
  0
LINE
  5
75
100
AcDbEntity
  8
0
  6
Continuous
 62
               4
100
AcDbLine
 10
629.0375485131101
 20
437.62860013275787
 30
0.0
 11
670.35719320072212
 21
450.02449391722263
 31
0.0
  0
LINE
  5
76
100
AcDbEntity
  8
0
  6
Continuous
 62
               4
100
AcDbLine
 10
661.22051169654105
 20
434.75512127709436
 30
0.0
 11
673.80536799641561
 21
438.5305782822407
 31
0.0
  0
LINE
  5
77
100
AcDbEntity
  8
0
  6
Continuous
 62
               4
100
AcDbLine
 10
667.48371435229706
 20
449.16245023639539
 30
0.0
 11
670.93188914799066
 21
437.66853460141346
 31
0.0
  0
LINE
  5
78
100
AcDbEntity
  8
0
  6
Continuous
 62
               6
100
AcDbLine
 10
688.46010964750838
 20
441.88296995889419
 30
0.0
 11
400.57412875018525
 21
355.51717568969735
 31
0.0
  0
LINE
  5
79
100
AcDbEntity
  8
0
  6
Continuous
 62
               6
100
AcDbLine
 10
701.18962097809754
 20
399.45126552359721
 30
0.0
 11
413.3036400807743
 21
313.08547125440037
 31
0.0
  0
LINE
  5
7A
100
AcDbEntity
  8
0
  6
Continuous
 62
               6
100
AcDbLine
 10
568.49334903875808
 20
357.55432264001325
 30
0.0
 11
596.07874605312713
 21
265.60299925878263
 31
0.0
  0
LINE
  5
7B
100
AcDbEntity
  8
0
  6
Continuous
 62
               6
100
AcDbLine
 10
613.89431495824067
 20
373.26267371764021
 30
0.0
 11
569.83430583806762
 21
360.04467098158835
 31
0.0
  0
LINE
  5
7C
100
AcDbEntity
  8
0
  6
Continuous
 62
               6
100
AcDbLine
 10
642.62910351487528
 20
277.48004519552507
 30
0.0
 11
598.56909439470223
 21
264.26204245947321
 31
0.0
  0
LINE
  5
7D
100
AcDbEntity
  8
0
  6
Continuous
 62
               7
100
AcDbLine
 10
615.80996752868293
 20
373.83736948877282
 30
0.0
 11
643.97006031418482
 21
279.97039353709994
 31
0.0
  0
LINE
  5
7E
100
AcDbEntity
  8
0
  6
Continuous
 62
               6
100
AcDbLine
 10
619.35392478400138
 20
354.01994364754734
 30
0.0
 11
614.267867209477
 21
370.97346889596162
 31
0.0
  0
LINE
  5
7F
100
AcDbEntity
  8
0
  6
Continuous
 62
               6
100
AcDbLine
 10
614.267867209477
 20
370.97346889596162
 30
0.0
 11
570.78255386043656
 21
357.92787489124959
 31
0.0
  0
LINE
  5
80
100
AcDbEntity
  8
0
  6
Continuous
 62
               6
100
AcDbLine
 10
570.78255386043656
 20
357.92787489124959
 30
0.0
 11
598.1955421434659
 21
266.5512472811518
 31
0.0
  0
LINE
  5
81
100
AcDbEntity
  8
0
  6
Continuous
 62
               6
100
AcDbLine
 10
598.1955421434659
 20
266.5512472811518
 30
0.0
 11
641.68085549250634
 21
279.59684128586383
 31
0.0
  0
LINE
  5
82
100
AcDbEntity
  8
0
  6
Continuous
 62
               6
100
AcDbLine
 10
641.68085549250634
 20
279.59684128586383
 30
0.0
 11
636.59479791798196
 21
296.55036653427811
 31
0.0
  0
LINE
  5
83
100
AcDbEntity
  8
0
  6
Continuous
 62
               6
100
AcDbLine
 10
619.35392478400138
 20
354.01994364754734
 30
0.0
 11
621.55692524000995
 21
354.68084378434975
 31
0.0
  0
LINE
  5
84
100
AcDbEntity
  8
0
  6
Continuous
 62
               6
100
AcDbLine
 10
636.59479791798196
 20
296.55036653427811
 30
0.0
 11
638.79779837399064
 21
297.21126667108075
 31
0.0
  0
LINE
  5
85
100
AcDbEntity
  8
0
  6
Continuous
 62
               7
100
AcDbLine
 10
644.35319082827334
 20
271.73308748419805
 30
0.0
 11
600.29318170810029
 21
258.51508474814619
 31
0.0
  0
LINE
  5
86
100
AcDbEntity
  8
0
  6
Continuous
 62
               7
100
AcDbLine
 10
649.71701802551172
 20
281.69448085049822
 30
0.0
 11
621.55692524000983
 21
375.56145680217088
 31
0.0
  0
LINE
  5
87
100
AcDbEntity
  8
0
  6
Continuous
 62
               7
100
AcDbLine
 10
591.76852776963199
 20
279.97039353710016
 30
0.0
 11
586.02157005830509
 21
278.24630622370188
 31
0.0
  0
LINE
  5
88
100
AcDbEntity
  8
0
  6
Continuous
 62
               7
100
AcDbLine
 10
586.02157005830509
 20
278.24630622370188
 30
0.0
 11
590.33178834180035
 21
263.8789119453848
 31
0.0
  0
LINE
  5
89
100
AcDbEntity
  8
0
  6
Continuous
 62
               7
100
AcDbLine
 10
605.89632902583878
 20
427.76303103904121
 30
0.0
 11
606.75841058538788
 21
424.88956355450529
 31
0.0
  0
LINE
  5
8A
100
AcDbEntity
  8
0
  6
Continuous
 62
               7
100
AcDbLine
 10
600.14939405676682
 20
426.03886791994302
 30
0.0
 11
601.01147561631592
 21
423.16540043540709
 31
0.0
  0
LINE
  5
8B
100
AcDbEntity
  8
0
  6
Continuous
 62
               7
100
AcDbLine
 10
599.8621712508783
 20
416.55638390678615
 30
0.0
 11
611.35604118902211
 21
420.00471014498254
 31
0.0
  0
LINE
  5
8C
100
AcDbEntity
  8
0
  6
Continuous
 62
               7
100
AcDbLine
 10
599.57474187404796
 20
422.73435965563255
 30
0.0
 11
608.19514432765595
 21
425.32060433427984
 31
0.0
  0
LINE
  5
8D
100
AcDbEntity
  8
0
  6
Continuous
 62
               7
100
AcDbLine
 10
600.14939405676682
 20
426.03886791994302
 30
0.0
 11
605.89632902583878
 21
427.76303103904121
 31
0.0
  0
LINE
  5
8E
100
AcDbEntity
  8
0
  6
Continuous
 62
               7
100
AcDbLine
 10
598.28930361803532
 20
421.79902475716818
 30
0.0
 11
599.8621712508783
 21
416.55638390678615
 31
0.0
  0
LINE
  5
8F
100
AcDbEntity
  8
0
  6
Continuous
 62
               7
100
AcDbLine
 10
609.78317355617912
 20
425.2473509953648
 30
0.0
 11
611.35604118902211
 21
420.00471014498254
 31
0.0
  0
LINE
  5
90
100
AcDbEntity
  8
0
  6
Continuous
 62
               7
100
AcDbLine
 10
598.28930361803532
 20
421.79902475716818
 30
0.0
 11
599.57474187404796
 21
422.73435965563255
 31
0.0
  0
LINE
  5
91
100
AcDbEntity
  8
0
  6
Continuous
 62
               7
100
AcDbLine
 10
608.19514432765595
 20
425.32060433427984
 30
0.0
 11
609.78317355617912
 21
425.2473509953648
 31
0.0
  0
LINE
  5
92
100
AcDbEntity
  8
0
  6
Continuous
 62
               7
100
AcDbLine
 10
606.90669728087255
 20
424.39529825774258
 30
0.0
 11
608.48257370448619
 21
419.14262858543344
 31
0.0
  0
LINE
  5
93
100
AcDbEntity
  8
0
  6
Continuous
 62
               7
100
AcDbLine
 10
601.15938542819117
 20
422.67239135713686
 30
0.0
 11
602.73563873541434
 21
417.41846546633525
 31
0.0
  0
LINE
  5
94
100
AcDbEntity
  8
0
  6
Continuous
 62
               7
100
AcDbLine
 10
619.97651186939504
 20
422.59072740652942
 30
0.0
 11
591.24172331276043
 21
413.97029083953913
 31
0.0
  0
LINE
  5
95
100
AcDbEntity
  8
0
  6
Continuous
 62
               7
100
AcDbLine
 10
591.24170962330118
 20
413.97027452567005
 30
0.0
 11
591.58654077544008
 21
412.82089929727368
 31
0.0
  0
LINE
  5
96
100
AcDbEntity
  8
0
  6
Continuous
 62
               7
100
AcDbLine
 10
619.97651186939504
 20
422.59072740652942
 30
0.0
 11
620.3213293320747
 21
421.44133586426398
 31
0.0
  0
LINE
  5
97
100
AcDbEntity
  8
0
  6
Continuous
 62
               4
100
AcDbLine
 10
527.50796229414505
 20
407.169724214469
 30
0.0
 11
530.95613692094116
 21
395.6758087918152
 31
0.0
  0
LINE
  5
98
100
AcDbEntity
  8
0
  6
Continuous
 62
               4
100
AcDbLine
 10
623.29059081626019
 20
435.90451277110338
 30
0.0
 11
626.73876544305642
 21
424.41059734844958
 31
0.0
  0
LINE
  5
99
100
AcDbEntity
  8
0
  6
Continuous
 62
               4
100
AcDbLine
 10
655.47355399969103
 20
433.03103391543988
 30
0.0
 11
626.73876544305642
 21
424.41059734844958
 31
0.0
  0
LINE
  5
9A
100
AcDbEntity
  8
0
  6
Continuous
 62
               4
100
AcDbLine
 10
623.29059081626019
 20
435.90451277110338
 30
0.0
 11
527.50796229414505
 21
407.169724214469
 31
0.0
  0
LINE
  5
9B
100
AcDbEntity
  8
0
  6
Continuous
 62
               4
100
AcDbLine
 10
530.95613692094116
 20
395.6758087918152
 30
0.0
 11
502.22134836430666
 21
387.05537222482468
 31
0.0
  0
LINE
  5
9C
100
AcDbEntity
  8
0
  6
Continuous
 62
               4
100
AcDbLine
 10
556.56028302036384
 20
417.98444456229737
 30
0.0
 11
566.13850796881684
 21
420.85804976079459
 31
0.0
  0
LINE
  5
9D
100
AcDbEntity
  8
0
  6
Continuous
 62
               4
100
AcDbLine
 10
579.93215720650596
 20
348.78180373821357
 30
0.0
 11
584.72126968073258
 21
350.21860633746229
 31
0.0
  0
LINE
  5
9E
100
AcDbEntity
  8
0
  6
Continuous
 62
               4
100
AcDbLine
 10
559.75944871305626
 20
416.0209428763547
 30
0.0
 11
564.54856118728276
 21
417.45774547560342
 31
0.0
  0
LINE
  5
9F
100
AcDbEntity
  8
0
  6
Continuous
 62
               4
100
AcDbLine
 10
579.93215720650596
 20
348.78180373821357
 30
0.0
 11
559.75944871305626
 21
416.0209428763547
 31
0.0
  0
LINE
  5
A0
100
AcDbEntity
  8
0
  6
Continuous
 62
               4
100
AcDbLine
 10
584.72126968073258
 20
350.21860633746229
 30
0.0
 11
564.54856118728276
 21
417.45774547560342
 31
0.0
  0
LINE
  5
A1
100
AcDbEntity
  8
0
  6
Continuous
 62
               4
100
AcDbLine
 10
559.75944871305626
 20
416.0209428763547
 30
0.0
 11
556.56028302036384
 21
417.98444456229737
 31
0.0
  0
LINE
  5
A2
100
AcDbEntity
  8
0
  6
Continuous
 62
               4
100
AcDbLine
 10
564.54856118728276
 20
417.45774547560342
 30
0.0
 11
566.13850796881684
 21
420.85804976079459
 31
0.0
  0
LINE
  5
A3
100
AcDbEntity
  8
0
  6
Continuous
 62
               4
100
AcDbLine
 10
579.93215720650596
 20
348.78180373821357
 30
0.0
 11
582.90143448331878
 21
347.58456004814735
 31
0.0
  0
LINE
  5
A4
100
AcDbEntity
  8
0
  6
Continuous
 62
               4
100
AcDbLine
 10
582.90143448331878
 20
347.58456004814735
 30
0.0
 11
584.72126968073258
 21
350.21860633746229
 31
0.0
  0
LINE
  5
A5
100
AcDbEntity
  8
0
  6
Continuous
 62
               4
100
AcDbLine
 10
575.52675933128864
 20
363.46575957819397
 30
0.0
 11
580.06252474131566
 21
365.74701192029607
 31
0.0
  0
LINE
  5
A6
100
AcDbEntity
  8
0
  6
Continuous
 62
               4
100
AcDbLine
 10
575.23496581222798
 20
364.43835802892255
 30
0.0
 11
579.77073122225488
 21
366.71961037102488
 31
0.0
  0
LINE
  5
A7
100
AcDbEntity
  8
0
  6
Continuous
 62
               4
100
AcDbLine
 10
574.94317229316721
 20
365.41095647965136
 30
0.0
 11
579.47893770319422
 21
367.69220882175347
 31
0.0
  0
LINE
  5
A8
100
AcDbEntity
  8
0
  6
Continuous
 62
               4
100
AcDbLine
 10
574.65137877410643
 20
366.38355493038017
 30
0.0
 11
579.18714418413356
 21
368.66480727248228
 31
0.0
  0
LINE
  5
A9
100
AcDbEntity
  8
0
  6
Continuous
 62
               4
100
AcDbLine
 10
574.35958525504577
 20
367.35615338110875
 30
0.0
 11
578.89535066507278
 21
369.63740572321109
 31
0.0
  0
LINE
  5
AA
100
AcDbEntity
  8
0
  6
Continuous
 62
               4
100
AcDbLine
 10
574.06779173598511
 20
368.32875183183756
 30
0.0
 11
578.60355714601201
 21
370.61000417393967
 31
0.0
  0
LINE
  5
AB
100
AcDbEntity
  8
0
  6
Continuous
 62
               4
100
AcDbLine
 10
573.77599821692434
 20
369.30135028256637
 30
0.0
 11
578.31176362695135
 21
371.58260262466848
 31
0.0
  0
LINE
  5
AC
100
AcDbEntity
  8
0
  6
Continuous
 62
               4
100
AcDbLine
 10
573.48420469786356
 20
370.27394873329496
 30
0.0
 11
578.01997010789069
 21
372.55520107539729
 31
0.0
  0
LINE
  5
AD
100
AcDbEntity
  8
0
  6
Continuous
 62
               4
100
AcDbLine
 10
573.1924111788029
 20
371.24654718402377
 30
0.0
 11
577.72817658882991
 21
373.52779952612588
 31
0.0
  0
LINE
  5
AE
100
AcDbEntity
  8
0
  6
Continuous
 62
               4
100
AcDbLine
 10
572.90061765974224
 20
372.21914563475258
 30
0.0
 11
577.43638306976914
 21
374.50039797685469
 31
0.0
  0
LINE
  5
AF
100
AcDbEntity
  8
0
  6
Continuous
 62
               4
100
AcDbLine
 10
572.60882414068146
 20
373.19174408548116
 30
0.0
 11
577.14458955070847
 21
375.47299642758327
 31
0.0
  0
LINE
  5
B0
100
AcDbEntity
  8
0
  6
Continuous
 62
               4
100
AcDbLine
 10
572.31703062162069
 20
374.16434253620997
 30
0.0
 11
576.85279603164781
 21
376.44559487831208
 31
0.0
  0
LINE
  5
B1
100
AcDbEntity
  8
0
  6
Continuous
 62
               4
100
AcDbLine
 10
572.02523710256003
 20
375.13694098693855
 30
0.0
 11
576.56100251258704
 21
377.41819332904089
 31
0.0
  0
LINE
  5
B2
100
AcDbEntity
  8
0
  6
Continuous
 62
               4
100
AcDbLine
 10
571.73344358349937
 20
376.10953943766737
 30
0.0
 11
576.26920899352626
 21
378.39079177976947
 31
0.0
  0
LINE
  5
B3
100
AcDbEntity
  8
0
  6
Continuous
 62
               4
100
AcDbLine
 10
571.44165006443859
 20
377.08213788839618
 30
0.0
 11
575.9774154744656
 21
379.36339023049828
 31
0.0
  0
LINE
  5
B4
100
AcDbEntity
  8
0
  6
Continuous
 62
               4
100
AcDbLine
 10
571.14985654537782
 20
378.05473633912476
 30
0.0
 11
575.68562195540494
 21
380.33598868122709
 31
0.0
  0
LINE
  5
B5
100
AcDbEntity
  8
0
  6
Continuous
 62
               4
100
AcDbLine
 10
570.85806302631715
 20
379.02733478985357
 30
0.0
 11
575.39382843634417
 21
381.30858713195568
 31
0.0
  0
LINE
  5
B6
100
AcDbEntity
  8
0
  6
Continuous
 62
               4
100
AcDbLine
 10
570.56626950725649
 20
379.99993324058238
 30
0.0
 11
575.10203491728339
 21
382.28118558268449
 31
0.0
  0
LINE
  5
B7
100
AcDbEntity
  8
0
  6
Continuous
 62
               4
100
AcDbLine
 10
570.27447598819572
 20
380.97253169131096
 30
0.0
 11
574.81024139822273
 21
383.2537840334133
 31
0.0
  0
LINE
  5
B8
100
AcDbEntity
  8
0
  6
Continuous
 62
               4
100
AcDbLine
 10
569.98268246913494
 20
381.94513014203977
 30
0.0
 11
574.51844787916207
 21
384.22638248414188
 31
0.0
  0
LINE
  5
B9
100
AcDbEntity
  8
0
  6
Continuous
 62
               4
100
AcDbLine
 10
569.69088895007428
 20
382.91772859276858
 30
0.0
 11
574.22665436010129
 21
385.19898093487069
 31
0.0
  0
LINE
  5
BA
100
AcDbEntity
  8
0
  6
Continuous
 62
               4
100
AcDbLine
 10
569.39909543101362
 20
383.89032704349717
 30
0.0
 11
573.93486084104052
 21
386.1715793855995
 31
0.0
  0
LINE
  5
BB
100
AcDbEntity
  8
0
  6
Continuous
 62
               4
100
AcDbLine
 10
569.10730191195285
 20
384.86292549422598
 30
0.0
 11
573.64306732197974
 21
387.14417783632808
 31
0.0
  0
LINE
  5
BC
100
AcDbEntity
  8
0
  6
Continuous
 62
               4
100
AcDbLine
 10
568.81550839289207
 20
385.83552394495479
 30
0.0
 11
573.35127380291908
 21
388.11677628705689
 31
0.0
  0
LINE
  5
BD
100
AcDbEntity
  8
0
  6
Continuous
 62
               4
100
AcDbLine
 10
568.52371487383141
 20
386.80812239568337
 30
0.0
 11
573.05948028385842
 21
389.08937473778548
 31
0.0
  0
LINE
  5
BE
100
AcDbEntity
  8
0
  6
Continuous
 62
               4
100
AcDbLine
 10
568.23192135477075
 20
387.78072084641218
 30
0.0
 11
572.76768676479765
 21
390.06197318851429
 31
0.0
  0
LINE
  5
BF
100
AcDbEntity
  8
0
  6
Continuous
 62
               4
100
AcDbLine
 10
567.94012783570997
 20
388.75331929714076
 30
0.0
 11
572.47589324573687
 21
391.0345716392431
 31
0.0
  0
LINE
  5
C0
100
AcDbEntity
  8
0
  6
Continuous
 62
               4
100
AcDbLine
 10
567.6483343166492
 20
389.72591774786957
 30
0.0
 11
572.18409972667621
 21
392.00717008997191
 31
0.0
  0
LINE
  5
C1
100
AcDbEntity
  8
0
  6
Continuous
 62
               4
100
AcDbLine
 10
567.35654079758854
 20
390.69851619859838
 30
0.0
 11
571.89230620761555
 21
392.97976854070049
 31
0.0
  0
LINE
  5
C2
100
AcDbEntity
  8
0
  6
Continuous
 62
               4
100
AcDbLine
 10
567.06474727852788
 20
391.67111464932719
 30
0.0
 11
571.60051268855477
 21
393.9523669914293
 31
0.0
  0
LINE
  5
C3
100
AcDbEntity
  8
0
  6
Continuous
 62
               4
100
AcDbLine
 10
566.7729537594671
 20
392.64371310005578
 30
0.0
 11
571.308719169494
 21
394.92496544215811
 31
0.0
  0
LINE
  5
C4
100
AcDbEntity
  8
0
  6
Continuous
 62
               4
100
AcDbLine
 10
566.48116024040633
 20
393.61631155078459
 30
0.0
 11
571.01692565043334
 21
395.89756389288669
 31
0.0
  0
LINE
  5
C5
100
AcDbEntity
  8
0
  6
Continuous
 62
               4
100
AcDbLine
 10
566.18936672134555
 20
394.5889100015134
 30
0.0
 11
570.72513213137267
 21
396.8701623436155
 31
0.0
  0
LINE
  5
C6
100
AcDbEntity
  8
0
  6
Continuous
 62
               4
100
AcDbLine
 10
565.89757320228489
 20
395.56150845224198
 30
0.0
 11
570.4333386123119
 21
397.84276079434431
 31
0.0
  0
LINE
  5
C7
100
AcDbEntity
  8
0
  6
Continuous
 62
               4
100
AcDbLine
 10
565.60577968322423
 20
396.53410690297079
 30
0.0
 11
570.14154509325112
 21
398.8153592450729
 31
0.0
  0
LINE
  5
C8
100
AcDbEntity
  8
0
  6
Continuous
 62
               4
100
AcDbLine
 10
565.31398616416345
 20
397.5067053536996
 30
0.0
 11
569.84975157419046
 21
399.78795769580171
 31
0.0
  0
LINE
  5
C9
100
AcDbEntity
  8
0
  6
Continuous
 62
               4
100
AcDbLine
 10
565.02219264510268
 20
398.47930380442818
 30
0.0
 11
569.5579580551298
 21
400.76055614653029
 31
0.0
  0
LINE
  5
CA
100
AcDbEntity
  8
0
  6
Continuous
 62
               4
100
AcDbLine
 10
564.73039912604202
 20
399.45190225515699
 30
0.0
 11
569.26616453606903
 21
401.7331545972591
 31
0.0
  0
LINE
  5
CB
100
AcDbEntity
  8
0
  6
Continuous
 62
               4
100
AcDbLine
 10
564.43860560698135
 20
400.42450070588558
 30
0.0
 11
568.97437101700825
 21
402.70575304798791
 31
0.0
  0
LINE
  5
CC
100
AcDbEntity
  8
0
  6
Continuous
 62
               4
100
AcDbLine
 10
564.14681208792058
 20
401.39709915661439
 30
0.0
 11
568.68257749794759
 21
403.67835149871649
 31
0.0
  0
LINE
  5
CD
100
AcDbEntity
  8
0
  6
Continuous
 62
               4
100
AcDbLine
 10
563.8550185688598
 20
402.3696976073432
 30
0.0
 11
568.39078397888693
 21
404.65094994944531
 31
0.0
  0
LINE
  5
CE
100
AcDbEntity
  8
0
  6
Continuous
 62
               4
100
AcDbLine
 10
563.56322504979914
 20
403.34229605807178
 30
0.0
 11
568.09899045982615
 21
405.62354840017412
 31
0.0
  0
LINE
  5
CF
100
AcDbEntity
  8
0
  6
Continuous
 62
               4
100
AcDbLine
 10
563.27143153073848
 20
404.31489450880059
 30
0.0
 11
567.80719694076538
 21
406.5961468509027
 31
0.0
  0
LINE
  5
D0
100
AcDbEntity
  8
0
  6
Continuous
 62
               4
100
AcDbLine
 10
562.97963801167771
 20
405.2874929595294
 30
0.0
 11
567.51540342170472
 21
407.56874530163151
 31
0.0
  0
LINE
  5
D1
100
AcDbEntity
  8
0
  6
Continuous
 62
               4
100
AcDbLine
 10
562.68784449261693
 20
406.26009141025798
 30
0.0
 11
567.22360990264406
 21
408.54134375236032
 31
0.0
  0
LINE
  5
D2
100
AcDbEntity
  8
0
  6
Continuous
 62
               4
100
AcDbLine
 10
562.39605097355627
 20
407.2326898609868
 30
0.0
 11
566.93181638358328
 21
409.5139422030889
 31
0.0
  0
LINE
  5
D3
100
AcDbEntity
  8
0
  6
Continuous
 62
               4
100
AcDbLine
 10
562.10425745449561
 20
408.20528831171561
 30
0.0
 11
566.64002286452251
 21
410.48654065381771
 31
0.0
  0
LINE
  5
D4
100
AcDbEntity
  8
0
  6
Continuous
 62
               4
100
AcDbLine
 10
561.81246393543483
 20
409.17788676244419
 30
0.0
 11
566.34822934546185
 21
411.4591391045463
 31
0.0
  0
LINE
  5
D5
100
AcDbEntity
  8
0
  6
Continuous
 62
               4
100
AcDbLine
 10
561.52067041637406
 20
410.150485213173
 30
0.0
 11
566.05643582640118
 21
412.43173755527511
 31
0.0
  0
LINE
  5
D6
100
AcDbEntity
  8
0
  6
Continuous
 62
               4
100
AcDbLine
 10
563.49675960232685
 20
412.26370983495286
 30
0.0
 11
565.76464230734041
 21
413.40433600600392
 31
0.0
  0
LINE
  5
D7
100
AcDbEntity
  8
0
  6
Continuous
 62
               4
100
AcDbLine
 10
575.81855285034931
 20
362.49316112746516
 30
0.0
 11
580.35431826037643
 21
364.77441346956726
 31
0.0
  0
LINE
  5
D8
100
AcDbEntity
  8
0
  6
Continuous
 62
               4
100
AcDbLine
 10
576.11034636941008
 20
361.52056267673635
 30
0.0
 11
580.64611177943709
 21
363.80181501883868
 31
0.0
  0
LINE
  5
D9
100
AcDbEntity
  8
0
  6
Continuous
 62
               4
100
AcDbLine
 10
576.40213988847086
 20
360.54796422600776
 30
0.0
 11
580.93790529849775
 21
362.82921656810987
 31
0.0
  0
LINE
  5
DA
100
AcDbEntity
  8
0
  6
Continuous
 62
               4
100
AcDbLine
 10
576.69393340753152
 20
359.57536577527895
 30
0.0
 11
581.22969881755853
 21
361.85661811738129
 31
0.0
  0
LINE
  5
DB
100
AcDbEntity
  8
0
  6
Continuous
 62
               4
100
AcDbLine
 10
576.98572692659218
 20
358.60276732455037
 30
0.0
 11
581.5214923366193
 21
360.88401966665248
 31
0.0
  0
LINE
  5
DC
100
AcDbEntity
  8
0
  6
Continuous
 62
               4
100
AcDbLine
 10
577.27752044565295
 20
357.63016887382156
 30
0.0
 11
581.81328585567996
 21
359.91142121592367
 31
0.0
  0
LINE
  5
DD
100
AcDbEntity
  8
0
  6
Continuous
 62
               4
100
AcDbLine
 10
577.56931396471373
 20
356.65757042309275
 30
0.0
 11
582.10507937474063
 21
358.93882276519508
 31
0.0
  0
LINE
  5
DE
100
AcDbEntity
  8
0
  6
Continuous
 62
               4
100
AcDbLine
 10
577.86110748377439
 20
355.68497197236417
 30
0.0
 11
582.3968728938014
 21
357.96622431446627
 31
0.0
  0
LINE
  5
DF
100
AcDbEntity
  8
0
  6
Continuous
 62
               4
100
AcDbLine
 10
578.15290100283505
 20
354.71237352163536
 30
0.0
 11
582.68866641286218
 21
356.99362586373746
 31
0.0
  0
LINE
  5
E0
100
AcDbEntity
  8
0
  6
Continuous
 62
               4
100
AcDbLine
 10
578.44469452189583
 20
353.73977507090655
 30
0.0
 11
582.98045993192284
 21
356.02102741300888
 31
0.0
  0
LINE
  5
E1
100
AcDbEntity
  8
0
  6
Continuous
 62
               4
100
AcDbLine
 10
578.7364880409566
 20
352.76717662017796
 30
0.0
 11
583.2722534509835
 21
355.04842896228007
 31
0.0
  0
LINE
  5
E2
100
AcDbEntity
  8
0
  6
Continuous
 62
               4
100
AcDbLine
 10
579.02828156001726
 20
351.79457816944915
 30
0.0
 11
583.56404697004427
 21
354.07583051155126
 31
0.0
  0
LINE
  5
E3
100
AcDbEntity
  8
0
  6
Continuous
 62
               4
100
AcDbLine
 10
581.58795778409149
 20
351.96260588977162
 30
0.0
 11
583.85584048910505
 21
353.10323206082268
 31
0.0
  0
LINE
  5
E4
100
AcDbEntity
  8
0
  6
Continuous
 62
               4
100
AcDbLine
 10
586.15368981787151
 20
425.80747312247792
 30
0.0
 11
684.43723924957953
 21
455.29253795199025
 31
0.0
  0
LINE
  5
E5
100
AcDbEntity
  8
0
  6
Continuous
 62
               4
100
AcDbLine
 10
523.10196138212768
 20
432.99272086403136
 30
0.0
 11
677.25354211042099
 21
479.2381950825191
 31
0.0
  0
LINE
  5
E6
100
AcDbEntity
  8
0
  6
Continuous
 62
               6
100
AcDbLine
 10
400.57412875018525
 20
355.51717568969735
 30
0.0
 11
413.3036400807743
 21
313.08547125440037
 31
0.0
  0
LINE
  5
E7
100
AcDbEntity
  8
0
  6
Continuous
 62
               6
100
AcDbLine
 10
576.4049941546848
 20
422.36084909807624
 30
0.0
 11
527.36428835136189
 21
407.64863735707951
 31
0.0
  0
LINE
  5
E8
100
AcDbEntity
  8
0
  6
Continuous
 62
               6
100
AcDbLine
 10
576.06017669200514
 20
423.51024064034169
 30
0.0
 11
528.16886243094768
 21
409.14284636202439
 31
0.0
  0
LINE
  5
E9
100
AcDbEntity
  8
0
  6
Continuous
 62
               4
100
AcDbLine
 10
575.77282880643884
 20
424.46806692556294
 30
0.0
 11
529.79716711582364
 21
410.67536841837824
 31
0.0
  0
LINE
  5
EA
100
AcDbEntity
  8
0
  6
Continuous
 62
               6
100
AcDbLine
 10
527.36428835136189
 20
407.64863735707951
 30
0.0
 11
522.39316993106411
 21
424.21903209140538
 31
0.0
  0
LINE
  5
EB
100
AcDbEntity
  8
0
  6
Continuous
 62
               6
100
AcDbLine
 10
528.16886243094768
 20
409.14284636202439
 30
0.0
 11
523.1977440106499
 21
425.71324109635049
 31
0.0
  0
LINE
  5
EC
100
AcDbEntity
  8
0
  6
Continuous
 62
               4
100
AcDbLine
 10
529.79716711582364
 20
410.67536841837824
 30
0.0
 11
523.10196138212768
 21
432.99272086403136
 31
0.0
  0
LINE
  5
ED
100
AcDbEntity
  8
0
  6
Continuous
 62
               6
100
AcDbLine
 10
576.4049941546848
 20
422.36084909807624
 30
0.0
 11
576.06017669200514
 21
423.51024064034169
 31
0.0
  0
LINE
  5
EE
100
AcDbEntity
  8
0
  6
Continuous
 62
               4
100
AcDbLine
 10
575.77282880643884
 20
424.46806692556294
 30
0.0
 11
586.15368981787151
 21
425.80747312247792
 31
0.0
  0
LINE
  5
EF
100
AcDbEntity
  8
0
  6
Continuous
 62
               6
100
AcDbLine
 10
392.89531019105277
 20
392.36467953037214
 30
0.0
 11
521.61733064003499
 21
430.98128566506676
 31
0.0
  0
LINE
  5
F0
100
AcDbEntity
  8
0
  6
Continuous
 62
               6
100
AcDbLine
 10
409.52022625415077
 20
360.49787237284733
 30
0.0
 11
409.86504371683037
 21
359.34848083058188
 31
0.0
  0
LINE
  5
F1
100
AcDbEntity
  8
0
  6
Continuous
 62
               6
100
AcDbLine
 10
420.11378496869673
 20
394.78805338376452
 30
0.0
 11
428.67675195857385
 21
366.24483008417411
 31
0.0
  0
LINE
  5
F2
100
AcDbEntity
  8
0
  6
Continuous
 62
               6
100
AcDbLine
 10
430.17096096351884
 20
365.44025600458855
 30
0.0
 11
409.86504371683037
 21
359.34848083058188
 31
0.0
  0
LINE
  5
F3
100
AcDbEntity
  8
0
  6
Continuous
 62
               6
100
AcDbLine
 10
428.67675195857385
 20
366.24483008417411
 30
0.0
 11
409.52022625415077
 21
360.49787237284733
 31
0.0
  0
LINE
  5
F4
100
AcDbEntity
  8
0
  6
Continuous
 62
               6
100
AcDbLine
 10
421.60799397364173
 20
393.98347930417873
 30
0.0
 11
430.17096096351884
 21
365.44025600458855
 31
0.0
  0
LINE
  5
F5
100
AcDbEntity
  8
0
  6
Continuous
 62
               6
100
AcDbLine
 10
395.5646988537037
 20
388.46735820015766
 30
0.0
 11
522.91039612508348
 21
426.6710673815715
 31
0.0
  0
LINE
  5
F6
100
AcDbEntity
  8
0
  6
Continuous
 62
               6
100
AcDbLine
 10
420.11378496869673
 20
394.78805338376452
 30
0.0
 11
523.1977440106499
 21
425.71324109635049
 31
0.0
  0
LINE
  5
F7
100
AcDbEntity
  8
0
  6
Continuous
 62
               6
100
AcDbLine
 10
421.60799397364173
 20
393.98347930417873
 30
0.0
 11
522.39316993106411
 21
424.21903209140538
 31
0.0
  0
LINE
  5
F8
100
AcDbEntity
  8
0
  6
Continuous
 62
               4
100
AcDbLine
 10
365.85292591091854
 20
384.25196424633197
 30
0.0
 11
365.85292591091854
 21
334.25196424633197
 31
0.0
  0
LINE
  5
F9
100
AcDbEntity
  8
0
  6
Continuous
 62
               4
100
AcDbLine
 10
372.35292591091854
 20
342.91221828417616
 30
0.0
 11
367.35292591091854
 21
334.25196424633197
 31
0.0
  0
LINE
  5
FA
100
AcDbEntity
  8
0
  6
Continuous
 62
               6
100
AcDbLine
 10
522.91039612508348
 20
426.6710673815715
 30
0.0
 11
521.61733064003499
 21
430.98128566506676
 31
0.0
  0
LINE
  5
FB
100
AcDbEntity
  8
0
  6
Continuous
 62
               7
100
AcDbLine
 10
376.55158772198666
 20
354.22574627695712
 30
0.0
 11
376.14802949999381
 21
342.11899961717404
 31
0.0
  0
LINE
  5
FC
100
AcDbEntity
  8
0
  6
Continuous
 62
               7
100
AcDbLine
 10
386.08549298735022
 20
340.07628384179338
 30
0.0
 11
386.56269420689449
 21
354.39232042812023
 31
0.0
  0
LINE
  5
FD
100
AcDbEntity
  8
0
  6
Continuous
 62
               7
100
AcDbLine
 10
384.82366006875077
 20
356.25128795510136
 30
0.0
 11
376.6282118315217
 21
356.52446956300923
 31
0.0
  0
LINE
  5
FE
100
AcDbEntity
  8
0
  6
Continuous
 62
               7
100
AcDbLine
 10
376.661221800286
 20
340.06018853936439
 30
0.0
 11
384.17314659455116
 21
338.56054833485996
 31
0.0
  0
LINE
  5
FF
100
AcDbEntity
  8
0
  6
Continuous
 62
               7
100
AcDbLine
 10
383.70624303098435
 20
340.18335690868412
 30
0.0
 11
376.54986615922331
 21
341.61201744102459
 31
0.0
  0
LINE
  5
100
100
AcDbEntity
  8
0
  6
Continuous
 62
               7
100
AcDbLine
 10
384.74703595921568
 20
353.95256466904948
 30
0.0
 11
384.30385127873404
 21
340.65702425460063
 31
0.0
  0
LINE
  5
101
100
AcDbEntity
  8
0
  6
Continuous
 62
               7
100
AcDbLine
 10
377.06796759059256
 20
354.70881131533042
 30
0.0
 11
384.26397092084238
 21
354.46894453765526
 31
0.0
  0
LINE
  5
102
100
AcDbEntity
  8
0
  6
Continuous
 62
               6
100
AcDbLine
 10
379.94955781530581
 20
331.78459075190744
 30
0.0
 11
387.37328790893076
 21
338.14696481948431
 31
0.0
  0
LINE
  5
103
100
AcDbEntity
  8
0
  6
Continuous
 62
               6
100
AcDbLine
 10
390.96972177357878
 20
335.3026983425525
 30
0.0
 11
383.54599167995372
 21
328.94032427497586
 31
0.0
  0
LINE
  5
104
100
AcDbEntity
  8
0
  6
Continuous
 62
               6
100
AcDbLine
 10
379.29881497753331
 20
332.54388895359625
 30
0.0
 11
387.05659061849423
 21
339.19255073650697
 31
0.0
  0
LINE
  5
105
100
AcDbEntity
  8
0
  6
Continuous
 62
               6
100
AcDbLine
 10
387.65542063852496
 20
357.15745133742917
 30
0.0
 11
387.05659061849423
 21
339.19255073650697
 31
0.0
  0
LINE
  5
106
100
AcDbEntity
  8
0
  6
Continuous
 62
               6
100
AcDbLine
 10
387.65542063852496
 20
357.15745133742917
 30
0.0
 11
373.7764495710598
 21
357.62008370634499
 31
0.0
  0
LINE
  5
107
100
AcDbEntity
  8
0
  6
Continuous
 62
               6
100
AcDbLine
 10
373.7764495710598
 20
357.62008370634499
 30
0.0
 11
369.88877638146357
 21
347.69039309864979
 31
0.0
  0
LINE
  5
108
100
AcDbEntity
  8
0
  6
Continuous
 62
               6
100
AcDbLine
 10
389.69087359469506
 20
388.20437798292369
 30
0.0
 11
388.07069204734415
 21
339.5989315623965
 31
0.0
  0
LINE
  5
109
100
AcDbEntity
  8
0
  6
Continuous
 62
               6
100
AcDbLine
 10
392.53888241586628
 20
338.56962346974314
 30
0.0
 11
394.14050874460378
 21
386.61831272264408
 31
0.0
  0
LINE
  5
10A
100
AcDbEntity
  8
0
  6
Continuous
 62
               7
100
AcDbLine
 10
234.66970465726234
 20
236.52447301529128
 30
0.0
 11
366.82487927829663
 21
236.52446970823212
 31
0.0
  0
LINE
  5
10B
100
AcDbEntity
  8
0
  6
Continuous
 62
               7
100
AcDbLine
 10
230.47119734476726
 20
242.41251281628752
 30
0.0
 11
226.67619477395149
 21
384.72510922187826
 31
0.0
  0
LINE
  5
10C
100
AcDbEntity
  8
0
  6
Continuous
 62
               7
100
AcDbLine
 10
217.06375916033357
 20
370.05813509449786
 30
0.0
 11
216.67974843433382
 21
384.45853731948864
 31
0.0
  0
LINE
  5
10D
100
AcDbEntity
  8
0
  6
Continuous
 62
               7
100
AcDbLine
 10
218.43112583303486
 20
386.3058806030499
 30
0.0
 11
224.82885149039015
 21
386.47648662057941
 31
0.0
  0
LINE
  5
10E
100
AcDbEntity
  8
0
  6
Continuous
 62
               7
100
AcDbLine
 10
224.72604225404473
 20
369.36709567608227
 30
0.0
 11
218.89383374102613
 21
368.51749770236938
 31
0.0
  0
LINE
  5
10F
100
AcDbEntity
  8
0
  6
Continuous
 62
               7
100
AcDbLine
 10
225.23083094441296
 20
371.40225709472384
 30
0.0
 11
224.89016302793982
 21
384.17730396246725
 31
0.0
  0
LINE
  5
110
100
AcDbEntity
  8
0
  6
Continuous
 62
               7
100
AcDbLine
 10
224.80308461691763
 20
370.89415071944472
 30
0.0
 11
219.42206819180106
 21
370.11027945676778
 31
0.0
  0
LINE
  5
111
100
AcDbEntity
  8
0
  6
Continuous
 62
               7
100
AcDbLine
 10
218.4924373705845
 20
384.00669794493774
 30
0.0
 11
218.85016988533465
 21
370.591728641808
 31
0.0
  0
LINE
  5
112
100
AcDbEntity
  8
0
  6
Continuous
 62
               7
100
AcDbLine
 10
224.37701211583945
 20
384.66379768432876
 30
0.0
 11
218.97893109244592
 21
384.51984885703814
 31
0.0
  0
LINE
  5
113
100
AcDbEntity
  8
0
  6
Continuous
 62
               7
100
AcDbLine
 10
228.67183700363609
 20
242.36452987385724
 30
0.0
 11
225.29794056051114
 21
368.88564649104228
 31
0.0
  0
LINE
  5
114
100
AcDbEntity
  8
0
  6
Continuous
 62
               7
100
AcDbLine
 10
371.0225480377535
 20
242.38454742125509
 30
0.0
 11
374.76924430454045
 21
354.78543542486568
 31
0.0
  0
LINE
  5
115
100
AcDbEntity
  8
0
  6
Continuous
 62
               7
100
AcDbLine
 10
372.82154887031595
 20
242.3245807268363
 30
0.0
 11
376.06361355253631
 21
339.58652119344788
 31
0.0
  0
LINE
  5
116
100
AcDbEntity
  8
0
  6
Continuous
 62
               7
100
AcDbLine
 10
234.66970470230564
 20
238.32447301529123
 30
0.0
 11
366.82487932333993
 21
238.32446970823207
 31
0.0
  0
LINE
  5
117
100
AcDbEntity
  8
0
  6
Continuous
 62
               6
100
AcDbLine
 10
374.28006987557529
 20
234.52446952167293
 30
0.0
 11
227.22098076910666
 21
234.52447320168858
 31
0.0
  0
LINE
  5
118
100
AcDbEntity
  8
0
  6
Continuous
 62
               6
100
AcDbLine
 10
375.24729185517123
 20
230.02446949746923
 30
0.0
 11
226.24729185517126
 21
230.02447322605417
 31
0.0
  0
LINE
  5
119
100
AcDbEntity
  8
0
  6
Continuous
 62
               6
100
AcDbLine
 10
222.85308720875173
 20
361.807151689595
 30
0.0
 11
226.22133616016896
 21
235.49781601144946
 31
0.0
  0
LINE
  5
11A
100
AcDbEntity
  8
0
  6
Continuous
 62
               6
100
AcDbLine
 10
215.08366203748389
 20
369.28511527375031
 30
0.0
 11
214.67408028520236
 21
384.64443098430661
 31
0.0
  0
LINE
  5
11B
100
AcDbEntity
  8
0
  6
Continuous
 62
               6
100
AcDbLine
 10
216.28131363736802
 20
367.5061149844239
 30
0.0
 11
220.15837110901245
 21
365.80990234057936
 31
0.0
  0
LINE
  5
11C
100
AcDbEntity
  8
0
  6
Continuous
 62
               6
100
AcDbLine
 10
218.38854882376532
 20
360.41735178946169
 30
0.0
 11
221.74889111495153
 21
234.4045158699787
 31
0.0
  0
LINE
  5
11D
100
AcDbEntity
  8
0
  6
Continuous
 62
               6
100
AcDbLine
 10
217.19089722388119
 20
362.1963520787881
 30
0.0
 11
213.31383975223676
 21
363.89256472263264
 31
0.0
  0
LINE
  5
11E
100
AcDbEntity
  8
0
  6
Continuous
 62
               6
100
AcDbLine
 10
210.61912365249748
 20
367.895315373617
 30
0.0
 11
210.17567943237444
 21
384.52447362823114
 31
0.0
  0
LINE
  5
11F
100
AcDbEntity
  8
0
  6
Continuous
 62
               6
100
AcDbLine
 10
210.17567943237444
 20
384.52447362823114
 30
0.0
 11
214.67408028520236
 21
384.64443098430661
 31
0.0
  0
LINE
  5
120
100
AcDbEntity
  8
0
  6
Continuous
 62
               6
100
AcDbLine
 10
209.61947901853571
 20
367.8686581833781
 30
0.0
 11
209.10777354695139
 21
387.05761336778914
 31
0.0
  0
LINE
  5
121
100
AcDbEntity
  8
0
  6
Continuous
 62
               6
100
AcDbLine
 10
209.10777354695139
 20
387.05761336778914
 30
0.0
 11
228.60084390920588
 21
387.57742857744915
 31
0.0
  0
LINE
  5
122
100
AcDbEntity
  8
0
  6
Continuous
 62
               6
100
AcDbLine
 10
229.49428500280504
 20
354.0733875674814
 30
0.0
 11
228.60084390920588
 21
387.57742857744915
 31
0.0
  0
LINE
  5
123
100
AcDbEntity
  8
0
  6
Continuous
 62
               6
100
AcDbLine
 10
375.27951480757855
 20
235.49115469144033
 30
0.0
 11
378.38039850387571
 21
328.51766558035479
 31
0.0
  0
LINE
  5
124
100
AcDbEntity
  8
0
  6
Continuous
 62
               6
100
AcDbLine
 10
379.74479404918577
 20
234.37455276142231
 30
0.0
 11
382.84858754154044
 21
327.48835753206356
 31
0.0
  0
LINE
  5
125
100
AcDbEntity
  8
0
  6
Continuous
 62
               4
100
AcDbLine
 10
436.1813294516258
 20
407.38978832999766
 30
0.0
 11
445.75959230383734
 21
410.26326718566105
 31
0.0
  0
LINE
  5
126
100
AcDbEntity
  8
0
  6
Continuous
 62
               4
100
AcDbLine
 10
448.05837538836789
 20
376.49989063161541
 30
0.0
 11
452.84750681447366
 21
377.93663005944711
 31
0.0
  0
LINE
  5
127
100
AcDbEntity
  8
0
  6
Continuous
 62
               4
100
AcDbLine
 10
439.38046924426448
 20
405.42624444529412
 30
0.0
 11
444.16960067037024
 21
406.86298387312587
 31
0.0
  0
LINE
  5
128
100
AcDbEntity
  8
0
  6
Continuous
 62
               4
100
AcDbLine
 10
448.05837538836789
 20
376.49989063161541
 30
0.0
 11
439.38046924426448
 21
405.42624444529412
 31
0.0
  0
LINE
  5
129
100
AcDbEntity
  8
0
  6
Continuous
 62
               4
100
AcDbLine
 10
452.84750681447366
 20
377.93663005944711
 30
0.0
 11
444.16960067037024
 21
406.86298387312587
 31
0.0
  0
LINE
  5
12A
100
AcDbEntity
  8
0
  6
Continuous
 62
               4
100
AcDbLine
 10
439.38046924426448
 20
405.42624444529412
 30
0.0
 11
436.1813294516258
 21
407.38978832999766
 31
0.0
  0
LINE
  5
12B
100
AcDbEntity
  8
0
  6
Continuous
 62
               4
100
AcDbLine
 10
444.16960067037024
 20
406.86298387312587
 30
0.0
 11
445.75959230383734
 21
410.26326718566105
 31
0.0
  0
LINE
  5
12C
100
AcDbEntity
  8
0
  6
Continuous
 62
               4
100
AcDbLine
 10
448.05837538836789
 20
376.49989063161541
 30
0.0
 11
451.02763687255344
 21
375.30260777508897
 31
0.0
  0
LINE
  5
12D
100
AcDbEntity
  8
0
  6
Continuous
 62
               4
100
AcDbLine
 10
451.02763687255344
 20
375.30260777508897
 30
0.0
 11
452.84750681447366
 21
377.93663005944711
 31
0.0
  0
LINE
  5
12E
100
AcDbEntity
  8
0
  6
Continuous
 62
               4
100
AcDbLine
 10
452.45539551006573
 20
379.24366774080698
 30
0.0
 11
447.91960000933426
 21
376.96247522839411
 31
0.0
  0
LINE
  5
12F
100
AcDbEntity
  8
0
  6
Continuous
 62
               4
100
AcDbLine
 10
452.16361482019255
 20
380.2162700403843
 30
0.0
 11
447.62781931946114
 21
377.93507752797132
 31
0.0
  0
LINE
  5
130
100
AcDbEntity
  8
0
  6
Continuous
 62
               4
100
AcDbLine
 10
451.87183413031937
 20
381.18887233996145
 30
0.0
 11
447.33603862958796
 21
378.90767982754858
 31
0.0
  0
LINE
  5
131
100
AcDbEntity
  8
0
  6
Continuous
 62
               4
100
AcDbLine
 10
451.58005344044619
 20
382.16147463953871
 30
0.0
 11
447.04425793971484
 21
379.88028212712572
 31
0.0
  0
LINE
  5
132
100
AcDbEntity
  8
0
  6
Continuous
 62
               4
100
AcDbLine
 10
451.28827275057307
 20
383.13407693911591
 30
0.0
 11
446.75247724984166
 21
380.85288442670304
 31
0.0
  0
LINE
  5
133
100
AcDbEntity
  8
0
  6
Continuous
 62
               4
100
AcDbLine
 10
450.99649206069989
 20
384.10667923869318
 30
0.0
 11
446.46069655996848
 21
381.82548672628019
 31
0.0
  0
LINE
  5
134
100
AcDbEntity
  8
0
  6
Continuous
 62
               4
100
AcDbLine
 10
450.70471137082671
 20
385.07928153827032
 30
0.0
 11
446.1689158700953
 21
382.79808902585745
 31
0.0
  0
LINE
  5
135
100
AcDbEntity
  8
0
  6
Continuous
 62
               4
100
AcDbLine
 10
450.41293068095359
 20
386.05188383784764
 30
0.0
 11
445.87713518022218
 21
383.77069132543465
 31
0.0
  0
LINE
  5
136
100
AcDbEntity
  8
0
  6
Continuous
 62
               4
100
AcDbLine
 10
450.12114999108042
 20
387.02448613742479
 30
0.0
 11
445.585354490349
 21
384.74329362501192
 31
0.0
  0
LINE
  5
137
100
AcDbEntity
  8
0
  6
Continuous
 62
               4
100
AcDbLine
 10
449.82936930120724
 20
387.99708843700205
 30
0.0
 11
445.29357380047588
 21
385.71589592458906
 31
0.0
  0
LINE
  5
138
100
AcDbEntity
  8
0
  6
Continuous
 62
               4
100
AcDbLine
 10
449.53758861133412
 20
388.96969073657925
 30
0.0
 11
445.0017931106027
 21
386.68849822416638
 31
0.0
  0
LINE
  5
139
100
AcDbEntity
  8
0
  6
Continuous
 62
               4
100
AcDbLine
 10
449.24580792146094
 20
389.94229303615651
 30
0.0
 11
444.71001242072953
 21
387.66110052374353
 31
0.0
  0
LINE
  5
13A
100
AcDbEntity
  8
0
  6
Continuous
 62
               4
100
AcDbLine
 10
448.95402723158776
 20
390.91489533573366
 30
0.0
 11
444.41823173085635
 21
388.63370282332079
 31
0.0
  0
LINE
  5
13B
100
AcDbEntity
  8
0
  6
Continuous
 62
               4
100
AcDbLine
 10
448.66224654171458
 20
391.88749763531098
 30
0.0
 11
444.12645104098323
 21
389.60630512289799
 31
0.0
  0
LINE
  5
13C
100
AcDbEntity
  8
0
  6
Continuous
 62
               4
100
AcDbLine
 10
448.37046585184146
 20
392.86009993488813
 30
0.0
 11
443.83467035111005
 21
390.57890742247525
 31
0.0
  0
LINE
  5
13D
100
AcDbEntity
  8
0
  6
Continuous
 62
               4
100
AcDbLine
 10
448.07868516196828
 20
393.83270223446544
 30
0.0
 11
443.54288966123693
 21
391.5515097220524
 31
0.0
  0
LINE
  5
13E
100
AcDbEntity
  8
0
  6
Continuous
 62
               4
100
AcDbLine
 10
447.78690447209516
 20
394.80530453404259
 30
0.0
 11
443.25110897136375
 21
392.52411202162972
 31
0.0
  0
LINE
  5
13F
100
AcDbEntity
  8
0
  6
Continuous
 62
               4
100
AcDbLine
 10
447.49512378222198
 20
395.77790683361985
 30
0.0
 11
442.95932828149057
 21
393.49671432120687
 31
0.0
  0
LINE
  5
140
100
AcDbEntity
  8
0
  6
Continuous
 62
               4
100
AcDbLine
 10
447.2033430923488
 20
396.75050913319711
 30
0.0
 11
442.66754759161739
 21
394.46931662078413
 31
0.0
  0
LINE
  5
141
100
AcDbEntity
  8
0
  6
Continuous
 62
               4
100
AcDbLine
 10
446.91156240247562
 20
397.72311143277426
 30
0.0
 11
442.37576690174427
 21
395.44191892036139
 31
0.0
  0
LINE
  5
142
100
AcDbEntity
  8
0
  6
Continuous
 62
               4
100
AcDbLine
 10
446.6197817126025
 20
398.69571373235141
 30
0.0
 11
442.08398621187109
 21
396.41452121993854
 31
0.0
  0
LINE
  5
143
100
AcDbEntity
  8
0
  6
Continuous
 62
               4
100
AcDbLine
 10
446.32800102272932
 20
399.66831603192878
 30
0.0
 11
441.79220552199791
 21
397.38712351951568
 31
0.0
  0
LINE
  5
144
100
AcDbEntity
  8
0
  6
Continuous
 62
               4
100
AcDbLine
 10
446.0362203328562
 20
400.64091833150593
 30
0.0
 11
441.50042483212479
 21
398.35972581909306
 31
0.0
  0
LINE
  5
145
100
AcDbEntity
  8
0
  6
Continuous
 62
               4
100
AcDbLine
 10
445.74443964298302
 20
401.61352063108319
 30
0.0
 11
441.20864414225161
 21
399.3323281186702
 31
0.0
  0
LINE
  5
146
100
AcDbEntity
  8
0
  6
Continuous
 62
               4
100
AcDbLine
 10
445.45265895310985
 20
402.58612293066045
 30
0.0
 11
440.91686345237844
 21
400.30493041824747
 31
0.0
  0
LINE
  5
147
100
AcDbEntity
  8
0
  6
Continuous
 62
               4
100
AcDbLine
 10
445.16087826323667
 20
403.5587252302376
 30
0.0
 11
442.31301923026797
 21
402.12644842204196
 31
0.0
  0
LINE
  5
148
100
AcDbEntity
  8
0
  6
Continuous
 62
               7
100
AcDbLine
 10
500.57412875018525
 20
335.39174760750535
 30
0.0
 11
530.57412875018531
 21
335.39174760750535
 31
0.0
  0
LINE
  5
149
100
AcDbEntity
  8
0
  6
Continuous
 62
               4
100
AcDbLine
 10
346.69640020649553
 20
378.50500653500501
 30
0.0
 11
365.85292591091854
 21
384.25196424633197
 31
0.0
  0
LINE
  5
14A
100
AcDbEntity
  8
0
  6
Continuous
 62
               4
100
AcDbLine
 10
346.26537837814607
 20
379.94174596283653
 30
0.0
 11
485.15018931525236
 21
421.60718924396866
 31
0.0
  0
LINE
  5
14B
100
AcDbEntity
  8
0
  6
Continuous
 62
               4
100
AcDbLine
 10
345.8343565497965
 20
381.37848539066835
 30
0.0
 11
337.21392945194555
 21
410.11327290108301
 31
0.0
  0
LINE
  5
14C
100
AcDbEntity
  8
0
  6
Continuous
 62
               4
100
AcDbLine
 10
345.83435654979644
 20
381.3784853906684
 30
0.0
 11
676.82252028207142
 21
480.67493451035085
 31
0.0
  0
LINE
  5
14D
100
AcDbEntity
  8
0
  6
Continuous
 62
               4
100
AcDbLine
 10
342.96088049391119
 20
390.95674908281336
 30
0.0
 11
673.94904142640803
 21
490.25319736256239
 31
0.0
  0
LINE
  5
14E
100
AcDbEntity
  8
0
  6
Continuous
 62
               4
100
AcDbLine
 10
340.08740443802583
 20
400.53501277495837
 30
0.0
 11
671.07556257074452
 21
499.83146021477393
 31
0.0
  0
LINE
  5
14F
100
AcDbEntity
  8
0
  6
Continuous
 62
               4
100
AcDbLine
 10
364.43759610267938
 20
382.00363677329182
 30
0.0
 11
347.12742203484504
 21
377.06826710717314
 31
0.0
  0
LINE
  5
150
100
AcDbEntity
  8
0
  6
Continuous
 62
               4
100
AcDbLine
 10
337.21392943988144
 20
410.11327294129666
 30
0.0
 11
668.20208393904511
 21
509.40972232043879
 31
0.0
  0
LINE
  5
151
100
AcDbEntity
  8
0
  6
Continuous
 62
               7
100
AcDbLine
 10
500.57412875018525
 20
86.962588130677489
 30
0.0
 11
500.57412875018525
 21
335.39174760750529
 31
0.0
  0
LINE
  5
152
100
AcDbEntity
  8
0
  6
Continuous
 62
               7
100
AcDbLine
 10
520.57412875018531
 20
86.962588130677489
 30
0.0
 11
520.57412875018531
 21
335.39174760750529
 31
0.0
  0
LINE
  5
153
100
AcDbEntity
  8
0
  6
Continuous
 62
               7
100
AcDbLine
 10
530.57412875018531
 20
86.962588130677489
 30
0.0
 11
530.57412875018531
 21
335.39174760750529
 31
0.0
  0
LINE
  5
154
100
AcDbEntity
  8
0
  6
Continuous
 62
               4
100
AcDbLine
 10
714.78679656440374
 20
21.213203435595801
 30
0.0
 11
714.78679656440374
 21
41.213203435595801
 31
0.0
  0
LINE
  5
155
100
AcDbEntity
  8
0
  6
Continuous
 62
               4
100
AcDbLine
 10
864.78679656440374
 20
21.213203435595801
 30
0.0
 11
714.78679656440374
 21
21.213203435595801
 31
0.0
  0
LINE
  5
156
100
AcDbEntity
  8
0
  6
Continuous
 62
               4
100
AcDbLine
 10
864.78679656440374
 20
41.213203435595801
 30
0.0
 11
864.78679656440374
 21
21.213203435595801
 31
0.0
  0
LINE
  5
157
100
AcDbEntity
  8
0
  6
Continuous
 62
               4
100
AcDbLine
 10
864.78679656440374
 20
41.213203435595801
 30
0.0
 11
714.78679656440374
 21
41.213203435595801
 31
0.0
  0
LINE
  5
158
100
AcDbEntity
  8
0
  6
Continuous
 62
               4
100
AcDbLine
 10
14.142135623730949
 20
595.85786437626837
 30
0.0
 11
14.142135623730949
 21
615.85786437626837
 31
0.0
  0
LINE
  5
159
100
AcDbEntity
  8
0
  6
Continuous
 62
               4
100
AcDbLine
 10
164.14213562373095
 20
595.85786437626837
 30
0.0
 11
14.142135623730949
 21
595.85786437626837
 31
0.0
  0
LINE
  5
15A
100
AcDbEntity
  8
0
  6
Continuous
 62
               4
100
AcDbLine
 10
164.14213562373095
 20
615.85786437626837
 30
0.0
 11
164.14213562373095
 21
595.85786437626837
 31
0.0
  0
LINE
  5
15B
100
AcDbEntity
  8
0
  6
Continuous
 62
               4
100
AcDbLine
 10
164.14213562373095
 20
615.85786437626837
 30
0.0
 11
14.142135623730949
 21
615.85786437626837
 31
0.0
  0
CIRCLE
  5
15C
100
AcDbEntity
  8
0
  6
Continuous
 62
               4
100
AcDbCircle
 10
329.45553631243649
 20
435.97458257712134
 30
0.0
 40
1.500000000000002
  0
CIRCLE
  5
15D
100
AcDbEntity
  8
0
  6
Continuous
 62
               4
100
AcDbCircle
 10
348.61205330385974
 20
441.72153784987978
 30
0.0
 40
1.500000000000002
  0
CIRCLE
  5
15E
100
AcDbEntity
  8
0
  6
Continuous
 62
               4
100
AcDbCircle
 10
321.69714318499155
 20
461.83589221294625
 30
0.0
 40
1.500000000000002
  0
CIRCLE
  5
15F
100
AcDbEntity
  8
0
  6
Continuous
 62
               4
100
AcDbCircle
 10
364.79931694502068
 20
474.76654473545074
 30
0.0
 40
1.500000000000002
  0
CIRCLE
  5
160
100
AcDbEntity
  8
0
  6
Continuous
 62
               4
100
AcDbCircle
 10
364.79931694502068
 20
474.76654473545074
 30
0.0
 40
1.500000000000002
  0
CIRCLE
  5
161
100
AcDbEntity
  8
0
  6
Continuous
 62
               4
100
AcDbCircle
 10
460.58194511955992
 20
503.50133406446986
 30
0.0
 40
1.500000000000002
  0
CIRCLE
  5
162
100
AcDbEntity
  8
0
  6
Continuous
 62
               4
100
AcDbCircle
 10
311.85292591091849
 20
384.25196424633197
 30
0.0
 40
1.500000000000002
  0
CIRCLE
  5
163
100
AcDbEntity
  8
0
  6
Continuous
 62
               4
100
AcDbCircle
 10
311.85292591091849
 20
334.25196424633191
 30
0.0
 40
1.500000000000002
  0
CIRCLE
  5
164
100
AcDbEntity
  8
0
  6
Continuous
 62
               4
100
AcDbCircle
 10
650.96121084849483
 20
504.23746023547523
 30
0.0
 40
1.500000000000002
  0
CIRCLE
  5
165
100
AcDbEntity
  8
0
  6
Continuous
 62
               4
100
AcDbCircle
 10
659.58164743280315
 20
475.50267249777193
 30
0.0
 40
1.500000000000002
  0
CIRCLE
  5
166
100
AcDbEntity
  8
0
  6
Continuous
 62
               4
100
AcDbCircle
 10
660.01266927321683
 20
474.06593307355939
 30
0.0
 40
1.500000000000002
  0
CIRCLE
  5
167
100
AcDbEntity
  8
0
  6
Continuous
 62
               4
100
AcDbCircle
 10
667.19636661344373
 20
450.12027600335108
 30
0.0
 40
1.500000000000002
  0
CIRCLE
  5
168
100
AcDbEntity
  8
0
  6
Continuous
 62
               4
100
AcDbCircle
 10
667.48371435229706
 20
449.16245023639539
 30
0.0
 40
1.500000000000002
  0
CIRCLE
  5
169
100
AcDbEntity
  8
0
  6
Continuous
 62
               4
100
AcDbCircle
 10
670.93188914799066
 20
437.66853460141346
 30
0.0
 40
1.500000000000002
  0
CIRCLE
  5
16A
100
AcDbEntity
  8
0
  6
Continuous
 62
               7
100
AcDbCircle
 10
529.85832993061183
 20
427.97520466540055
 30
0.0
 40
1.0
  0
CIRCLE
  5
16B
100
AcDbEntity
  8
0
  6
Continuous
 62
               7
100
AcDbCircle
 10
536.97819294431042
 20
425.43239644622241
 30
0.0
 40
0.5
  0
CIRCLE
  5
16C
100
AcDbEntity
  8
0
  6
Continuous
 62
               7
100
AcDbCircle
 10
531.1297340402009
 20
417.80397178868822
 30
0.0
 40
0.1
  0
CIRCLE
  5
16D
100
AcDbEntity
  8
0
  6
Continuous
 62
               7
100
AcDbCircle
 10
538.50387787581735
 20
415.26116356951007
 30
0.0
 40
1.0
  0
CIRCLE
  5
16E
100
AcDbEntity
  8
0
  6
Continuous
 62
               7
100
AcDbCircle
 10
537.23247376622828
 20
432.0436978160854
 30
0.0
 40
0.1
  0
CIRCLE
  5
16F
100
AcDbEntity
  8
0
  6
Continuous
 62
               7
100
AcDbCircle
 10
541.80952856074884
 20
420.6010608297841
 30
0.0
 40
0.5
  0
CIRCLE
  5
170
100
AcDbEntity
  8
0
  6
Continuous
 62
               7
100
AcDbCircle
 10
544.77711275440629
 20
432.45083951253883
 30
0.0
 40
1.0
  0
CIRCLE
  5
171
100
AcDbEntity
  8
0
  6
Continuous
 62
               7
100
AcDbCircle
 10
551.89697576810488
 20
429.90803129336069
 30
0.0
 40
0.5
  0
CIRCLE
  5
172
100
AcDbEntity
  8
0
  6
Continuous
 62
               7
100
AcDbCircle
 10
546.04851686399525
 20
422.2796066358265
 30
0.0
 40
0.1
  0
CIRCLE
  5
173
100
AcDbEntity
  8
0
  6
Continuous
 62
               7
100
AcDbCircle
 10
553.4226606996117
 20
419.73679841664836
 30
0.0
 40
1.0
  0
CIRCLE
  5
174
100
AcDbEntity
  8
0
  6
Continuous
 62
               7
100
AcDbCircle
 10
552.15125659002274
 20
436.51933266322368
 30
0.0
 40
0.1
  0
CIRCLE
  5
175
100
AcDbEntity
  8
0
  6
Continuous
 62
               7
100
AcDbCircle
 10
556.7283113845433
 20
425.07669567692238
 30
0.0
 40
0.5
  0
CIRCLE
  5
176
100
AcDbEntity
  8
0
  6
Continuous
 62
               7
100
AcDbCircle
 10
559.69589557820063
 20
436.92647435967712
 30
0.0
 40
1.0
  0
CIRCLE
  5
177
100
AcDbEntity
  8
0
  6
Continuous
 62
               7
100
AcDbCircle
 10
566.81575859189923
 20
434.38366614049897
 30
0.0
 40
0.5
  0
CIRCLE
  5
178
100
AcDbEntity
  8
0
  6
Continuous
 62
               7
100
AcDbCircle
 10
560.96729968778959
 20
426.75524148296478
 30
0.0
 40
0.1
  0
CIRCLE
  5
179
100
AcDbEntity
  8
0
  6
Continuous
 62
               7
100
AcDbCircle
 10
568.34144352340604
 20
424.21243326378664
 30
0.0
 40
1.0
  0
CIRCLE
  5
17A
100
AcDbEntity
  8
0
  6
Continuous
 62
               7
100
AcDbCircle
 10
567.07003941381709
 20
440.99496751036196
 30
0.0
 40
0.1
  0
CIRCLE
  5
17B
100
AcDbEntity
  8
0
  6
Continuous
 62
               7
100
AcDbCircle
 10
571.64709420833765
 20
429.55233052406066
 30
0.0
 40
0.5
  0
CIRCLE
  5
17C
100
AcDbEntity
  8
0
  6
Continuous
 62
               7
100
AcDbCircle
 10
574.61467840199498
 20
441.4021092068154
 30
0.0
 40
1.0
  0
CIRCLE
  5
17D
100
AcDbEntity
  8
0
  6
Continuous
 62
               7
100
AcDbCircle
 10
581.73454141569368
 20
438.85930098763725
 30
0.0
 40
0.5
  0
CIRCLE
  5
17E
100
AcDbEntity
  8
0
  6
Continuous
 62
               7
100
AcDbCircle
 10
575.88608251158405
 20
431.23087633010306
 30
0.0
 40
0.1
  0
CIRCLE
  5
17F
100
AcDbEntity
  8
0
  6
Continuous
 62
               7
100
AcDbCircle
 10
583.2602263472005
 20
428.68806811092492
 30
0.0
 40
1.0
  0
CIRCLE
  5
180
100
AcDbEntity
  8
0
  6
Continuous
 62
               7
100
AcDbCircle
 10
581.98882223761143
 20
445.47060235750024
 30
0.0
 40
0.1
  0
CIRCLE
  5
181
100
AcDbEntity
  8
0
  6
Continuous
 62
               7
100
AcDbCircle
 10
586.56587703213199
 20
434.02796537119895
 30
0.0
 40
0.5
  0
CIRCLE
  5
182
100
AcDbEntity
  8
0
  6
Continuous
 62
               7
100
AcDbCircle
 10
589.53346122578944
 20
445.87774405395368
 30
0.0
 40
1.0
  0
CIRCLE
  5
183
100
AcDbEntity
  8
0
  6
Continuous
 62
               7
100
AcDbCircle
 10
596.65332423948803
 20
443.33493583477576
 30
0.0
 40
0.5
  0
CIRCLE
  5
184
100
AcDbEntity
  8
0
  6
Continuous
 62
               7
100
AcDbCircle
 10
590.80486533537851
 20
435.70651117724134
 30
0.0
 40
0.1
  0
CIRCLE
  5
185
100
AcDbEntity
  8
0
  6
Continuous
 62
               7
100
AcDbCircle
 10
598.17900917099496
 20
433.16370295806342
 30
0.0
 40
1.0
  0
CIRCLE
  5
186
100
AcDbEntity
  8
0
  6
Continuous
 62
               7
100
AcDbCircle
 10
596.90760506140589
 20
449.94623720463875
 30
0.0
 40
0.1
  0
CIRCLE
  5
187
100
AcDbEntity
  8
0
  6
Continuous
 62
               7
100
AcDbCircle
 10
601.48465985592645
 20
438.50360021833723
 30
0.0
 40
0.5
  0
CIRCLE
  5
188
100
AcDbEntity
  8
0
  6
Continuous
 62
               7
100
AcDbCircle
 10
604.4522440495839
 20
450.35337890109196
 30
0.0
 40
1.0
  0
CIRCLE
  5
189
100
AcDbEntity
  8
0
  6
Continuous
 62
               7
100
AcDbCircle
 10
611.57210706328237
 20
447.81057068191404
 30
0.0
 40
0.5
  0
CIRCLE
  5
18A
100
AcDbEntity
  8
0
  6
Continuous
 62
               7
100
AcDbCircle
 10
605.72364815917285
 20
440.18214602437985
 30
0.0
 40
0.1
  0
CIRCLE
  5
18B
100
AcDbEntity
  8
0
  6
Continuous
 62
               7
100
AcDbCircle
 10
613.0977919947893
 20
437.63933780520171
 30
0.0
 40
1.0
  0
CIRCLE
  5
18C
100
AcDbEntity
  8
0
  6
Continuous
 62
               7
100
AcDbCircle
 10
611.82638788520035
 20
454.42187205177703
 30
0.0
 40
0.1
  0
CIRCLE
  5
18D
100
AcDbEntity
  8
0
  6
Continuous
 62
               7
100
AcDbCircle
 10
616.4034426797208
 20
442.97923506547573
 30
0.0
 40
0.5
  0
CIRCLE
  5
18E
100
AcDbEntity
  8
0
  6
Continuous
 62
               7
100
AcDbCircle
 10
619.37102687337824
 20
454.82901374823047
 30
0.0
 40
1.0
  0
CIRCLE
  5
18F
100
AcDbEntity
  8
0
  6
Continuous
 62
               7
100
AcDbCircle
 10
626.49088988707683
 20
452.28620552905232
 30
0.0
 40
0.5
  0
CIRCLE
  5
190
100
AcDbEntity
  8
0
  6
Continuous
 62
               7
100
AcDbCircle
 10
620.64243098296731
 20
444.65778087151813
 30
0.0
 40
0.1
  0
CIRCLE
  5
191
100
AcDbEntity
  8
0
  6
Continuous
 62
               7
100
AcDbCircle
 10
628.01657481858376
 20
442.11497265233999
 30
0.0
 40
1.0
  0
CIRCLE
  5
192
100
AcDbEntity
  8
0
  6
Continuous
 62
               7
100
AcDbCircle
 10
626.74517070899469
 20
458.89750689891531
 30
0.0
 40
0.1
  0
CIRCLE
  5
193
100
AcDbEntity
  8
0
  6
Continuous
 62
               7
100
AcDbCircle
 10
631.32222550351537
 20
447.45486991261401
 30
0.0
 40
0.5
  0
CIRCLE
  5
194
100
AcDbEntity
  8
0
  6
Continuous
 62
               7
100
AcDbCircle
 10
634.2898096971727
 20
459.30464859536875
 30
0.0
 40
1.0
  0
CIRCLE
  5
195
100
AcDbEntity
  8
0
  6
Continuous
 62
               7
100
AcDbCircle
 10
641.40967271087129
 20
456.76184037619061
 30
0.0
 40
0.5
  0
CIRCLE
  5
196
100
AcDbEntity
  8
0
  6
Continuous
 62
               7
100
AcDbCircle
 10
635.56121380676166
 20
449.13341571865641
 30
0.0
 40
0.1
  0
CIRCLE
  5
197
100
AcDbEntity
  8
0
  6
Continuous
 62
               7
100
AcDbCircle
 10
642.93535764237811
 20
446.59060749947827
 30
0.0
 40
1.0
  0
CIRCLE
  5
198
100
AcDbEntity
  8
0
  6
Continuous
 62
               7
100
AcDbCircle
 10
641.66395353278915
 20
463.37314174605359
 30
0.0
 40
0.1
  0
CIRCLE
  5
199
100
AcDbEntity
  8
0
  6
Continuous
 62
               7
100
AcDbCircle
 10
646.24100832730971
 20
451.9305047597523
 30
0.0
 40
0.5
  0
CIRCLE
  5
19A
100
AcDbEntity
  8
0
  6
Continuous
 62
               7
100
AcDbCircle
 10
649.20859252096704
 20
463.78028344250703
 30
0.0
 40
1.0
  0
CIRCLE
  5
19B
100
AcDbEntity
  8
0
  6
Continuous
 62
               7
100
AcDbCircle
 10
656.32845553466575
 20
461.23747522332889
 30
0.0
 40
0.5
  0
CIRCLE
  5
19C
100
AcDbEntity
  8
0
  6
Continuous
 62
               7
100
AcDbCircle
 10
650.47999663055623
 20
453.60905056579469
 30
0.0
 40
0.1
  0
CIRCLE
  5
19D
100
AcDbEntity
  8
0
  6
Continuous
 62
               7
100
AcDbCircle
 10
657.85414046617268
 20
451.06624234661655
 30
0.0
 40
1.0
  0
CIRCLE
  5
19E
100
AcDbEntity
  8
0
  6
Continuous
 62
               7
100
AcDbCircle
 10
656.5827363565835
 20
467.84877659319187
 30
0.0
 40
0.1
  0
CIRCLE
  5
19F
100
AcDbEntity
  8
0
  6
Continuous
 62
               7
100
AcDbCircle
 10
661.15979115110406
 20
456.40613960689058
 30
0.0
 40
0.5
  0
CIRCLE
  5
1A0
100
AcDbEntity
  8
0
  6
Continuous
 62
               7
100
AcDbCircle
 10
664.1273753447615
 20
468.25591828964531
 30
0.0
 40
1.0
  0
CIRCLE
  5
1A1
100
AcDbEntity
  8
0
  6
Continuous
 62
               7
100
AcDbCircle
 10
671.24723835846009
 20
465.71311007046717
 30
0.0
 40
0.5
  0
CIRCLE
  5
1A2
100
AcDbEntity
  8
0
  6
Continuous
 62
               7
100
AcDbCircle
 10
665.39877945435057
 20
458.08468541293297
 30
0.0
 40
0.1
  0
CIRCLE
  5
1A3
100
AcDbEntity
  8
0
  6
Continuous
 62
               7
100
AcDbCircle
 10
672.77292328996703
 20
455.54187719375506
 30
0.0
 40
1.0
  0
CIRCLE
  5
1A4
100
AcDbEntity
  8
0
  6
Continuous
 62
               7
100
AcDbCircle
 10
671.50151918037795
 20
472.32441144033038
 30
0.0
 40
0.1
  0
CIRCLE
  5
1A5
100
AcDbEntity
  8
0
  6
Continuous
 62
               7
100
AcDbCircle
 10
676.07857397489852
 20
460.88177445402886
 30
0.0
 40
0.5
  0
CIRCLE
  5
1A6
100
AcDbEntity
  8
0
  6
Continuous
 62
               7
100
AcDbCircle
 10
680.31756227814492
 20
462.56032026007125
 30
0.0
 40
0.1
  0
ARC
  5
1A7
100
AcDbEntity
  8
0
  6
Continuous
 62
               6
100
AcDbCircle
 10
597.99439862356951
 20
266.17769502991547
 30
0.0
 40
2.0
100
AcDbArc
 50
196.69924423399354
 51
286.69924423399362
  0
ARC
  5
1A8
100
AcDbEntity
  8
0
  6
Continuous
 62
               6
100
AcDbCircle
 10
642.05440774374256
 20
279.39569776596733
 30
0.0
 40
2.0
100
AcDbArc
 50
286.69924423399362
 51
16.699244233993603
  0
ARC
  5
1A9
100
AcDbEntity
  8
0
  6
Continuous
 62
               6
100
AcDbCircle
 10
570.40900160920046
 20
358.12901841114609
 30
0.0
 40
2.0
100
AcDbArc
 50
106.6992442339936
 51
196.69924423399354
  0
ARC
  5
1AA
100
AcDbEntity
  8
0
  6
Continuous
 62
               6
100
AcDbCircle
 10
614.46901072937339
 20
371.34702114719772
 30
0.0
 40
2.0
100
AcDbArc
 50
16.699244233993618
 51
106.6992442339936
  0
ARC
  5
1AB
100
AcDbEntity
  8
0
  6
Continuous
 62
               7
100
AcDbCircle
 10
642.05440774374256
 20
279.39569776596733
 30
0.0
 40
8.0
100
AcDbArc
 50
286.69924423399362
 51
16.699244233993603
  0
ARC
  5
1AC
100
AcDbEntity
  8
0
  6
Continuous
 62
               7
100
AcDbCircle
 10
597.99439862356951
 20
266.17769502991547
 30
0.0
 40
8.0
100
AcDbArc
 50
196.69924423399354
 51
286.69924423399362
  0
ARC
  5
1AD
100
AcDbEntity
  8
0
  6
Continuous
 62
               7
100
AcDbCircle
 10
606.47118777949936
 20
415.40707954134842
 30
0.0
 40
9.0
100
AcDbArc
 50
87.203746343485548
 51
126.17122063449067
  0
ARC
  5
1AE
100
AcDbEntity
  8
0
  6
Continuous
 62
               7
100
AcDbCircle
 10
600.26440712168733
 20
420.43558566800385
 30
0.0
 40
2.3999999999999999
100
AcDbArc
 50
68.192937089874889
 51
106.69999999999996
  0
ARC
  5
1AF
100
AcDbEntity
  8
0
  6
Continuous
 62
               7
100
AcDbCircle
 10
608.88480957529521
 20
423.02183034665114
 30
0.0
 40
2.3999999999999999
100
AcDbArc
 50
106.69999999999996
 51
145.38218745348942
  0
ARC
  5
1B0
100
AcDbEntity
  8
0
  6
Continuous
 62
               6
100
AcDbCircle
 10
394.18837567610126
 20
388.05446124687688
 30
0.0
 40
4.5
100
AcDbArc
 50
106.6992442339936
 51
178.09084756700364
  0
ARC
  5
1B1
100
AcDbEntity
  8
0
  6
Continuous
 62
               6
100
AcDbCircle
 10
396.13939462483643
 20
386.5517056297154
 30
0.0
 40
2.0
100
AcDbArc
 50
106.6992442339936
 51
178.09084756700358
  0
ARC
  5
1B2
100
AcDbEntity
  8
0
  6
Continuous
 62
               4
100
AcDbCircle
 10
366.60292591091854
 20
334.25196424633197
 30
0.0
 40
0.75
100
AcDbArc
 50
180.0
 51
0.0
  0
ARC
  5
1B3
100
AcDbEntity
  8
0
  6
Continuous
 62
               7
100
AcDbCircle
 10
376.56824513710291
 20
354.72546873044689
 30
0.0
 40
1.8
100
AcDbArc
 50
88.090847567002285
 51
178.09084756700364
  0
ARC
  5
1B4
100
AcDbEntity
  8
0
  6
Continuous
 62
               7
100
AcDbCircle
 10
384.76369337433198
 20
354.45228712253902
 30
0.0
 40
1.8
100
AcDbArc
 50
358.09084756700355
 51
88.090847567002356
  0
ARC
  5
1B5
100
AcDbEntity
  8
0
  6
Continuous
 62
               7
100
AcDbCircle
 10
384.48638113618358
 20
340.12958757016554
 30
0.0
 40
1.6000000000000001
100
AcDbArc
 50
258.71019883628782
 51
358.09084756700361
  0
ARC
  5
1B6
100
AcDbEntity
  8
0
  6
Continuous
 62
               7
100
AcDbCircle
 10
376.56333600602585
 20
339.56986377833141
 30
0.0
 40
0.5
100
AcDbArc
 50
78.710198836287773
 51
178.09084756700364
  0
ARC
  5
1B7
100
AcDbEntity
  8
0
  6
Continuous
 62
               7
100
AcDbCircle
 10
376.64775195348346
 20
342.10234220205757
 30
0.0
 40
0.5
100
AcDbArc
 50
178.09084756700364
 51
258.71019883628884
  0
ARC
  5
1B8
100
AcDbEntity
  8
0
  6
Continuous
 62
               7
100
AcDbCircle
 10
383.80412882524445
 20
340.6736816697171
 30
0.0
 40
0.5
100
AcDbArc
 50
258.71019883628884
 51
358.09084756700355
  0
ARC
  5
1B9
100
AcDbEntity
  8
0
  6
Continuous
 62
               7
100
AcDbCircle
 10
384.24731350572608
 20
353.96922208416572
 30
0.0
 40
0.5
100
AcDbArc
 50
358.09084756700355
 51
88.090847567002299
  0
ARC
  5
1BA
100
AcDbEntity
  8
0
  6
Continuous
 62
               7
100
AcDbCircle
 10
377.0513101754762
 20
354.20908886184088
 30
0.0
 40
0.5
100
AcDbArc
 50
88.090847567002228
 51
178.09084756700364
  0
ARC
  5
1BB
100
AcDbEntity
  8
0
  6
Continuous
 62
               6
100
AcDbCircle
 10
384.84747735549871
 20
327.42172787159825
 30
0.0
 40
2.0
100
AcDbArc
 50
130.59763209715049
 51
178.09084756700364
  0
ARC
  5
1BC
100
AcDbEntity
  8
0
  6
Continuous
 62
               6
100
AcDbCircle
 10
386.07180223338588
 20
339.6655612228617
 30
0.0
 40
2.0
100
AcDbArc
 50
310.59763209715044
 51
358.09084756700355
  0
ARC
  5
1BD
100
AcDbEntity
  8
0
  6
Continuous
 62
               6
100
AcDbCircle
 10
388.04137900360269
 20
338.71954025015202
 30
0.0
 40
4.5
100
AcDbArc
 50
310.59763209715044
 51
358.09084756700349
  0
ARC
  5
1BE
100
AcDbEntity
  8
0
  6
Continuous
 62
               6
100
AcDbCircle
 10
382.87790058528191
 20
328.36774884430793
 30
0.0
 40
4.5
100
AcDbArc
 50
130.59763209715041
 51
178.09084756700364
  0
ARC
  5
1BF
100
AcDbEntity
  8
0
  6
Continuous
 62
               7
100
AcDbCircle
 10
224.87683443282032
 20
384.6771262794482
 30
0.0
 40
1.8
100
AcDbArc
 50
1.5275254422129296
 51
91.527525442212834
  0
ARC
  5
1C0
100
AcDbEntity
  8
0
  6
Continuous
 62
               7
100
AcDbCircle
 10
218.47910877546502
 20
384.50652026191869
 30
0.0
 40
1.8
100
AcDbArc
 50
91.527525442212834
 51
181.52752544221286
  0
ARC
  5
1C1
100
AcDbEntity
  8
0
  6
Continuous
 62
               7
100
AcDbCircle
 10
218.6631905746724
 20
370.10078659888018
 30
0.0
 40
1.6000000000000001
100
AcDbArc
 50
181.52752544221286
 51
278.28817526085123
  0
ARC
  5
1C2
100
AcDbEntity
  8
0
  6
Continuous
 62
               7
100
AcDbCircle
 10
219.34999220231552
 20
370.60505723692745
 30
0.0
 40
0.5
100
AcDbArc
 50
181.52752544221292
 51
278.28817526085135
  0
ARC
  5
1C3
100
AcDbEntity
  8
0
  6
Continuous
 62
               7
100
AcDbCircle
 10
218.99225968756539
 20
384.02002654005719
 30
0.0
 40
0.5
100
AcDbArc
 50
91.527525442212905
 51
181.52752544221292
  0
ARC
  5
1C4
100
AcDbEntity
  8
0
  6
Continuous
 62
               7
100
AcDbCircle
 10
224.39034071095892
 20
384.1639753673478
 30
0.0
 40
0.5
100
AcDbArc
 50
1.5275254422129296
 51
91.527525442212948
  0
ARC
  5
1C5
100
AcDbEntity
  8
0
  6
Continuous
 62
               7
100
AcDbCircle
 10
224.73100862743209
 20
371.38892849960439
 30
0.0
 40
0.5
100
AcDbArc
 50
278.2881752608514
 51
1.5275254422128894
  0
ARC
  5
1C6
100
AcDbEntity
  8
0
  6
Continuous
 62
               7
100
AcDbCircle
 10
224.79811824353027
 20
368.87231789592261
 30
0.0
 40
0.5
100
AcDbArc
 50
1.5275254422129296
 51
98.288175260851261
  0
ARC
  5
1C7
100
AcDbEntity
  8
0
  6
Continuous
 62
               7
100
AcDbCircle
 10
366.82487942844102
 20
242.52446970823212
 30
0.0
 40
6.0
100
AcDbArc
 50
269.99999856622691
 51
358.09084756700355
  0
ARC
  5
1C8
100
AcDbEntity
  8
0
  6
Continuous
 62
               7
100
AcDbCircle
 10
366.82487942844102
 20
242.52446970823212
 30
0.0
 40
4.1999999999999993
100
AcDbArc
 50
269.99999856622691
 51
358.09084756700355
  0
ARC
  5
1C9
100
AcDbEntity
  8
0
  6
Continuous
 62
               7
100
AcDbCircle
 10
234.6697048074067
 20
242.52447301529128
 30
0.0
 40
4.1999999999999993
100
AcDbArc
 50
181.52752544221292
 51
269.99999856622691
  0
ARC
  5
1CA
100
AcDbEntity
  8
0
  6
Continuous
 62
               7
100
AcDbCircle
 10
234.6697048074067
 20
242.52447301529128
 30
0.0
 40
6.0
100
AcDbArc
 50
181.52752544221292
 51
269.99999856622691
  0
ARC
  5
1CB
100
AcDbEntity
  8
0
  6
Continuous
 62
               6
100
AcDbCircle
 10
226.24729196777952
 20
234.52447322605417
 30
0.0
 40
4.5
100
AcDbArc
 50
181.52752544221292
 51
269.99999856622691
  0
ARC
  5
1CC
100
AcDbEntity
  8
0
  6
Continuous
 62
               6
100
AcDbCircle
 10
227.22098079413072
 20
235.52447320168858
 30
0.0
 40
1.0
100
AcDbArc
 50
181.52752544221292
 51
269.99999856622691
  0
ARC
  5
1CD
100
AcDbEntity
  8
0
  6
Continuous
 62
               6
100
AcDbCircle
 10
374.28006990059936
 20
235.52446952167293
 30
0.0
 40
1.0
100
AcDbArc
 50
269.99999856622691
 51
358.09084756700361
  0
ARC
  5
1CE
100
AcDbEntity
  8
0
  6
Continuous
 62
               6
100
AcDbCircle
 10
375.24729196777952
 20
234.52446949746923
 30
0.0
 40
4.5
100
AcDbArc
 50
269.99999856622691
 51
358.09084756700361
  0
ARC
  5
1CF
100
AcDbEntity
  8
0
  6
Continuous
 62
               6
100
AcDbCircle
 10
218.35468635592377
 20
361.68719433351953
 30
0.0
 40
4.5
100
AcDbArc
 50
1.5275254422129296
 51
66.37062226934323
  0
ARC
  5
1D0
100
AcDbEntity
  8
0
  6
Continuous
 62
               6
100
AcDbCircle
 10
215.11752450532546
 20
368.01527272969247
 30
0.0
 40
4.5
100
AcDbArc
 50
181.52752544221292
 51
246.37062226934327
  0
ARC
  5
1D1
100
AcDbEntity
  8
0
  6
Continuous
 62
               6
100
AcDbCircle
 10
216.38925955584179
 20
360.3640374089839
 30
0.0
 40
2.0
100
AcDbArc
 50
1.5275254422129296
 51
66.370622269343286
  0
ARC
  5
1D2
100
AcDbEntity
  8
0
  6
Continuous
 62
               6
100
AcDbCircle
 10
217.08295130540745
 20
369.33842965422832
 30
0.0
 40
2.0
100
AcDbArc
 50
181.527525442213
 51
246.37062226934322
  0
ARC
  5
1D3
100
AcDbEntity
  8
0
  6
Continuous
 62
               4
100
AcDbCircle
 10
346.48088929232074
 20
379.22337624892083
 30
0.0
 40
0.749999999999998
100
AcDbArc
 50
106.69924423399353
 51
286.69924423399345
  0
ARC
  5
1D4
100
AcDbEntity
  8
0
  6
Continuous
 62
               4
100
AcDbCircle
 10
346.48088929232074
 20
379.22337624892083
 30
0.0
 40
2.2500000000000111
100
AcDbArc
 50
106.6992442339936
 51
286.69924423399334
  0
TEXT
  5
1D5
100
AcDbEntity
  8
0
 62
               7
100
AcDbText
 10
333.28683711129804
 20
437.12397285184608
 30
0.0
 40
12.00000000000013
  1
20
 50
16.699244715098196
 41
0.7695
  7
FontTableH_0
 72
               5
 11
344.78075250499813
 21
440.57214757515504
 31
0.0
100
AcDbText
  0
TEXT
  5
1D6
100
AcDbEntity
  8
0
 62
               7
100
AcDbText
 10
326.00735697445606
 20
463.12895638923521
 30
0.0
 40
11.99999999999992
  1
30～50
 50
16.699244715097741
 41
0.7695
  7
FontTableH_0
 72
               5
 11
360.48910315555622
 21
473.47348055916177
 31
0.0
100
AcDbText
  0
TEXT
  5
1D7
100
AcDbEntity
  8
0
 62
               7
100
AcDbText
 10
404.07019448701527
 20
486.54780835747857
 30
0.0
 40
12.00000000000013
  1
100
 50
16.699244715098317
 41
0.7695
  7
FontTableH_0
 72
               5
 11
421.31106757756532
 21
491.72007044244202
 31
0.0
100
AcDbText
  0
TEXT
  5
1D8
100
AcDbEntity
  8
0
 62
               7
100
AcDbText
 10
311.85292591091849
 20
353.25196424633191
 30
0.0
 40
12.000000000000012
  1
50
 50
90.000000000000028
 41
0.7695
  7
FontTableH_0
 72
               5
 11
311.85292591091849
 21
365.25196424633191
 31
0.0
100
AcDbText
  0
TEXT
  5
1D9
100
AcDbEntity
  8
0
 62
               7
100
AcDbText
 10
288.33244146305969
 20
309.90631918263404
 30
0.0
 40
12.000000000000012
  1
軒先唐草
 41
0.7695
  7
FontTableH_0
 72
               5
 11
336.33244146305975
 21
309.90631918263404
 31
0.0
100
AcDbText
  0
TEXT
  5
1DA
100
AcDbEntity
  8
0
 62
               7
100
AcDbText
 10
286.96663721696655
 20
268.78296987456991
 30
0.0
 40
12.000000000000012
  1
軒樋
 41
0.7695
  7
FontTableH_0
 72
               5
 11
310.96663721696655
 21
268.78296987456991
 31
0.0
100
AcDbText
  0
TEXT
  5
1DB
100
AcDbEntity
  8
0
 62
               7
100
AcDbText
 10
387.90792338818449
 20
270.06017655139505
 30
0.0
 40
12.000000000000012
  1
既存大波スレート
 41
0.7695
  7
FontTableH_0
 72
               5
 11
483.9079233881846
 21
270.06017655139743
 31
0.0
100
AcDbText
  0
TEXT
  5
1DC
100
AcDbEntity
  8
0
 62
               7
100
AcDbText
 10
430.35228833934411
 20
181.52598531684731
 30
0.0
 40
12.000000000000012
  1
既存外壁
 41
0.7695
  7
FontTableH_0
 72
               5
 11
478.35228833934417
 21
181.52598531684731
 31
0.0
100
AcDbText
  0
TEXT
  5
1DD
100
AcDbEntity
  8
0
 62
               7
100
AcDbText
 10
630.03329861906184
 20
241.56885820010166
 30
0.0
 40
12.000000000000012
  1
既存母屋
 41
0.7695
  7
FontTableH_0
 72
               5
 11
678.03329861906184
 21
241.56885820010166
 31
0.0
100
AcDbText
  0
TEXT
  5
1DE
100
AcDbEntity
  8
0
 62
               7
100
AcDbText
 10
613.3789826999099
 20
215.626558402961
 30
0.0
 40
11.999999999999929
  1
既存チャンネルボルト
 41
0.7695
  7
FontTableH_0
 72
               5
 11
733.37898269991001
 21
215.626558402961
 31
0.0
100
AcDbText
  0
TEXT
  5
1DF
100
AcDbEntity
  8
0
 62
               7
100
AcDbText
 10
492.7709651392388
 20
508.60523139998742
 30
0.0
 40
12.000000000000183
  1
断熱材
 41
0.7695
  7
FontTableH_0
 72
               5
 11
528.7709651392388
 21
508.60523139998878
 31
0.0
100
AcDbText
  0
TEXT
  5
1E0
100
AcDbEntity
  8
0
 62
               7
100
AcDbText
 10
505.72734366842388
 20
528.85653081345413
 30
0.0
 40
12.000000000000012
  1
金属垂木
 41
0.7695
  7
FontTableH_0
 72
               5
 11
553.72734366842406
 21
528.85653081345549
 31
0.0
100
AcDbText
  0
TEXT
  5
1E1
100
AcDbEntity
  8
0
 62
               7
100
AcDbText
 10
406.84569438970146
 20
554.8680100767067
 30
0.0
 40
12.000000000000012
  1
ハーパーズストロングルーフ385
 41
0.7695
  7
FontTableH_0
 72
               5
 11
580.84569438970186
 21
554.8680100767217
 31
0.0
100
AcDbText
  0
TEXT
  5
1E2
100
AcDbEntity
  8
0
 62
               7
100
AcDbText
 10
653.54734177899445
 20
495.61702406347354
 30
0.0
 40
12.000000000000293
  1
30
 50
286.69924471509847
 41
0.7695
  7
FontTableH_0
 72
               5
 11
656.99551650230342
 21
484.12310866977361
 31
0.0
100
AcDbText
  0
TEXT
  5
1E3
100
AcDbEntity
  8
0
 62
               7
100
AcDbText
 10
661.8804305816758
 20
467.84006223530514
 30
0.0
 40
11.999999999999968
  1
25
 50
286.69924471509847
 41
0.7695
  7
FontTableH_0
 72
               5
 11
665.32860530498476
 21
456.34614684160522
 31
0.0
100
AcDbText
  0
TEXT
  5
1E4
100
AcDbEntity
  8
0
 62
               7
100
AcDbText
 10
667.48371438848937
 20
449.16245011575438
 30
0.0
 40
11.999999999999968
  1
12
 50
286.69924471509847
 41
0.7695
  7
FontTableH_0
 72
               5
 11
670.93188911179834
 21
437.66853472205446
 31
0.0
100
AcDbText
  0
TEXT
  5
1E5
100
AcDbEntity
  8
0
 62
               7
100
AcDbText
 10
48.642136696614457
 20
601.35786449547766
 30
0.0
 40
8.9999997615814422
  1
ジンクロンスレート
 41
0.7695
  7
FontTableH_0
 72
               5
 11
129.64213455084743
 21
601.35786449547766
 31
0.0
100
AcDbText
  0
TEXT
  5
1E6
100
AcDbEntity
  8
0
 62
               7
100
AcDbText
 10
744.7867977564963
 20
26.71320355480508
 30
0.0
 40
8.9999997615814422
  1
軒先詳細図 【S=1/3】
 41
0.7695
  7
FontTableH_0
 72
               5
 11
834.78679537231073
 21
26.71320355480508
 31
0.0
100
AcDbText
  0
ENDSEC
  0
SECTION
  2
OBJECTS
  0
DICTIONARY
  5
19
100
AcDbDictionary
  3
ACAD_GROUP
350
1A
  3
ACAD_MLINESTYLE
350
1B
  3
DWGPROPS
350
1E7
  0
DICTIONARY
  5
1A
102
{ACAD_REACTORS
330
19
102
}
100
AcDbDictionary
  0
DICTIONARY
  5
1B
102
{ACAD_REACTORS
330
19
102
}
100
AcDbDictionary
  3
STANDARD
350
1C
  0
MLINESTYLE
  5
1C
102
{ACAD_REACTORS
330
1B
102
}
100
AcDbMlineStyle
  2
Standard
 70
               0
  3

 62
               0
 51
90.0
 52
90.0
 71
               2
 49
0.5
 62
             256
  6
ByLayer
 49
-0.5
 62
             256
  6
ByLayer
  0
XRECORD
  5
1E7
100
AcDbXrecord
  1
DWGPROPS COOKIE
  2

  3

  4

  6

  7

  0
ENDSEC
  0
EOF
