  0
SECTION
  2
HEADER
  9
$ACADVER
  1
AC1014
  9
$ACADMAINTVER
 70
               0
  9
$DWGCODEPAGE
  3
ANSI_932
  9
$INSBASE
 10
0.0
 20
0.0
 30
0.0
  9
$EXTMIN
 10
0.0
 20
0.0
 30
0.0
  9
$EXTMAX
 10
891.00000000000091
 20
630.00000000000068
 30
0.0
  9
$LIMMIN
 10
0.0
 20
0.0
  9
$LIMMAX
 10
891.00000000000091
 20
630.00000000000068
  9
$ORTHOMODE
 70
               0
  9
$REGENMODE
 70
               1
  9
$FILLMODE
 70
               1
  9
$QTEXTMODE
 70
               0
  9
$MIRRTEXT
 70
               1
  9
$DRAGMODE
 70
               2
  9
$LTSCALE
 40
3.0000000000000031
  9
$OSMODE
 70
               0
  9
$ATTMODE
 70
               1
  9
$TEXTSIZE
 40
0.2
  9
$TRACEWID
 40
0.05
  9
$TEXTSTYLE
  7
Standard
  9
$CLAYER
  8
0
  9
$CELTYPE
  6
Continuous
  9
$CECOLOR
 62
             256
  9
$CELTSCALE
 40
1.0
  9
$DELOBJ
 70
               1
  9
$DISPSILH
 70
               0
  9
$DIMSCALE
 40
1.0
  9
$DIMASZ
 40
0.18
  9
$DIMEXO
 40
0.0625
  9
$DIMDLI
 40
0.38
  9
$DIMRND
 40
0.0
  9
$DIMDLE
 40
0.0
  9
$DIMEXE
 40
0.18
  9
$DIMTP
 40
0.0
  9
$DIMTM
 40
0.0
  9
$DIMTXT
 40
0.18
  9
$DIMCEN
 40
0.09
  9
$DIMTSZ
 40
0.0
  9
$DIMTOL
 70
               0
  9
$DIMLIM
 70
               0
  9
$DIMTIH
 70
               1
  9
$DIMTOH
 70
               1
  9
$DIMSE1
 70
               0
  9
$DIMSE2
 70
               0
  9
$DIMTAD
 70
               0
  9
$DIMZIN
 70
               0
  9
$DIMBLK
  1

  9
$DIMASO
 70
               1
  9
$DIMSHO
 70
               1
  9
$DIMPOST
  1

  9
$DIMAPOST
  1

  9
$DIMALT
 70
               0
  9
$DIMALTD
 70
               2
  9
$DIMALTF
 40
25.399999999999999
  9
$DIMLFAC
 40
1.0
  9
$DIMTOFL
 70
               0
  9
$DIMTVP
 40
0.0
  9
$DIMTIX
 70
               0
  9
$DIMSOXD
 70
               0
  9
$DIMSAH
 70
               0
  9
$DIMBLK1
  1

  9
$DIMBLK2
  1

  9
$DIMSTYLE
  2
Standard
  9
$DIMCLRD
 70
               0
  9
$DIMCLRE
 70
               0
  9
$DIMCLRT
 70
               0
  9
$DIMTFAC
 40
1.0
  9
$DIMGAP
 40
0.09
  9
$DIMJUST
 70
               0
  9
$DIMSD1
 70
               0
  9
$DIMSD2
 70
               0
  9
$DIMTOLJ
 70
               1
  9
$DIMTZIN
 70
               0
  9
$DIMALTZ
 70
               0
  9
$DIMALTTZ
 70
               0
  9
$DIMFIT
 70
               3
  9
$DIMUPT
 70
               0
  9
$DIMUNIT
 70
               2
  9
$DIMDEC
 70
               4
  9
$DIMTDEC
 70
               4
  9
$DIMALTU
 70
               2
  9
$DIMALTTD
 70
               2
  9
$DIMTXSTY
  7
Standard
  9
$DIMAUNIT
 70
               0
  9
$LUNITS
 70
               2
  9
$LUPREC
 70
               4
  9
$SKETCHINC
 40
0.1
  9
$FILLETRAD
 40
0.0
  9
$AUNITS
 70
               0
  9
$AUPREC
 70
               0
  9
$MENU
  1
acad
  9
$ELEVATION
 40
0.0
  9
$PELEVATION
 40
0.0
  9
$THICKNESS
 40
0.0
  9
$LIMCHECK
 70
               0
  9
$BLIPMODE
 70
               1
  9
$CHAMFERA
 40
0.0
  9
$CHAMFERB
 40
0.0
  9
$CHAMFERC
 40
0.0
  9
$CHAMFERD
 40
0.0
  9
$SKPOLY
 70
               0
  9
$TDCREATE
 40
0.000000000
  9
$TDUPDATE
 40
0.000000000
  9
$TDINDWG
 40
0.0000000000
  9
$TDUSRTIMER
 40
0.0000000000
  9
$USRTIMER
 70
               1
  9
$ANGBASE
 50
0.0
  9
$ANGDIR
 70
               0
  9
$PDMODE
 70
               0
  9
$PDSIZE
 40
0.0
  9
$PLINEWID
 40
0.0
  9
$COORDS
 70
               0
  9
$SPLFRAME
 70
               0
  9
$SPLINETYPE
 70
               6
  9
$SPLINESEGS
 70
               8
  9
$ATTDIA
 70
               0
  9
$ATTREQ
 70
               1
  9
$HANDLING
 70
               1
  9
$HANDSEED
  5
209
  9
$SURFTAB1
 70
               6
  9
$SURFTAB2
 70
               6
  9
$SURFTYPE
 70
               6
  9
$SURFU
 70
               6
  9
$SURFV
 70
               6
  9
$UCSNAME
  2

  9
$UCSORG
 10
0.0
 20
0.0
 30
0.0
  9
$UCSXDIR
 10
1.0
 20
0.0
 30
0.0
  9
$UCSYDIR
 10
0.0
 20
1.0
 30
0.0
  9
$PUCSNAME
  2

  9
$PUCSORG
 10
0.0
 20
0.0
 30
0.0
  9
$PUCSXDIR
 10
1.0
 20
0.0
 30
0.0
  9
$PUCSYDIR
 10
0.0
 20
1.0
 30
0.0
  9
$USERI1
 70
               0
  9
$USERI2
 70
               0
  9
$USERI3
 70
               0
  9
$USERI4
 70
               0
  9
$USERI5
 70
               0
  9
$USERR1
 40
0.0
  9
$USERR2
 40
0.0
  9
$USERR3
 40
0.0
  9
$USERR4
 40
0.0
  9
$USERR5
 40
0.0
  9
$WORLDVIEW
 70
               1
  9
$SHADEDGE
 70
               3
  9
$SHADEDIF
 70
              70
  9
$TILEMODE
 70
               1
  9
$MAXACTVP
 70
              16
  9
$PINSBASE
 10
0.0
 20
0.0
 30
0.0
  9
$PLIMCHECK
 70
               0
  9
$PEXTMIN
 10
1.0000000000000000E+20
 20
1.0000000000000000E+20
 30
1.0000000000000000E+20
  9
$PEXTMAX
 10
-1.0000000000000000E+20
 20
-1.0000000000000000E+20
 30
-1.0000000000000000E+20
  9
$PLIMMIN
 10
0.0
 20
0.0
  9
$PLIMMAX
 10
12.0
 20
9.0
  9
$UNITMODE
 70
               0
  9
$VISRETAIN
 70
               0
  9
$PLINEGEN
 70
               1
  9
$PSLTSCALE
 70
               0
  9
$TREEDEPTH
 70
            3020
  9
$PICKSTYLE
 70
               1
  9
$CMLSTYLE
  2
Standard
  9
$CMLJUST
 70
               0
  9
$CMLSCALE
 40
1.0
  9
$PROXYGRAPHICS
 70
               0
  9
$MEASUREMENT
 70
               0
  0
ENDSEC
  0
SECTION
  2
CLASSES
  0
CLASS
  1
LWPOLYLINE
  2
AcDbPolyline
  3
"AutoCAD"
 90
        0
280
               0
281
               1
  0
CLASS
  1
IMAGE
  2
AcDbRasterImage
  3
ISM
 90
      127
280
               0
281
               1
  0
CLASS
  1
OLE2FRAME
  2
AcDbOle2Frame
  3
""
 90
        0
280
               0
281
               1
  0
CLASS
  1
HATCH
  2
AcDbHatch
  3
"ACAD_SEDONA"
 90
        0
280
               0
281
               1
  0
CLASS
  1
DICTIONARYVAR
  2
AcDbDictionaryVar
  3
"AutoCAD"
 90
        0
280
               0
281
               0
  0
CLASS
  1
RASTERVARIABLES
  2
AcDbRasterVariables
  3
ISM
 90
        0
280
               0
281
               0
  0
CLASS
  1
IMAGEDEF
  2
AcDbRasterImageDef
  3
ISM
 90
        0
280
               0
281
               0
  0
CLASS
  1
IMAGEDEF_REACTOR
  2
AcDbRasterImageDefReactor
  3
ISM
 90
        1
280
               0
281
               0
  0
CLASS
  1
IDBUFFER
  2
AcDbIdBuffer
  3
"Acad"
 90
        0
280
               0
281
               0
  0
CLASS
  1
SPATIAL_FILTER
  2
AcDbSpatialFilter
  3
"Acad"
 90
        0
280
               0
281
               0
  0
CLASS
  1
XRECORD
  2
AcDbXrecord
  3
"<Built In>"
 90
        0
280
               0
281
               0
  0
CLASS
  1
SORTENTSTABLE
  2
AcDbSortentsTable
  3
"AutoCAD"
 90
        0
280
               0
281
               0
  0
CLASS
  1
LAYER_INDEX
  2
AcDbLayerIndex
  3
"Acad"
 90
        0
280
               0
281
               0
  0
CLASS
  1
SPATIAL_INDEX
  2
AcDbSpatialIndex
  3
"Acad"
 90
        0
280
               0
281
               0
  0
CLASS
  1
OBJECT_PTR
  2
CAseDLPNTableRecord
  3
"ASE-LPNTableRecord"
 90
        1
280
               0
281
               0
  0
CLASS
  1
LAYOUT
  2
AcDbLayout
  3
"AutoCAD 2000"
 90
        0
280
               0
281
               0
  0
CLASS
  1
PLOTSETTINGS
  2
AcDbPlotSettings
  3
"AutoCAD 2000"
 90
        0
280
               0
281
               0
  0
CLASS
  1
ACDBDICTIONARYWDFLT
  2
AcDbDictionaryWithDefault
  3
"AutoCAD 2000"
 90
        0
280
               0
281
               0
  0
CLASS
  1
ACDBPLACEHOLDER
  2
AcDbPlaceHolder
  3
"AutoCAD 2000"
 90
        0
280
               0
281
               0
  0
CLASS
  1
VBA_PROJECT
  2
AcDbVbaProject
  3
"acadvba"
 90
        0
280
               0
281
               0
  0
CLASS
  1
WIPEOUT
  2
AcDbWipeout
  3
WipeOut|AutoCAD Express Tool|expresstools@autodesk.com
 90
      127
280
               0
281
               1
  0
CLASS
  1
WIPEOUTVARIABLES
  2
AcDbWipeoutVariables
  3
WipeOut|AutoCAD Express Tool|expresstools@autodesk.com
 90
        0
280
               0
281
               0
  0
CLASS
  1
RTEXT
  2
RText
  3
RText|AutoCAD Express Tool|expresstools@autodesk.com
 90
        0
280
               0
281
               1
  0
CLASS
  1
ARCALIGNEDTEXT
  2
AcDbArcAlignedText
  3
ATEXT|AutoCAD Express Tool|expresstools@autodesk.com
 90
        0
280
               0
281
               1
  0
ENDSEC
  0
SECTION
  2
TABLES
  0
TABLE
  2
VPORT
  5
7
100
AcDbSymbolTable
 70
               1
  0
VPORT
  5
15
100
AcDbSymbolTableRecord
100
AcDbViewportTableRecord
  2
*ACTIVE
 70
               0
 10
0.0
 20
0.0
 11
1.0
 21
1.0
 12
445.50000000000045
 22
315.00000000000034
 13
0.0
 23
0.0
 14
10.0
 24
10.0
 15
10.0
 25
10.0
 16
0.0
 26
0.0
 36
1.0
 17
0.0
 27
0.0
 37
0.0
 40
630.00000000000068
 41
1.4142857142857141
 42
50.0
 43
0.0
 44
0.0
 50
0.0
 51
0.0
 71
               0
 72
             100
 73
               1
 74
               1
 75
               0
 76
               0
 77
               0
 78
               0
  0
ENDTAB
  0
TABLE
  2
LTYPE
  5
4
100
AcDbSymbolTable
 70
              24
  0
LTYPE
  5
11
100
AcDbSymbolTableRecord
100
AcDbLinetypeTableRecord
  2
ByBlock
 70
              64
  3

 72
              65
 73
               0
 40
0.0
  0
LTYPE
  5
12
100
AcDbSymbolTableRecord
100
AcDbLinetypeTableRecord
  2
ByLayer
 70
              64
  3

 72
              65
 73
               0
 40
0.0
  0
LTYPE
  5
13
100
AcDbSymbolTableRecord
100
AcDbLinetypeTableRecord
  2
Continuous
 70
              64
  3
Solid line
 72
              65
 73
               0
 40
0.0
  0
LTYPE
  5
1D
100
AcDbSymbolTableRecord
100
AcDbLinetypeTableRecord
  2
DOT
 70
              64
  3
Dot . . . . . . . . . . . . . . . . . . . . . .
 72
              65
 73
               2
 40
6.3499999999999996
 49
0.35
 74
               0
 49
-6.0
 74
               0
  0
LTYPE
  5
1E
100
AcDbSymbolTableRecord
100
AcDbLinetypeTableRecord
  2
DASHED
 70
              64
  3
Dashed __ __ __ __ __ __ __ __ __ __ __ __ __ _
 72
              65
 73
               2
 40
12.699999999999999
 49
6.3499999999999996
 74
               0
 49
-6.3499999999999996
 74
               0
  0
LTYPE
  5
1F
100
AcDbSymbolTableRecord
100
AcDbLinetypeTableRecord
  2
DASHDOT
 70
              64
  3
Dash dot __ . __ . __ . __ . __ . __ . __ . __
 72
              65
 73
               4
 40
25.399999999999999
 49
12.699999999999999
 74
               0
 49
-6.0
 74
               0
 49
0.7
 74
               0
 49
-6.0
 74
               0
  0
LTYPE
  5
20
100
AcDbSymbolTableRecord
100
AcDbLinetypeTableRecord
  2
DIVIDE
 70
              64
  3
Divide ____ . . ____ . . ____ . . ____ . . ____
 72
              65
 73
               6
 40
31.75
 49
12.699999999999999
 74
               0
 49
-6.0
 74
               0
 49
0.875
 74
               0
 49
-6.0
 74
               0
 49
0.875
 74
               0
 49
-6.0
 74
               0
  0
LTYPE
  5
21
100
AcDbSymbolTableRecord
100
AcDbLinetypeTableRecord
  2
HIDDEN
 70
              64
  3
Hidden __ __ __ __ __ __ __ __ __ __ __ __ __ _
 72
              65
 73
               2
 40
9.5250000000000004
 49
6.3499999999999996
 74
               0
 49
-3.1749999999999998
 74
               0
  0
LTYPE
  5
22
100
AcDbSymbolTableRecord
100
AcDbLinetypeTableRecord
  2
CENTER
 70
              64
  3
Center ____ _ ____ _ ____ _ ____ _ ____ _ ____
 72
              65
 73
               4
 40
50.799999999999997
 49
31.75
 74
               0
 49
-6.3499999999999996
 74
               0
 49
6.3499999999999996
 74
               0
 49
-6.3499999999999996
 74
               0
  0
LTYPE
  5
23
100
AcDbSymbolTableRecord
100
AcDbLinetypeTableRecord
  2
PHANTOM
 70
              64
  3
Phantom ______  __  __  ______  __  __  ______
 72
              65
 73
               6
 40
63.5
 49
31.75
 74
               0
 49
-6.3499999999999996
 74
               0
 49
6.3499999999999996
 74
               0
 49
-6.3499999999999996
 74
               0
 49
6.3499999999999996
 74
               0
 49
-6.3499999999999996
 74
               0
  0
LTYPE
  5
24
100
AcDbSymbolTableRecord
100
AcDbLinetypeTableRecord
  2
ACAD_ISO02W100
 70
              64
  3
ISO dash __ __ __ __ __ __ __ __ __ __ __ __ __
 72
              65
 73
               2
 40
15.0
 49
12.0
 74
               0
 49
-3.0
 74
               0
  0
LTYPE
  5
25
100
AcDbSymbolTableRecord
100
AcDbLinetypeTableRecord
  2
ACAD_ISO03W100
 70
              64
  3
ISO dash space __ __ __ __ __ __ __ __ __ __ __ __ __ __
 72
              65
 73
               2
 40
30.0
 49
12.0
 74
               0
 49
-18.0
 74
               0
  0
LTYPE
  5
26
100
AcDbSymbolTableRecord
100
AcDbLinetypeTableRecord
  2
ACAD_ISO04W100
 70
              64
  3
ISO long-dash dot ____ . ____ . ____ . ____ . _
 72
              65
 73
               4
 40
30.0
 49
24.0
 74
               0
 49
-3.0
 74
               0
 49
0.0
 74
               0
 49
-3.0
 74
               0
  0
LTYPE
  5
27
100
AcDbSymbolTableRecord
100
AcDbLinetypeTableRecord
  2
ACAD_ISO05W100
 70
              64
  3
ISO long-dash double-dot ____ .. ____ .. ____ .
 72
              65
 73
               6
 40
33.0
 49
24.0
 74
               0
 49
-3.0
 74
               0
 49
0.0
 74
               0
 49
-3.0
 74
               0
 49
0.0
 74
               0
 49
-3.0
 74
               0
  0
LTYPE
  5
28
100
AcDbSymbolTableRecord
100
AcDbLinetypeTableRecord
  2
ACAD_ISO06W100
 70
              64
  3
ISO long-dash triple-dot ____ ... ____ ... ____
 72
              65
 73
               8
 40
36.0
 49
24.0
 74
               0
 49
-3.0
 74
               0
 49
0.0
 74
               0
 49
-3.0
 74
               0
 49
0.0
 74
               0
 49
-3.0
 74
               0
 49
0.0
 74
               0
 49
-3.0
 74
               0
  0
LTYPE
  5
29
100
AcDbSymbolTableRecord
100
AcDbLinetypeTableRecord
  2
ACAD_ISO07W100
 70
              64
  3
ISO dot . . . . . . . . . . . . . . . . . . . .
 72
              65
 73
               2
 40
3.0
 49
0.0
 74
               0
 49
-3.0
 74
               0
  0
LTYPE
  5
2A
100
AcDbSymbolTableRecord
100
AcDbLinetypeTableRecord
  2
ACAD_ISO08W100
 70
              64
  3
ISO long-dash short-dash ____ __ ____ __ ____ _
 72
              65
 73
               4
 40
36.0
 49
24.0
 74
               0
 49
-3.0
 74
               0
 49
6.0
 74
               0
 49
-3.0
 74
               0
  0
LTYPE
  5
2B
100
AcDbSymbolTableRecord
100
AcDbLinetypeTableRecord
  2
ACAD_ISO09W100
 70
              64
  3
ISO long-dash double-short-dash ____ __ __ ____
 72
              65
 73
               6
 40
45.0
 49
24.0
 74
               0
 49
-3.0
 74
               0
 49
6.0
 74
               0
 49
-3.0
 74
               0
 49
6.0
 74
               0
 49
-3.0
 74
               0
  0
LTYPE
  5
2C
100
AcDbSymbolTableRecord
100
AcDbLinetypeTableRecord
  2
ACAD_ISO10W100
 70
              64
  3
ISO dash dot __ . __ . __ . __ . __ . __ . __ .
 72
              65
 73
               4
 40
18.0
 49
12.0
 74
               0
 49
-3.0
 74
               0
 49
0.0
 74
               0
 49
-3.0
 74
               0
  0
LTYPE
  5
2D
100
AcDbSymbolTableRecord
100
AcDbLinetypeTableRecord
  2
ACAD_ISO11W100
 70
              64
  3
ISO double-dash dot __ __ . __ __ . __ __ . __ 
 72
              65
 73
               6
 40
33.0
 49
12.0
 74
               0
 49
-3.0
 74
               0
 49
12.0
 74
               0
 49
-3.0
 74
               0
 49
0.0
 74
               0
 49
-3.0
 74
               0
  0
LTYPE
  5
2E
100
AcDbSymbolTableRecord
100
AcDbLinetypeTableRecord
  2
ACAD_ISO12W100
 70
              64
  3
ISO dash double-dot __ . . __ . . __ . . __ . .
 72
              65
 73
               6
 40
21.0
 49
12.0
 74
               0
 49
-3.0
 74
               0
 49
0.0
 74
               0
 49
-3.0
 74
               0
 49
0.0
 74
               0
 49
-3.0
 74
               0
  0
LTYPE
  5
2F
100
AcDbSymbolTableRecord
100
AcDbLinetypeTableRecord
  2
ACAD_ISO13W100
 70
              64
  3
ISO double-dash double-dot __ __ . . __ __ . . 
 72
              65
 73
               8
 40
36.0
 49
12.0
 74
               0
 49
-3.0
 74
               0
 49
12.0
 74
               0
 49
-3.0
 74
               0
 49
0.0
 74
               0
 49
-3.0
 74
               0
 49
0.0
 74
               0
 49
-3.0
 74
               0
  0
LTYPE
  5
30
100
AcDbSymbolTableRecord
100
AcDbLinetypeTableRecord
  2
ACAD_ISO14W100
 70
              64
  3
ISO dash triple-dot __ . . . __ . . . __ . . . 
 72
              65
 73
               8
 40
24.0
 49
12.0
 74
               0
 49
-3.0
 74
               0
 49
0.0
 74
               0
 49
-3.0
 74
               0
 49
0.0
 74
               0
 49
-3.0
 74
               0
 49
0.0
 74
               0
 49
-3.0
 74
               0
  0
LTYPE
  5
31
100
AcDbSymbolTableRecord
100
AcDbLinetypeTableRecord
  2
ACAD_ISO15W100
 70
              64
  3
ISO double-dash double-dot __ __ . . __ __ . . 
 72
              65
 73
              10
 40
39.0
 49
12.0
 74
               0
 49
-3.0
 74
               0
 49
12.0
 74
               0
 49
-3.0
 74
               0
 49
0.0
 74
               0
 49
-3.0
 74
               0
 49
0.0
 74
               0
 49
-3.0
 74
               0
 49
0.0
 74
               0
 49
-3.0
 74
               0
  0
ENDTAB
  0
TABLE
  2
LAYER
  5
2
100
AcDbSymbolTable
 70
              16
  0
LAYER
  5
14
100
AcDbSymbolTableRecord
100
AcDbLayerTableRecord
  2
0
 70
               0
 62
               7
  6
Continuous
  0
LAYER
  5
35
100
AcDbSymbolTableRecord
100
AcDbLayerTableRecord
  2
Layer00001
 70
               0
 62
               7
  6
Continuous
  0
LAYER
  5
36
100
AcDbSymbolTableRecord
100
AcDbLayerTableRecord
  2
Layer00002
 70
               0
 62
               7
  6
Continuous
  0
LAYER
  5
37
100
AcDbSymbolTableRecord
100
AcDbLayerTableRecord
  2
Layer00003
 70
               0
 62
               7
  6
Continuous
  0
LAYER
  5
38
100
AcDbSymbolTableRecord
100
AcDbLayerTableRecord
  2
Layer00004
 70
               0
 62
               7
  6
Continuous
  0
LAYER
  5
39
100
AcDbSymbolTableRecord
100
AcDbLayerTableRecord
  2
Layer00005
 70
               0
 62
               7
  6
Continuous
  0
LAYER
  5
3A
100
AcDbSymbolTableRecord
100
AcDbLayerTableRecord
  2
Layer00006
 70
               0
 62
               7
  6
Continuous
  0
LAYER
  5
3B
100
AcDbSymbolTableRecord
100
AcDbLayerTableRecord
  2
Layer00007
 70
               0
 62
               7
  6
Continuous
  0
LAYER
  5
3C
100
AcDbSymbolTableRecord
100
AcDbLayerTableRecord
  2
Layer00008
 70
               0
 62
               7
  6
Continuous
  0
LAYER
  5
3D
100
AcDbSymbolTableRecord
100
AcDbLayerTableRecord
  2
Layer00009
 70
               0
 62
               7
  6
Continuous
  0
LAYER
  5
3E
100
AcDbSymbolTableRecord
100
AcDbLayerTableRecord
  2
Layer00010
 70
               0
 62
               7
  6
Continuous
  0
LAYER
  5
3F
100
AcDbSymbolTableRecord
100
AcDbLayerTableRecord
  2
Layer00011
 70
               0
 62
               7
  6
Continuous
  0
LAYER
  5
40
100
AcDbSymbolTableRecord
100
AcDbLayerTableRecord
  2
Layer00012
 70
               0
 62
               7
  6
Continuous
  0
LAYER
  5
41
100
AcDbSymbolTableRecord
100
AcDbLayerTableRecord
  2
Layer00013
 70
               0
 62
               7
  6
Continuous
  0
LAYER
  5
42
100
AcDbSymbolTableRecord
100
AcDbLayerTableRecord
  2
Layer00014
 70
               0
 62
               7
  6
Continuous
  0
LAYER
  5
43
100
AcDbSymbolTableRecord
100
AcDbLayerTableRecord
  2
Layer00015
 70
               0
 62
               7
  6
Continuous
  0
ENDTAB
  0
TABLE
  2
STYLE
  5
3
100
AcDbSymbolTable
 70
               4
  0
STYLE
  5
17
100
AcDbSymbolTableRecord
100
AcDbTextStyleTableRecord
  2
Standard
 70
               0
 40
0.0
 41
1.0
 50
0.0
 71
               0
 42
0.0
  3
txt.shx
  4
bigfont.shx
  0
STYLE
  5
32
100
AcDbSymbolTableRecord
100
AcDbTextStyleTableRecord
  2
STANDARD_T
 70
               4
 40
0.0
 41
1.0
 50
0.0
 71
               0
 42
0.0
  3
txt.shx
  4
bigfont.shx
  0
STYLE
  5
33
100
AcDbSymbolTableRecord
100
AcDbTextStyleTableRecord
  2
FontTableH_0
 70
               0
 40
0.0
 41
1.0
 50
0.0
 71
               0
 42
0.0
  3
MS Gothic.ttf
  4

1001
ACAD
1000
MS Gothic
1071
    32817
  0
STYLE
  5
34
100
AcDbSymbolTableRecord
100
AcDbTextStyleTableRecord
  2
FontTableV_0
 70
               0
 40
0.0
 41
1.0
 50
0.0
 71
               0
 42
0.0
  3
@MS Gothic.ttf
  4

1001
ACAD
1000
@MS Gothic
1071
    32817
  0
ENDTAB
  0
TABLE
  2
VIEW
  5
5
100
AcDbSymbolTable
 70
               0
  0
ENDTAB
  0
TABLE
  2
UCS
  5
6
100
AcDbSymbolTable
 70
               0
  0
ENDTAB
  0
TABLE
  2
APPID
  5
8
100
AcDbSymbolTable
 70
               1
  0
APPID
  5
16
100
AcDbSymbolTableRecord
100
AcDbRegAppTableRecord
  2
ACAD
 70
               0
  0
ENDTAB
  0
TABLE
  2
DIMSTYLE
  5
9
100
AcDbSymbolTable
 70
               1
  0
DIMSTYLE
105
18
100
AcDbSymbolTableRecord
100
AcDbDimStyleTableRecord
  2
Standard
 70
               0
  3

  4

  5

  6

  7

 40
1.0
 41
0.18
 42
0.0625
 43
0.38
 44
0.18
 45
0.0
 46
0.0
 47
0.0
 48
0.0
 71
               0
 72
               0
 73
               1
 74
               1
 75
               0
 76
               0
 77
               0
 78
               0
140
0.18
141
0.09
142
0.0
143
25.399999999999999
144
1.0
145
0.0
146
1.0
147
0.09
170
               0
171
               2
172
               0
173
               0
174
               0
175
               0
176
               0
177
               0
178
               0
270
               2
271
               4
272
               4
273
               2
274
               2
275
               0
280
               0
281
               0
282
               0
283
               1
284
               0
285
               0
286
               0
287
               0
288
               0
340
17
  0
ENDTAB
  0
TABLE
  2
BLOCK_RECORD
  5
1
100
AcDbSymbolTable
 70
               0
  0
BLOCK_RECORD
  5
A
100
AcDbSymbolTableRecord
100
AcDbBlockTableRecord
  2
*MODEL_SPACE
  0
BLOCK_RECORD
  5
B
100
AcDbSymbolTableRecord
100
AcDbBlockTableRecord
  2
*PAPER_SPACE
  0
ENDTAB
  0
ENDSEC
  0
SECTION
  2
BLOCKS
  0
BLOCK
  5
D
100
AcDbEntity
  8
0
100
AcDbBlockBegin
  2
*MODEL_SPACE
 70
               0
 10
0.0
 20
0.0
 30
0.0
  3
*MODEL_SPACE
  1

  0
ENDBLK
  5
E
100
AcDbEntity
  8
0
100
AcDbBlockEnd
  0
BLOCK
  5
F
100
AcDbEntity
 67
               1
  8
0
100
AcDbBlockBegin
  2
*PAPER_SPACE
 70
               0
 10
0.0
 20
0.0
 30
0.0
  3
*PAPER_SPACE
  1

  0
ENDBLK
  5
10
100
AcDbEntity
 67
               1
  8
0
100
AcDbBlockEnd
  0
ENDSEC
  0
SECTION
  2
ENTITIES
  0
LINE
  5
44
100
AcDbEntity
  8
0
  6
Continuous
 62
               4
100
AcDbLine
 10
320.55246792408394
 20
447.7214258832629
 30
0.0
 11
296.55246792408383
 21
447.7214258832629
 31
0.0
  0
LINE
  5
45
100
AcDbEntity
  8
0
  6
Continuous
 62
               4
100
AcDbLine
 10
340.55246792408394
 20
397.7214258832629
 30
0.0
 11
296.55246792408383
 21
397.7214258832629
 31
0.0
  0
LINE
  5
46
100
AcDbEntity
  8
0
  6
Continuous
 62
               4
100
AcDbLine
 10
299.55246792408383
 20
447.7214258832629
 30
0.0
 11
299.55246792408383
 21
397.7214258832629
 31
0.0
  0
LINE
  5
47
100
AcDbEntity
  8
0
  6
Continuous
 62
               4
100
AcDbLine
 10
452.15683764811359
 20
440.89320576288253
 30
0.0
 11
469.73078233974576
 21
471.33217085819444
 31
0.0
  0
LINE
  5
48
100
AcDbEntity
  8
0
  6
Continuous
 62
               4
100
AcDbLine
 10
469.73078233974576
 20
471.33217085819444
 30
0.0
 11
506.1434988407978
 21
471.33217085819444
 31
0.0
  0
LINE
  5
49
100
AcDbEntity
  8
0
  6
Continuous
 62
               4
100
AcDbLine
 10
452.15683764811359
 20
440.89320576288253
 30
0.0
 11
455.23501893804467
 21
449.35043934995576
 31
0.0
  0
LINE
  5
4A
100
AcDbEntity
  8
0
  6
Continuous
 62
               4
100
AcDbLine
 10
452.15683764811359
 20
440.89320576288253
 30
0.0
 11
457.94192613529248
 21
447.78760575095328
 31
0.0
  0
LINE
  5
4B
100
AcDbEntity
  8
0
  6
Continuous
 62
               4
100
AcDbLine
 10
421.59865896662831
 20
447.72142588326267
 30
0.0
 11
447.32197649449432
 21
492.27551878075349
 31
0.0
  0
LINE
  5
4C
100
AcDbEntity
  8
0
  6
Continuous
 62
               4
100
AcDbLine
 10
447.32197649449432
 20
492.27551878075349
 30
0.0
 11
520.73779199665978
 21
492.27551878075349
 31
0.0
  0
LINE
  5
4D
100
AcDbEntity
  8
0
  6
Continuous
 62
               4
100
AcDbLine
 10
421.59865896662831
 20
447.72142588326267
 30
0.0
 11
424.67684025655939
 21
456.1786594703359
 31
0.0
  0
LINE
  5
4E
100
AcDbEntity
  8
0
  6
Continuous
 62
               4
100
AcDbLine
 10
421.59865896662831
 20
447.72142588326267
 30
0.0
 11
427.38374745380719
 21
454.61582587133364
 31
0.0
  0
LINE
  5
4F
100
AcDbEntity
  8
0
  6
Continuous
 62
               4
100
AcDbLine
 10
364.0621254587922
 20
420.88230973902193
 30
0.0
 11
415.18632819808573
 21
509.4320263799292
 31
0.0
  0
LINE
  5
50
100
AcDbEntity
  8
0
  6
Continuous
 62
               4
100
AcDbLine
 10
415.18632819808573
 20
509.4320263799292
 30
0.0
 11
499.53164825631978
 21
509.4320263799292
 31
0.0
  0
LINE
  5
51
100
AcDbEntity
  8
0
  6
Continuous
 62
               4
100
AcDbLine
 10
364.0621254587922
 20
420.88230973902193
 30
0.0
 11
367.14030674872328
 21
429.33954332609517
 31
0.0
  0
LINE
  5
52
100
AcDbEntity
  8
0
  6
Continuous
 62
               4
100
AcDbLine
 10
364.0621254587922
 20
420.88230973902193
 30
0.0
 11
369.84721394597119
 21
427.77670972709268
 31
0.0
  0
LINE
  5
53
100
AcDbEntity
  8
0
  6
Continuous
 62
               4
100
AcDbLine
 10
631.55246792408366
 20
480.72142588326267
 30
0.0
 11
678.05246792408411
 21
480.72142588326267
 31
0.0
  0
LINE
  5
54
100
AcDbEntity
  8
0
  6
Continuous
 62
               4
100
AcDbLine
 10
675.05246792408411
 20
450.7214258832629
 30
0.0
 11
675.05246792408411
 21
480.72142588326267
 31
0.0
  0
LINE
  5
55
100
AcDbEntity
  8
0
  6
Continuous
 62
               4
100
AcDbLine
 10
688.04331053757164
 20
540.72142588326267
 30
0.0
 11
626.55246792408366
 21
540.72142588326267
 31
0.0
  0
LINE
  5
56
100
AcDbEntity
  8
0
  6
Continuous
 62
               4
100
AcDbLine
 10
326.55246792408394
 20
456.7214258832629
 30
0.0
 11
326.55246792408394
 21
543.72142588326267
 31
0.0
  0
LINE
  5
57
100
AcDbEntity
  8
0
  6
Continuous
 62
               4
100
AcDbLine
 10
626.55246792408366
 20
540.72142588326267
 30
0.0
 11
326.55246792408394
 21
540.72142588326267
 31
0.0
  0
LINE
  5
58
100
AcDbEntity
  8
0
  6
Continuous
 62
               4
100
AcDbLine
 10
346.55246792408394
 20
453.7214258832629
 30
0.0
 11
346.55246792408394
 21
507.72142588326267
 31
0.0
  0
LINE
  5
59
100
AcDbEntity
  8
0
  6
Continuous
 62
               4
100
AcDbLine
 10
326.55246792408394
 20
504.72142588326267
 30
0.0
 11
346.55246792408394
 21
504.72142588326267
 31
0.0
  0
LINE
  5
5A
100
AcDbEntity
  8
0
  6
Continuous
 62
               4
100
AcDbLine
 10
626.55246792408366
 20
455.98683441620472
 30
0.0
 11
608.06136450275403
 21
488.01436502995864
 31
0.0
  0
LINE
  5
5B
100
AcDbEntity
  8
0
  6
Continuous
 62
               4
100
AcDbLine
 10
608.06136450275403
 20
488.01436502995864
 30
0.0
 11
582.67790107655105
 21
488.01436502995864
 31
0.0
  0
LINE
  5
5C
100
AcDbEntity
  8
0
  6
Continuous
 62
               4
100
AcDbLine
 10
626.55246792408366
 20
455.98683441620472
 30
0.0
 11
620.767379436905
 21
462.88123440427546
 31
0.0
  0
LINE
  5
5D
100
AcDbEntity
  8
0
  6
Continuous
 62
               4
100
AcDbLine
 10
626.55246792408366
 20
455.98683441620472
 30
0.0
 11
623.4742866341528
 21
464.44406800327772
 31
0.0
  0
LINE
  5
5E
100
AcDbEntity
  8
0
  6
Continuous
 62
               4
100
AcDbLine
 10
346.55246792408394
 20
422.72142588326301
 30
0.0
 11
311.28761182320937
 21
361.64090339494317
 31
0.0
  0
LINE
  5
5F
100
AcDbEntity
  8
0
  6
Continuous
 62
               4
100
AcDbLine
 10
311.28761182320937
 20
361.64090339494317
 30
0.0
 11
249.14111679379749
 21
361.64090339494317
 31
0.0
  0
LINE
  5
60
100
AcDbEntity
  8
0
  6
Continuous
 62
               4
100
AcDbLine
 10
346.55246792408394
 20
422.72142588326301
 30
0.0
 11
343.47428663415297
 21
414.26419229618989
 31
0.0
  0
LINE
  5
61
100
AcDbEntity
  8
0
  6
Continuous
 62
               4
100
AcDbLine
 10
346.55246792408394
 20
422.72142588326301
 30
0.0
 11
340.76737943690517
 21
415.82702589519215
 31
0.0
  0
LINE
  5
62
100
AcDbEntity
  8
0
  6
Continuous
 62
               4
100
AcDbLine
 10
577.22538392414322
 20
450.72142588326267
 30
0.0
 11
544.8238996646005
 21
571.64541138051766
 31
0.0
  0
LINE
  5
63
100
AcDbEntity
  8
0
  6
Continuous
 62
               4
100
AcDbLine
 10
544.8238996646005
 20
571.64541138051766
 30
0.0
 11
366.0389304207942
 21
571.64541138052084
 31
0.0
  0
LINE
  5
64
100
AcDbEntity
  8
0
  6
Continuous
 62
               4
100
AcDbLine
 10
577.22538392414322
 20
450.72142588326267
 30
0.0
 11
573.42181956847685
 21
458.87819596659267
 31
0.0
  0
LINE
  5
65
100
AcDbEntity
  8
0
  6
Continuous
 62
               4
100
AcDbLine
 10
577.22538392414322
 20
450.72142588326267
 30
0.0
 11
576.44098223941432
 21
459.68717816608853
 31
0.0
  0
LINE
  5
66
100
AcDbEntity
  8
0
  6
Continuous
 62
               4
100
AcDbLine
 10
453.4500660097894
 20
382.40581194723575
 30
0.0
 11
424.95897385820427
 21
333.05779277756375
 31
0.0
  0
LINE
  5
67
100
AcDbEntity
  8
0
  6
Continuous
 62
               4
100
AcDbLine
 10
424.95897385820427
 20
333.05779277756375
 30
0.0
 11
387.01110091447759
 21
333.05779277756375
 31
0.0
  0
LINE
  5
68
100
AcDbEntity
  8
0
  6
Continuous
 62
               4
100
AcDbLine
 10
453.4500660097894
 20
382.40581194723575
 30
0.0
 11
450.37188471985843
 21
373.94857836016263
 31
0.0
  0
LINE
  5
69
100
AcDbEntity
  8
0
  6
Continuous
 62
               4
100
AcDbLine
 10
453.4500660097894
 20
382.40581194723575
 30
0.0
 11
447.66497752261063
 21
375.511411959165
 31
0.0
  0
LINE
  5
6A
100
AcDbEntity
  8
0
  6
Continuous
 62
               4
100
AcDbLine
 10
540.75966832598442
 20
362.0989564275767
 30
0.0
 11
558.15282401276841
 21
331.97312707411123
 31
0.0
  0
LINE
  5
6B
100
AcDbEntity
  8
0
  6
Continuous
 62
               4
100
AcDbLine
 10
558.15282401276841
 20
331.97312707411123
 30
0.0
 11
618.8633451031917
 21
331.97312707411123
 31
0.0
  0
LINE
  5
6C
100
AcDbEntity
  8
0
  6
Continuous
 62
               4
100
AcDbLine
 10
540.75966832598442
 20
362.0989564275767
 30
0.0
 11
546.5447568131633
 21
355.20455643950584
 31
0.0
  0
LINE
  5
6D
100
AcDbEntity
  8
0
  6
Continuous
 62
               4
100
AcDbLine
 10
540.75966832598442
 20
362.0989564275767
 30
0.0
 11
543.8378496159155
 21
353.64172284050358
 31
0.0
  0
LINE
  5
6E
100
AcDbEntity
  8
0
  6
Continuous
 62
               4
100
AcDbLine
 10
509.25927650210593
 20
220.01572670546199
 30
0.0
 11
540.7006611867705
 21
165.55765097130421
 31
0.0
  0
LINE
  5
6F
100
AcDbEntity
  8
0
  6
Continuous
 62
               4
100
AcDbLine
 10
540.7006611867705
 20
165.55765097130421
 30
0.0
 11
590.46542024244604
 21
165.55765097130421
 31
0.0
  0
LINE
  5
70
100
AcDbEntity
  8
0
  6
Continuous
 62
               4
100
AcDbLine
 10
509.25927650210593
 20
220.01572670546199
 30
0.0
 11
515.04436498928476
 21
213.12132671739113
 31
0.0
  0
LINE
  5
71
100
AcDbEntity
  8
0
  6
Continuous
 62
               4
100
AcDbLine
 10
509.25927650210593
 20
220.01572670546199
 30
0.0
 11
512.33745779203696
 21
211.55849311838881
 31
0.0
  0
LINE
  5
72
100
AcDbEntity
  8
0
  6
Continuous
 62
               4
100
AcDbLine
 10
431.38823361245619
 20
82.705067323738632
 30
0.0
 11
403.16301143316724
 21
110.93028950302772
 31
0.0
  0
LINE
  5
73
100
AcDbEntity
  8
0
  6
Continuous
 62
               4
100
AcDbLine
 10
403.16301143316724
 20
110.93028950302772
 30
0.0
 11
352.9492685171445
 21
110.93028950302676
 31
0.0
  0
LINE
  5
74
100
AcDbEntity
  8
0
  6
Continuous
 62
               4
100
AcDbLine
 10
431.38823361245619
 20
82.705067323738632
 30
0.0
 11
424.01586521385531
 21
87.867255250898069
 31
0.0
  0
LINE
  5
75
100
AcDbEntity
  8
0
  6
Continuous
 62
               4
100
AcDbLine
 10
431.38823361245619
 20
82.705067323738632
 30
0.0
 11
426.22604568529681
 21
90.077435722339573
 31
0.0
  0
LINE
  5
76
100
AcDbEntity
  8
0
  6
Continuous
 62
               4
100
AcDbLine
 10
351.55246792408383
 20
228.01854714064962
 30
0.0
 11
322.13437468702904
 21
177.06491499227241
 31
0.0
  0
LINE
  5
77
100
AcDbEntity
  8
0
  6
Continuous
 62
               4
100
AcDbLine
 10
351.55246792408383
 20
228.01854714064962
 30
0.0
 11
348.47428663415275
 21
219.56131355357638
 31
0.0
  0
LINE
  5
78
100
AcDbEntity
  8
0
  6
Continuous
 62
               4
100
AcDbLine
 10
351.55246792408383
 20
228.01854714064962
 30
0.0
 11
345.76737943690495
 21
221.12414715257881
 31
0.0
  0
LINE
  5
79
100
AcDbEntity
  8
0
  6
Continuous
 62
               4
100
AcDbLine
 10
322.13437468702904
 20
177.06491499227241
 30
0.0
 11
258.08114374034091
 21
177.06491499227241
 31
0.0
  0
LINE
  5
7A
100
AcDbEntity
  8
0
  6
Continuous
 62
               4
100
AcDbLine
 10
603.79454554605468
 20
395.92142588326328
 30
0.0
 11
669.5514135859396
 21
309.42142588326266
 31
0.0
  0
LINE
  5
7B
100
AcDbEntity
  8
0
  6
Continuous
 62
               4
100
AcDbLine
 10
602.80264859442354
 20
393.92142588326328
 30
0.0
 11
668.55951663430847
 21
307.42142588326266
 31
0.0
  0
LINE
  5
7C
100
AcDbEntity
  8
0
  6
Continuous
 62
               4
100
AcDbLine
 10
603.79454554605468
 20
395.92142588326328
 30
0.0
 11
572.30933596396994
 21
395.92142588326328
 31
0.0
  0
LINE
  5
7D
100
AcDbEntity
  8
0
  6
Continuous
 62
               4
100
AcDbLine
 10
602.80264859442354
 20
393.92142588326328
 30
0.0
 11
573.31849335048378
 21
393.92142588326328
 31
0.0
  0
LINE
  5
7E
100
AcDbEntity
  8
0
  6
Continuous
 62
               4
100
AcDbLine
 10
572.30933596396994
 20
395.92142588326328
 30
0.0
 11
508.41729050942428
 21
309.42142588326254
 31
0.0
  0
LINE
  5
7F
100
AcDbEntity
  8
0
  6
Continuous
 62
               4
100
AcDbLine
 10
573.31849335048378
 20
393.92142588326328
 30
0.0
 11
509.42644789593766
 21
307.42142588326266
 31
0.0
  0
LINE
  5
80
100
AcDbEntity
  8
0
  6
Continuous
 62
               4
100
AcDbLine
 10
509.42644789593766
 20
307.42142588326266
 30
0.0
 11
489.42644789593777
 21
307.42142588326266
 31
0.0
  0
LINE
  5
81
100
AcDbEntity
  8
0
  6
Continuous
 62
               4
100
AcDbLine
 10
469.53415315105684
 20
309.42142588326266
 30
0.0
 11
508.41729050942428
 21
309.42142588326254
 31
0.0
  0
LINE
  5
82
100
AcDbEntity
  8
0
  6
Continuous
 62
               7
100
AcDbLine
 10
605.53036521140916
 20
402.42142588326351
 30
0.0
 11
570.54331053757119
 21
402.42142588326351
 31
0.0
  0
LINE
  5
83
100
AcDbEntity
  8
0
  6
Continuous
 62
               7
100
AcDbLine
 10
505.54331053757056
 20
314.42142588326266
 30
0.0
 11
570.54331053757119
 21
402.42142588326351
 31
0.0
  0
LINE
  5
84
100
AcDbEntity
  8
0
  6
Continuous
 62
               7
100
AcDbLine
 10
605.53036521140916
 20
402.42142588326351
 30
0.0
 11
671.28723325129454
 21
315.92142588326266
 31
0.0
  0
LINE
  5
85
100
AcDbEntity
  8
0
  6
Continuous
 62
               7
100
AcDbLine
 10
470.54331053757056
 20
314.42142588326266
 30
0.0
 11
405.54331053757033
 21
402.42142588326328
 31
0.0
  0
LINE
  5
86
100
AcDbEntity
  8
0
  6
Continuous
 62
               4
100
AcDbLine
 10
469.53415315105684
 20
309.42142588326266
 30
0.0
 11
404.53415315105673
 21
397.42142588326305
 31
0.0
  0
LINE
  5
87
100
AcDbEntity
  8
0
  6
Continuous
 62
               4
100
AcDbLine
 10
468.52499576454312
 20
307.42142588326266
 30
0.0
 11
403.52499576454312
 21
395.42142588326283
 31
0.0
  0
LINE
  5
88
100
AcDbEntity
  8
0
  6
Continuous
 62
               7
100
AcDbLine
 10
505.54331053757056
 20
314.42142588326266
 30
0.0
 11
470.54331053757056
 21
314.42142588326266
 31
0.0
  0
LINE
  5
89
100
AcDbEntity
  8
0
  6
Continuous
 62
               7
100
AcDbLine
 10
370.54331053757033
 20
402.42142588326305
 30
0.0
 11
361.51871203138336
 21
390.20350790565612
 31
0.0
  0
LINE
  5
8A
100
AcDbEntity
  8
0
  6
Continuous
 62
               7
100
AcDbLine
 10
405.54331053757045
 20
402.42142588326305
 30
0.0
 11
370.54331053757033
 21
402.42142588326305
 31
0.0
  0
LINE
  5
8B
100
AcDbEntity
  8
0
  6
Continuous
 62
               4
100
AcDbLine
 10
404.53415315105673
 20
397.42142588326305
 30
0.0
 11
371.55246792408394
 21
397.42142588326305
 31
0.0
  0
LINE
  5
8C
100
AcDbEntity
  8
0
  6
Continuous
 62
               4
100
AcDbLine
 10
403.52499576454312
 20
395.42142588326283
 30
0.0
 11
373.55246792408394
 21
395.42142588326283
 31
0.0
  0
LINE
  5
8D
100
AcDbEntity
  8
0
  6
DOT
 62
               4
100
AcDbLine
 10
584.04331053757028
 20
422.6457409517559
 30
0.0
 11
584.04331053757028
 21
414.02142588326342
 31
0.0
  0
LINE
  5
8E
100
AcDbEntity
  8
0
  6
DOT
 62
               4
100
AcDbLine
 10
592.04331053757028
 20
422.6457409517559
 30
0.0
 11
592.04331053757028
 21
414.02142588326342
 31
0.0
  0
LINE
  5
8F
100
AcDbEntity
  8
0
  6
DOT
 62
               4
100
AcDbLine
 10
594.04331053757028
 20
387.92142588326283
 30
0.0
 11
582.04331053757028
 21
387.92142588326283
 31
0.0
  0
LINE
  5
90
100
AcDbEntity
  8
0
  6
DOT
 62
               4
100
AcDbLine
 10
580.04331053757028
 20
393.92142588326328
 30
0.0
 11
580.04331053757028
 21
388.62342668390352
 31
0.0
  0
LINE
  5
91
100
AcDbEntity
  8
0
  6
DOT
 62
               4
100
AcDbLine
 10
596.04331053757028
 20
393.92142588326328
 30
0.0
 11
596.04331053757028
 21
388.62342668390352
 31
0.0
  0
LINE
  5
92
100
AcDbEntity
  8
0
  6
DOT
 62
               4
100
AcDbLine
 10
580.04331053757028
 20
388.62342668390352
 30
0.0
 11
582.04331053757028
 21
387.92142588326305
 31
0.0
  0
LINE
  5
93
100
AcDbEntity
  8
0
  6
DOT
 62
               4
100
AcDbLine
 10
594.04331053757028
 20
387.92142588326283
 30
0.0
 11
596.04331053757028
 21
388.62342668390352
 31
0.0
  0
LINE
  5
94
100
AcDbEntity
  8
0
  6
DOT
 62
               4
100
AcDbLine
 10
592.04331053757028
 20
393.92142588326328
 30
0.0
 11
592.04331053757028
 21
388.6077173842782
 31
0.0
  0
LINE
  5
95
100
AcDbEntity
  8
0
  6
DOT
 62
               4
100
AcDbLine
 10
584.04331053757028
 20
393.92142588326328
 30
0.0
 11
584.04331053757028
 21
388.6077173842782
 31
0.0
  0
LINE
  5
96
100
AcDbEntity
  8
0
  6
DOT
 62
               4
100
AcDbLine
 10
594.04331053757028
 20
414.02142588326342
 30
0.0
 11
582.04331053757028
 21
414.02142588326342
 31
0.0
  0
LINE
  5
97
100
AcDbEntity
  8
0
  6
DOT
 62
               4
100
AcDbLine
 10
580.04331053757028
 20
408.02142588326342
 30
0.0
 11
580.04331053757028
 21
413.31942508262273
 31
0.0
  0
LINE
  5
98
100
AcDbEntity
  8
0
  6
DOT
 62
               4
100
AcDbLine
 10
596.04331053757028
 20
408.02142588326342
 30
0.0
 11
596.04331053757028
 21
413.31942508262273
 31
0.0
  0
LINE
  5
99
100
AcDbEntity
  8
0
  6
DOT
 62
               4
100
AcDbLine
 10
580.04331053757028
 20
413.31942508262273
 30
0.0
 11
582.04331053757028
 21
414.02142588326342
 31
0.0
  0
LINE
  5
9A
100
AcDbEntity
  8
0
  6
DOT
 62
               4
100
AcDbLine
 10
594.04331053757028
 20
414.02142588326342
 30
0.0
 11
596.04331053757028
 21
413.31942508262273
 31
0.0
  0
LINE
  5
9B
100
AcDbEntity
  8
0
  6
DOT
 62
               4
100
AcDbLine
 10
592.04331053757028
 20
408.02142588326342
 30
0.0
 11
592.04331053757028
 21
413.33513438224827
 31
0.0
  0
LINE
  5
9C
100
AcDbEntity
  8
0
  6
DOT
 62
               4
100
AcDbLine
 10
584.04331053757028
 20
408.02142588326342
 30
0.0
 11
584.04331053757028
 21
413.33513438224827
 31
0.0
  0
LINE
  5
9D
100
AcDbEntity
  8
0
  6
DOT
 62
               4
100
AcDbLine
 10
580.04331053757028
 20
408.02142588326342
 30
0.0
 11
596.04331053757028
 21
408.02142588326342
 31
0.0
  0
LINE
  5
9E
100
AcDbEntity
  8
0
  6
DOT
 62
               4
100
AcDbLine
 10
573.04331053757028
 20
403.42142588326351
 30
0.0
 11
573.04331053757028
 21
405.72142588326346
 31
0.0
  0
LINE
  5
9F
100
AcDbEntity
  8
0
  6
DOT
 62
               4
100
AcDbLine
 10
573.04331053757028
 20
403.42142588326351
 30
0.0
 11
603.04331053757028
 21
403.42142588326351
 31
0.0
  0
LINE
  5
A0
100
AcDbEntity
  8
0
  6
DOT
 62
               4
100
AcDbLine
 10
573.04331053757028
 20
405.72142588326346
 30
0.0
 11
603.04331053757028
 21
405.72142588326346
 31
0.0
  0
LINE
  5
A1
100
AcDbEntity
  8
0
  6
DOT
 62
               4
100
AcDbLine
 10
578.23568325566907
 20
407.40224496713904
 30
0.0
 11
576.85093781947148
 21
406.34060679938761
 31
0.0
  0
LINE
  5
A2
100
AcDbEntity
  8
0
  6
DOT
 62
               4
100
AcDbLine
 10
603.04331053757028
 20
403.42142588326351
 30
0.0
 11
603.04331053757028
 21
405.72142588326346
 31
0.0
  0
LINE
  5
A3
100
AcDbEntity
  8
0
  6
DOT
 62
               4
100
AcDbLine
 10
597.85093781947148
 20
407.40224496713904
 30
0.0
 11
599.23568325566907
 21
406.34060679938761
 31
0.0
  0
LINE
  5
A4
100
AcDbEntity
  8
0
  6
DOT
 62
               4
100
AcDbLine
 10
574.54331053757028
 20
402.42142588326351
 30
0.0
 11
601.54331053757028
 21
402.42142588326351
 31
0.0
  0
LINE
  5
A5
100
AcDbEntity
  8
0
  6
DOT
 62
               4
100
AcDbLine
 10
384.04331053756999
 20
424.6457409517559
 30
0.0
 11
384.04331053756999
 21
416.02142588326296
 31
0.0
  0
LINE
  5
A6
100
AcDbEntity
  8
0
  6
DOT
 62
               4
100
AcDbLine
 10
392.04331053757011
 20
424.6457409517559
 30
0.0
 11
392.04331053757011
 21
416.02142588326296
 31
0.0
  0
LINE
  5
A7
100
AcDbEntity
  8
0
  6
DOT
 62
               4
100
AcDbLine
 10
394.04331053756999
 20
389.42142588326283
 30
0.0
 11
382.04331053757011
 21
389.42142588326283
 31
0.0
  0
LINE
  5
A8
100
AcDbEntity
  8
0
  6
DOT
 62
               4
100
AcDbLine
 10
380.04331053756999
 20
395.42142588326305
 30
0.0
 11
380.04331053756999
 21
390.12342668390352
 31
0.0
  0
LINE
  5
A9
100
AcDbEntity
  8
0
  6
DOT
 62
               4
100
AcDbLine
 10
396.04331053757011
 20
395.42142588326283
 30
0.0
 11
396.04331053757011
 21
390.12342668390352
 31
0.0
  0
LINE
  5
AA
100
AcDbEntity
  8
0
  6
DOT
 62
               4
100
AcDbLine
 10
380.04331053756999
 20
390.12342668390352
 30
0.0
 11
382.04331053756999
 21
389.42142588326283
 31
0.0
  0
LINE
  5
AB
100
AcDbEntity
  8
0
  6
DOT
 62
               4
100
AcDbLine
 10
394.04331053757011
 20
389.42142588326283
 30
0.0
 11
396.04331053756999
 21
390.12342668390352
 31
0.0
  0
LINE
  5
AC
100
AcDbEntity
  8
0
  6
DOT
 62
               4
100
AcDbLine
 10
392.04331053757011
 20
395.42142588326283
 30
0.0
 11
392.04331053757011
 21
390.1077173842782
 31
0.0
  0
LINE
  5
AD
100
AcDbEntity
  8
0
  6
DOT
 62
               4
100
AcDbLine
 10
384.04331053756999
 20
395.42142588326305
 30
0.0
 11
384.04331053756999
 21
390.1077173842782
 31
0.0
  0
LINE
  5
AE
100
AcDbEntity
  8
0
  6
DOT
 62
               4
100
AcDbLine
 10
394.04331053756999
 20
416.02142588326296
 30
0.0
 11
382.04331053757011
 21
416.02142588326296
 31
0.0
  0
LINE
  5
AF
100
AcDbEntity
  8
0
  6
DOT
 62
               4
100
AcDbLine
 10
380.04331053756999
 20
410.02142588326296
 30
0.0
 11
380.04331053756999
 21
415.3194250826225
 31
0.0
  0
LINE
  5
B0
100
AcDbEntity
  8
0
  6
DOT
 62
               4
100
AcDbLine
 10
396.04331053757011
 20
410.02142588326296
 30
0.0
 11
396.04331053757011
 21
415.3194250826225
 31
0.0
  0
LINE
  5
B1
100
AcDbEntity
  8
0
  6
DOT
 62
               4
100
AcDbLine
 10
380.04331053756999
 20
415.31942508262227
 30
0.0
 11
382.04331053756999
 21
416.02142588326296
 31
0.0
  0
LINE
  5
B2
100
AcDbEntity
  8
0
  6
DOT
 62
               4
100
AcDbLine
 10
394.04331053757011
 20
416.02142588326296
 30
0.0
 11
396.04331053756999
 21
415.3194250826225
 31
0.0
  0
LINE
  5
B3
100
AcDbEntity
  8
0
  6
DOT
 62
               4
100
AcDbLine
 10
392.04331053757011
 20
410.02142588326296
 30
0.0
 11
392.04331053757011
 21
415.33513438224782
 31
0.0
  0
LINE
  5
B4
100
AcDbEntity
  8
0
  6
DOT
 62
               4
100
AcDbLine
 10
384.04331053756999
 20
410.02142588326296
 30
0.0
 11
384.04331053756999
 21
415.33513438224782
 31
0.0
  0
LINE
  5
B5
100
AcDbEntity
  8
0
  6
DOT
 62
               4
100
AcDbLine
 10
380.04331053756999
 20
410.02142588326296
 30
0.0
 11
396.04331053757011
 21
410.02142588326296
 31
0.0
  0
LINE
  5
B6
100
AcDbEntity
  8
0
  6
DOT
 62
               4
100
AcDbLine
 10
373.04331053756999
 20
405.42142588326305
 30
0.0
 11
373.04331053756999
 21
407.72142588326301
 31
0.0
  0
LINE
  5
B7
100
AcDbEntity
  8
0
  6
DOT
 62
               4
100
AcDbLine
 10
373.04331053756999
 20
405.42142588326305
 30
0.0
 11
403.04331053757011
 21
405.42142588326305
 31
0.0
  0
LINE
  5
B8
100
AcDbEntity
  8
0
  6
DOT
 62
               4
100
AcDbLine
 10
373.04331053756999
 20
407.72142588326301
 30
0.0
 11
403.04331053757011
 21
407.72142588326301
 31
0.0
  0
LINE
  5
B9
100
AcDbEntity
  8
0
  6
DOT
 62
               4
100
AcDbLine
 10
378.23568325566868
 20
409.40224496713881
 30
0.0
 11
376.8509378194712
 21
408.34060679938739
 31
0.0
  0
LINE
  5
BA
100
AcDbEntity
  8
0
  6
DOT
 62
               4
100
AcDbLine
 10
403.04331053757011
 20
405.42142588326305
 30
0.0
 11
403.04331053757011
 21
407.72142588326301
 31
0.0
  0
LINE
  5
BB
100
AcDbEntity
  8
0
  6
DOT
 62
               4
100
AcDbLine
 10
397.85093781947131
 20
409.40224496713881
 30
0.0
 11
399.2356832556689
 21
408.34060679938739
 31
0.0
  0
LINE
  5
BC
100
AcDbEntity
  8
0
  6
DOT
 62
               4
100
AcDbLine
 10
374.54331053756999
 20
404.42142588326305
 30
0.0
 11
401.54331053757011
 21
404.42142588326305
 31
0.0
  0
LINE
  5
BD
100
AcDbEntity
  8
0
  6
DOT
 62
               4
100
AcDbLine
 10
392.04331053757011
 20
402.42142588326305
 30
0.0
 11
392.04331053757011
 21
397.42142588326305
 31
0.0
  0
LINE
  5
BE
100
AcDbEntity
  8
0
  6
DOT
 62
               4
100
AcDbLine
 10
384.04331053756999
 20
402.42142588326305
 30
0.0
 11
384.04331053756999
 21
397.42142588326305
 31
0.0
  0
LINE
  5
BF
100
AcDbEntity
  8
0
  6
Continuous
 62
               4
100
AcDbLine
 10
503.29093809416378
 20
316.42142588326266
 30
0.0
 11
472.79568298097735
 21
316.42142588326266
 31
0.0
  0
LINE
  5
C0
100
AcDbEntity
  8
0
  6
DOT
 62
               4
100
AcDbLine
 10
406.68772843552296
 20
404.72142588326278
 30
0.0
 11
569.39889263961845
 21
404.72142588326278
 31
0.0
  0
LINE
  5
C1
100
AcDbEntity
  8
0
  6
Continuous
 62
               4
100
AcDbLine
 10
569.39889263961845
 20
404.72142588326278
 30
0.0
 11
607.79568298097843
 21
404.72142588326278
 31
0.0
  0
LINE
  5
C2
100
AcDbEntity
  8
0
  6
Continuous
 62
               4
100
AcDbLine
 10
672.79568298097843
 20
317.92142588326232
 30
0.0
 11
588.04331053757164
 21
431.72142588326278
 31
0.0
  0
LINE
  5
C3
100
AcDbEntity
  8
0
  6
Continuous
 62
               4
100
AcDbLine
 10
588.04331053757164
 20
431.72142588326278
 30
0.0
 11
503.29093809416378
 21
316.42142588326266
 31
0.0
  0
LINE
  5
C4
100
AcDbEntity
  8
0
  6
DOT
 62
               4
100
AcDbLine
 10
592.04331053757028
 20
422.6457409517559
 30
0.0
 11
584.04331053757028
 21
422.6457409517559
 31
0.0
  0
LINE
  5
C5
100
AcDbEntity
  8
0
  6
DOT
 62
               4
100
AcDbLine
 10
392.04331053757011
 20
424.6457409517559
 30
0.0
 11
384.04331053756999
 21
424.6457409517559
 31
0.0
  0
LINE
  5
C6
100
AcDbEntity
  8
0
  6
Continuous
 62
               4
100
AcDbLine
 10
371.55246792408394
 20
397.42142588326305
 30
0.0
 11
371.55246792408394
 21
307.42142588326266
 31
0.0
  0
LINE
  5
C7
100
AcDbEntity
  8
0
  6
Continuous
 62
               4
100
AcDbLine
 10
373.55246792408394
 20
395.42142588326283
 30
0.0
 11
373.55246792408394
 21
309.42142588326266
 31
0.0
  0
LINE
  5
C8
100
AcDbEntity
  8
0
  6
Continuous
 62
               4
100
AcDbLine
 10
373.55246792408394
 20
309.42142588326266
 30
0.0
 11
451.55246792408406
 21
309.42142588326266
 31
0.0
  0
LINE
  5
C9
100
AcDbEntity
  8
0
  6
Continuous
 62
               4
100
AcDbLine
 10
451.55246792408406
 20
309.42142588326266
 30
0.0
 11
451.55246792408406
 21
307.42142588326266
 31
0.0
  0
LINE
  5
CA
100
AcDbEntity
  8
0
  6
Continuous
 62
               6
100
AcDbLine
 10
371.55246792408394
 20
307.42142588326266
 30
0.0
 11
371.55246792408394
 21
207.4214258832626
 31
0.0
  0
LINE
  5
CB
100
AcDbEntity
  8
0
  6
Continuous
 62
               4
100
AcDbLine
 10
421.55246792408406
 20
202.4214258832626
 30
0.0
 11
421.55246792408406
 21
79.748052595591503
 31
0.0
  0
LINE
  5
CC
100
AcDbEntity
  8
0
  6
Continuous
 62
               7
100
AcDbLine
 10
421.55246792408406
 20
202.4214258832626
 30
0.0
 11
451.55246792408406
 21
202.4214258832626
 31
0.0
  0
LINE
  5
CD
100
AcDbEntity
  8
0
  6
Continuous
 62
               4
100
AcDbLine
 10
408.53431934461361
 20
403.42142588326305
 30
0.0
 11
351.55246792408394
 21
403.42142588326305
 31
0.0
  0
LINE
  5
CE
100
AcDbEntity
  8
0
  6
Continuous
 62
               4
100
AcDbLine
 10
408.53431934461361
 20
403.42142588326305
 30
0.0
 11
435.04992631780766
 21
367.52337336570804
 31
0.0
  0
LINE
  5
CF
100
AcDbEntity
  8
0
  6
Continuous
 62
               4
100
AcDbLine
 10
435.04992631780766
 20
367.52337336570804
 30
0.0
 11
439.85709478414532
 21
357.04128889696142
 31
0.0
  0
LINE
  5
D0
100
AcDbEntity
  8
0
  6
Continuous
 62
               4
100
AcDbLine
 10
472.79568298097735
 20
316.42142588326266
 30
0.0
 11
389.72052356867385
 21
431.72142588326278
 31
0.0
  0
LINE
  5
D1
100
AcDbEntity
  8
0
  6
Continuous
 62
               4
100
AcDbLine
 10
351.55246792408383
 20
177.4214258832626
 30
0.0
 11
351.55246792408394
 21
403.42142588326305
 31
0.0
  0
LINE
  5
D2
100
AcDbEntity
  8
0
  6
Continuous
 62
               4
100
AcDbLine
 10
418.55246792408394
 20
177.4214258832626
 30
0.0
 11
351.55246792408383
 21
177.4214258832626
 31
0.0
  0
LINE
  5
D3
100
AcDbEntity
  8
0
  6
Continuous
 62
               4
100
AcDbLine
 10
418.55246792408394
 20
177.4214258832626
 30
0.0
 11
418.55246792408394
 21
147.4214258832626
 31
0.0
  0
LINE
  5
D4
100
AcDbEntity
  8
0
  6
Continuous
 62
               4
100
AcDbLine
 10
420.05246792408394
 20
147.4214258832626
 30
0.0
 11
421.55246792408394
 21
160.4214258832626
 31
0.0
  0
LINE
  5
D5
100
AcDbEntity
  8
0
  6
Continuous
 62
               4
100
AcDbLine
 10
418.24681723915222
 20
158.37241047230373
 30
0.0
 11
418.24681723915222
 21
168.37241047230373
 31
0.0
  0
LINE
  5
D6
100
AcDbEntity
  8
0
  6
Continuous
 62
               4
100
AcDbLine
 10
461.24681723915245
 20
160.87241047230367
 30
0.0
 11
461.24681723915245
 21
165.87241047230367
 31
0.0
  0
LINE
  5
D7
100
AcDbEntity
  8
0
  6
Continuous
 62
               4
100
AcDbLine
 10
421.04681723915218
 20
160.87241047230373
 30
0.0
 11
421.04681723915218
 21
165.87241047230373
 31
0.0
  0
LINE
  5
D8
100
AcDbEntity
  8
0
  6
Continuous
 62
               4
100
AcDbLine
 10
461.24681723915245
 20
160.87241047230367
 30
0.0
 11
421.04681723915218
 21
160.87241047230373
 31
0.0
  0
LINE
  5
D9
100
AcDbEntity
  8
0
  6
Continuous
 62
               4
100
AcDbLine
 10
461.24681723915245
 20
165.87241047230367
 30
0.0
 11
421.04681723915218
 21
165.87241047230373
 31
0.0
  0
LINE
  5
DA
100
AcDbEntity
  8
0
  6
Continuous
 62
               4
100
AcDbLine
 10
421.04681723915218
 20
160.87241047230373
 30
0.0
 11
418.24681723915222
 21
158.37241047230373
 31
0.0
  0
LINE
  5
DB
100
AcDbEntity
  8
0
  6
Continuous
 62
               4
100
AcDbLine
 10
421.04681723915218
 20
165.87241047230373
 30
0.0
 11
418.24681723915222
 21
168.37241047230373
 31
0.0
  0
LINE
  5
DC
100
AcDbEntity
  8
0
  6
Continuous
 62
               4
100
AcDbLine
 10
461.24681723915245
 20
160.87241047230367
 30
0.0
 11
463.24681723915245
 21
163.37241047230367
 31
0.0
  0
LINE
  5
DD
100
AcDbEntity
  8
0
  6
Continuous
 62
               4
100
AcDbLine
 10
463.24681723915245
 20
163.37241047230367
 30
0.0
 11
461.24681723915245
 21
165.87241047230367
 31
0.0
  0
LINE
  5
DE
100
AcDbEntity
  8
0
  6
Continuous
 62
               4
100
AcDbLine
 10
459.88222983794293
 20
165.87241047230373
 30
0.0
 11
460.76386474148529
 21
160.87241047230367
 31
0.0
  0
LINE
  5
DF
100
AcDbEntity
  8
0
  6
Continuous
 62
               4
100
AcDbLine
 10
458.86680322605724
 20
165.87241047230373
 30
0.0
 11
459.74843812959961
 21
160.87241047230367
 31
0.0
  0
LINE
  5
E0
100
AcDbEntity
  8
0
  6
Continuous
 62
               4
100
AcDbLine
 10
457.85137661417156
 20
165.87241047230373
 30
0.0
 11
458.73301151771392
 21
160.87241047230367
 31
0.0
  0
LINE
  5
E1
100
AcDbEntity
  8
0
  6
Continuous
 62
               4
100
AcDbLine
 10
456.83595000228576
 20
165.87241047230373
 30
0.0
 11
457.71758490582812
 21
160.87241047230367
 31
0.0
  0
LINE
  5
E2
100
AcDbEntity
  8
0
  6
Continuous
 62
               4
100
AcDbLine
 10
455.82052339039996
 20
165.87241047230373
 30
0.0
 11
456.70215829394232
 21
160.87241047230367
 31
0.0
  0
LINE
  5
E3
100
AcDbEntity
  8
0
  6
Continuous
 62
               4
100
AcDbLine
 10
454.80509677851427
 20
165.87241047230373
 30
0.0
 11
455.68673168205663
 21
160.87241047230367
 31
0.0
  0
LINE
  5
E4
100
AcDbEntity
  8
0
  6
Continuous
 62
               4
100
AcDbLine
 10
453.78967016662858
 20
165.87241047230373
 30
0.0
 11
454.67130507017094
 21
160.87241047230367
 31
0.0
  0
LINE
  5
E5
100
AcDbEntity
  8
0
  6
Continuous
 62
               4
100
AcDbLine
 10
452.77424355474267
 20
165.87241047230373
 30
0.0
 11
453.65587845828514
 21
160.87241047230367
 31
0.0
  0
LINE
  5
E6
100
AcDbEntity
  8
0
  6
Continuous
 62
               4
100
AcDbLine
 10
451.75881694285698
 20
165.87241047230373
 30
0.0
 11
452.64045184639923
 21
160.87241047230367
 31
0.0
  0
LINE
  5
E7
100
AcDbEntity
  8
0
  6
Continuous
 62
               4
100
AcDbLine
 10
450.74339033097118
 20
165.87241047230373
 30
0.0
 11
451.62502523451343
 21
160.87241047230367
 31
0.0
  0
LINE
  5
E8
100
AcDbEntity
  8
0
  6
Continuous
 62
               4
100
AcDbLine
 10
449.72796371908538
 20
165.87241047230373
 30
0.0
 11
450.60959862262774
 21
160.87241047230367
 31
0.0
  0
LINE
  5
E9
100
AcDbEntity
  8
0
  6
Continuous
 62
               4
100
AcDbLine
 10
448.71253710719969
 20
165.87241047230373
 30
0.0
 11
449.59417201074206
 21
160.87241047230367
 31
0.0
  0
LINE
  5
EA
100
AcDbEntity
  8
0
  6
Continuous
 62
               4
100
AcDbLine
 10
447.69711049531401
 20
165.87241047230373
 30
0.0
 11
448.57874539885626
 21
160.87241047230367
 31
0.0
  0
LINE
  5
EB
100
AcDbEntity
  8
0
  6
Continuous
 62
               4
100
AcDbLine
 10
446.68168388342821
 20
165.87241047230373
 30
0.0
 11
447.56331878697046
 21
160.87241047230367
 31
0.0
  0
LINE
  5
EC
100
AcDbEntity
  8
0
  6
Continuous
 62
               4
100
AcDbLine
 10
445.66625727154241
 20
165.87241047230373
 30
0.0
 11
446.54789217508477
 21
160.87241047230367
 31
0.0
  0
LINE
  5
ED
100
AcDbEntity
  8
0
  6
Continuous
 62
               4
100
AcDbLine
 10
444.65083065965672
 20
165.87241047230373
 30
0.0
 11
445.53246556319908
 21
160.87241047230367
 31
0.0
  0
LINE
  5
EE
100
AcDbEntity
  8
0
  6
Continuous
 62
               4
100
AcDbLine
 10
443.63540404777103
 20
165.87241047230373
 30
0.0
 11
444.51703895131328
 21
160.87241047230367
 31
0.0
  0
LINE
  5
EF
100
AcDbEntity
  8
0
  6
Continuous
 62
               4
100
AcDbLine
 10
442.61997743588523
 20
165.87241047230373
 30
0.0
 11
443.50161233942748
 21
160.87241047230367
 31
0.0
  0
LINE
  5
F0
100
AcDbEntity
  8
0
  6
Continuous
 62
               4
100
AcDbLine
 10
441.60455082399943
 20
165.87241047230373
 30
0.0
 11
442.48618572754179
 21
160.87241047230367
 31
0.0
  0
LINE
  5
F1
100
AcDbEntity
  8
0
  6
Continuous
 62
               4
100
AcDbLine
 10
440.58912421211375
 20
165.87241047230373
 30
0.0
 11
441.47075911565611
 21
160.87241047230367
 31
0.0
  0
LINE
  5
F2
100
AcDbEntity
  8
0
  6
Continuous
 62
               4
100
AcDbLine
 10
439.57369760022806
 20
165.87241047230373
 30
0.0
 11
440.45533250377031
 21
160.87241047230367
 31
0.0
  0
LINE
  5
F3
100
AcDbEntity
  8
0
  6
Continuous
 62
               4
100
AcDbLine
 10
438.55827098834226
 20
165.87241047230373
 30
0.0
 11
439.43990589188451
 21
160.87241047230367
 31
0.0
  0
LINE
  5
F4
100
AcDbEntity
  8
0
  6
Continuous
 62
               4
100
AcDbLine
 10
437.54284437645646
 20
165.87241047230373
 30
0.0
 11
438.42447927999882
 21
160.87241047230367
 31
0.0
  0
LINE
  5
F5
100
AcDbEntity
  8
0
  6
Continuous
 62
               4
100
AcDbLine
 10
436.52741776457077
 20
165.87241047230373
 30
0.0
 11
437.40905266811313
 21
160.87241047230367
 31
0.0
  0
LINE
  5
F6
100
AcDbEntity
  8
0
  6
Continuous
 62
               4
100
AcDbLine
 10
435.51199115268497
 20
165.87241047230373
 30
0.0
 11
436.39362605622733
 21
160.87241047230367
 31
0.0
  0
LINE
  5
F7
100
AcDbEntity
  8
0
  6
Continuous
 62
               4
100
AcDbLine
 10
434.49656454079917
 20
165.87241047230373
 30
0.0
 11
435.37819944434153
 21
160.87241047230367
 31
0.0
  0
LINE
  5
F8
100
AcDbEntity
  8
0
  6
Continuous
 62
               4
100
AcDbLine
 10
433.48113792891348
 20
165.87241047230373
 30
0.0
 11
434.36277283245585
 21
160.87241047230367
 31
0.0
  0
LINE
  5
F9
100
AcDbEntity
  8
0
  6
Continuous
 62
               4
100
AcDbLine
 10
432.4657113170278
 20
165.87241047230373
 30
0.0
 11
433.34734622057016
 21
160.87241047230367
 31
0.0
  0
LINE
  5
FA
100
AcDbEntity
  8
0
  6
Continuous
 62
               4
100
AcDbLine
 10
431.450284705142
 20
165.87241047230373
 30
0.0
 11
432.33191960868436
 21
160.87241047230367
 31
0.0
  0
LINE
  5
FB
100
AcDbEntity
  8
0
  6
Continuous
 62
               4
100
AcDbLine
 10
430.4348580932562
 20
165.87241047230373
 30
0.0
 11
431.31649299679856
 21
160.87241047230367
 31
0.0
  0
LINE
  5
FC
100
AcDbEntity
  8
0
  6
Continuous
 62
               4
100
AcDbLine
 10
429.41943148137051
 20
165.87241047230373
 30
0.0
 11
430.30106638491287
 21
160.87241047230367
 31
0.0
  0
LINE
  5
FD
100
AcDbEntity
  8
0
  6
Continuous
 62
               4
100
AcDbLine
 10
428.40400486948482
 20
165.87241047230373
 30
0.0
 11
429.28563977302719
 21
160.87241047230367
 31
0.0
  0
LINE
  5
FE
100
AcDbEntity
  8
0
  6
Continuous
 62
               4
100
AcDbLine
 10
427.38857825759902
 20
165.87241047230373
 30
0.0
 11
428.27021316114138
 21
160.87241047230367
 31
0.0
  0
LINE
  5
FF
100
AcDbEntity
  8
0
  6
Continuous
 62
               4
100
AcDbLine
 10
426.37315164571322
 20
165.87241047230373
 30
0.0
 11
427.25478654925558
 21
160.87241047230367
 31
0.0
  0
LINE
  5
100
100
AcDbEntity
  8
0
  6
Continuous
 62
               4
100
AcDbLine
 10
425.35772503382753
 20
165.87241047230373
 30
0.0
 11
426.2393599373699
 21
160.87241047230367
 31
0.0
  0
LINE
  5
101
100
AcDbEntity
  8
0
  6
Continuous
 62
               4
100
AcDbLine
 10
424.34229842194185
 20
165.87241047230373
 30
0.0
 11
424.81095352619076
 21
163.21453529990532
 31
0.0
  0
LINE
  5
102
100
AcDbEntity
  8
0
  6
Continuous
 62
               4
100
AcDbLine
 10
688.04331053757164
 20
309.42142588326266
 30
0.0
 11
669.55141358594005
 21
309.42142588326266
 31
0.0
  0
LINE
  5
103
100
AcDbEntity
  8
0
  6
Continuous
 62
               4
100
AcDbLine
 10
688.04331053757164
 20
307.42142588326266
 30
0.0
 11
371.55246792408394
 21
307.42142588326266
 31
0.0
  0
LINE
  5
104
100
AcDbEntity
  8
0
  6
Continuous
 62
               7
100
AcDbLine
 10
688.04331053757164
 20
315.9214258832626
 30
0.0
 11
671.28723325129454
 21
315.9214258832626
 31
0.0
  0
LINE
  5
105
100
AcDbEntity
  8
0
  6
Continuous
 62
               4
100
AcDbLine
 10
688.04331053757164
 20
317.92142588326232
 30
0.0
 11
672.79568298097843
 21
317.92142588326232
 31
0.0
  0
LINE
  5
106
100
AcDbEntity
  8
0
  6
DOT
 62
               4
100
AcDbLine
 10
688.04331053757164
 20
404.7214258832629
 30
0.0
 11
607.79568298097843
 21
404.72142588326278
 31
0.0
  0
LINE
  5
107
100
AcDbEntity
  8
0
  6
Continuous
 62
               6
100
AcDbLine
 10
688.04331053757164
 20
287.42142588326266
 30
0.0
 11
371.55246792408394
 21
287.42142588326266
 31
0.0
  0
LINE
  5
108
100
AcDbEntity
  8
0
  6
DOT
 62
               6
100
AcDbLine
 10
688.04331053757164
 20
305.12142588326253
 30
0.0
 11
371.55246792408394
 21
305.12142588326253
 31
0.0
  0
LINE
  5
109
100
AcDbEntity
  8
0
  6
Continuous
 62
               6
100
AcDbLine
 10
688.04331053757164
 20
207.4214258832626
 30
0.0
 11
371.55246792408394
 21
207.4214258832626
 31
0.0
  0
LINE
  5
10A
100
AcDbEntity
  8
0
  6
Continuous
 62
               6
100
AcDbLine
 10
688.04331053757164
 20
227.42142588326266
 30
0.0
 11
371.55246792408394
 21
227.4214258832626
 31
0.0
  0
LINE
  5
10B
100
AcDbEntity
  8
0
  6
DOT
 62
               6
100
AcDbLine
 10
688.04331053757164
 20
209.72142588326261
 30
0.0
 11
371.55246792408394
 21
209.72142588326261
 31
0.0
  0
LINE
  5
10C
100
AcDbEntity
  8
0
  6
DOT
 62
               4
100
AcDbLine
 10
592.04331053757028
 20
402.42142588326351
 30
0.0
 11
592.04331053757028
 21
395.92142588326328
 31
0.0
  0
LINE
  5
10D
100
AcDbEntity
  8
0
  6
DOT
 62
               4
100
AcDbLine
 10
584.04331053757028
 20
402.42142588326351
 30
0.0
 11
584.04331053757028
 21
395.92142588326328
 31
0.0
  0
LINE
  5
10E
100
AcDbEntity
  8
0
  6
Continuous
 62
               7
100
AcDbLine
 10
421.55246792408406
 20
39.747782528412017
 30
0.0
 11
421.55246792408406
 21
202.4214258832626
 31
0.0
  0
LINE
  5
10F
100
AcDbEntity
  8
0
  6
Continuous
 62
               7
100
AcDbLine
 10
451.55246792408406
 20
39.747782528412017
 30
0.0
 11
451.55246792408406
 21
202.4214258832626
 31
0.0
  0
LINE
  5
110
100
AcDbEntity
  8
0
  6
Continuous
 62
               7
100
AcDbLine
 10
441.55246792408406
 20
39.747782528412017
 30
0.0
 11
441.55246792408406
 21
202.4214258832626
 31
0.0
  0
LINE
  5
111
100
AcDbEntity
  8
0
  6
Continuous
 62
               4
100
AcDbLine
 10
351.55246792408383
 20
404.72142588326267
 30
0.0
 11
351.55246792408383
 21
434.72142588326278
 31
0.0
  0
LINE
  5
112
100
AcDbEntity
  8
0
  6
Continuous
 62
               4
100
AcDbLine
 10
351.55246792408383
 20
431.72142588326278
 30
0.0
 11
688.04331053757164
 21
431.72142588326278
 31
0.0
  0
LINE
  5
113
100
AcDbEntity
  8
0
  6
Continuous
 62
               4
100
AcDbLine
 10
351.55246792408383
 20
404.72142588326267
 30
0.0
 11
406.68772843552296
 21
404.72142588326267
 31
0.0
  0
LINE
  5
114
100
AcDbEntity
  8
0
  6
Continuous
 62
               3
100
AcDbLine
 10
351.55246792408383
 20
434.72142588326278
 30
0.0
 11
688.04331053757164
 21
434.72142588326278
 31
0.0
  0
LINE
  5
115
100
AcDbEntity
  8
0
  6
Continuous
 62
               3
100
AcDbLine
 10
351.55246792408383
 20
446.72142588326267
 30
0.0
 11
688.04331053757164
 21
446.72142588326267
 31
0.0
  0
LINE
  5
116
100
AcDbEntity
  8
0
  6
Continuous
 62
               3
100
AcDbLine
 10
351.55246792408383
 20
434.72142588326278
 30
0.0
 11
351.55246792408383
 21
446.72142588326267
 31
0.0
  0
LINE
  5
117
100
AcDbEntity
  8
0
  6
DASHED
 62
               6
100
AcDbLine
 10
351.55246792408383
 20
447.72142588326267
 30
0.0
 11
688.04331053757164
 21
447.72142588326267
 31
0.0
  0
LINE
  5
118
100
AcDbEntity
  8
0
  6
Continuous
 62
               4
100
AcDbLine
 10
326.55246792408394
 20
448.7214258832629
 30
0.0
 11
446.55246792408417
 21
448.7214258832629
 31
0.0
  0
LINE
  5
119
100
AcDbEntity
  8
0
  6
Continuous
 62
               4
100
AcDbLine
 10
346.55246792408394
 20
447.7214258832629
 30
0.0
 11
326.55246792408394
 21
447.7214258832629
 31
0.0
  0
LINE
  5
11A
100
AcDbEntity
  8
0
  6
Continuous
 62
               4
100
AcDbLine
 10
346.55246792408394
 20
447.7214258832629
 30
0.0
 11
346.55246792408394
 21
397.7214258832629
 31
0.0
  0
LINE
  5
11B
100
AcDbEntity
  8
0
  6
Continuous
 62
               4
100
AcDbLine
 10
350.65025663514081
 20
407.37810718755702
 30
0.0
 11
348.05246792408394
 21
397.7214258832629
 31
0.0
  0
LINE
  5
11C
100
AcDbEntity
  8
0
  6
Continuous
 62
               2
100
AcDbLine
 10
326.55246792408394
 20
446.72142588326312
 30
0.0
 11
344.54943998332197
 21
446.39127940212609
 31
0.0
  0
LINE
  5
11D
100
AcDbEntity
  8
0
  6
Continuous
 62
               2
100
AcDbLine
 10
654.05246792408366
 20
449.72142588326267
 30
0.0
 11
639.05246792408366
 21
449.72142588326267
 31
0.0
  0
LINE
  5
11E
100
AcDbEntity
  8
0
  6
Continuous
 62
               2
100
AcDbLine
 10
623.55246792408366
 20
478.72142588326267
 30
0.0
 11
623.55246792408366
 21
471.47142588326267
 31
0.0
  0
LINE
  5
11F
100
AcDbEntity
  8
0
  6
Continuous
 62
               2
100
AcDbLine
 10
627.55246792408366
 20
459.6082858499052
 30
0.0
 11
627.55246792408366
 21
478.72142588326267
 31
0.0
  0
LINE
  5
120
100
AcDbEntity
  8
0
  6
Continuous
 62
               2
100
AcDbLine
 10
625.55246792408366
 20
459.6082858499052
 30
0.0
 11
625.55246792408366
 21
479.31379616411539
 31
0.0
  0
LINE
  5
121
100
AcDbEntity
  8
0
  6
Continuous
 62
               4
100
AcDbLine
 10
624.05246792408366
 20
479.03316463309591
 30
0.0
 11
624.05246792408366
 21
471.45791789114344
 31
0.0
  0
LINE
  5
122
100
AcDbEntity
  8
0
  6
Continuous
 62
               4
100
AcDbLine
 10
624.55246792408366
 20
479.31379616411539
 30
0.0
 11
624.55246792408366
 21
471.41107938091079
 31
0.0
  0
LINE
  5
123
100
AcDbEntity
  8
0
  6
Continuous
 62
               4
100
AcDbLine
 10
625.05246792408366
 20
479.18627207951101
 30
0.0
 11
625.05246792408366
 21
471.47142588326267
 31
0.0
  0
LINE
  5
124
100
AcDbEntity
  8
0
  6
Continuous
 62
               2
100
AcDbLine
 10
657.05246792408366
 20
450.72142588326267
 30
0.0
 11
654.05246792408366
 21
449.72142588326267
 31
0.0
  0
LINE
  5
125
100
AcDbEntity
  8
0
  6
Continuous
 62
               2
100
AcDbLine
 10
614.05246792408366
 20
449.72142588326267
 30
0.0
 11
599.05246792408389
 21
449.72142588326267
 31
0.0
  0
LINE
  5
126
100
AcDbEntity
  8
0
  6
Continuous
 62
               2
100
AcDbLine
 10
596.05246792408389
 20
450.72142588326267
 30
0.0
 11
599.05246792408389
 21
449.72142588326267
 31
0.0
  0
LINE
  5
127
100
AcDbEntity
  8
0
  6
Continuous
 62
               2
100
AcDbLine
 10
596.05246792408366
 20
450.72142588326267
 30
0.0
 11
326.55246792408394
 21
450.72142588326267
 31
0.0
  0
LINE
  5
128
100
AcDbEntity
  8
0
  6
Continuous
 62
               2
100
AcDbLine
 10
657.05246792408366
 20
450.72142588326267
 30
0.0
 11
688.04331053757164
 21
450.72142588326267
 31
0.0
  0
LINE
  5
129
100
AcDbEntity
  8
0
  6
Continuous
 62
               4
100
AcDbLine
 10
626.55246792408366
 20
448.72142588326267
 30
0.0
 11
626.55246792408366
 21
479.03316463309613
 31
0.0
  0
LINE
  5
12A
100
AcDbEntity
  8
0
  6
Continuous
 62
               4
100
AcDbLine
 10
626.55246792408366
 20
448.72142588326267
 30
0.0
 11
651.55246792408366
 21
448.72142588326267
 31
0.0
  0
LINE
  5
12B
100
AcDbEntity
  8
0
  6
Continuous
 62
               4
100
AcDbLine
 10
634.5932469010379
 20
449.06770444327015
 30
0.0
 11
644.5932469010379
 21
449.06770444327015
 31
0.0
  0
LINE
  5
12C
100
AcDbEntity
  8
0
  6
Continuous
 62
               4
100
AcDbLine
 10
637.0932469010379
 20
406.06770444327003
 30
0.0
 11
642.0932469010379
 21
406.06770444327003
 31
0.0
  0
LINE
  5
12D
100
AcDbEntity
  8
0
  6
Continuous
 62
               4
100
AcDbLine
 10
637.0932469010379
 20
446.26770444327019
 30
0.0
 11
642.0932469010379
 21
446.26770444327019
 31
0.0
  0
LINE
  5
12E
100
AcDbEntity
  8
0
  6
Continuous
 62
               4
100
AcDbLine
 10
637.0932469010379
 20
406.06770444327003
 30
0.0
 11
637.0932469010379
 21
446.26770444327019
 31
0.0
  0
LINE
  5
12F
100
AcDbEntity
  8
0
  6
Continuous
 62
               4
100
AcDbLine
 10
642.0932469010379
 20
406.06770444327003
 30
0.0
 11
642.0932469010379
 21
446.26770444327019
 31
0.0
  0
LINE
  5
130
100
AcDbEntity
  8
0
  6
Continuous
 62
               4
100
AcDbLine
 10
637.0932469010379
 20
446.26770444327019
 30
0.0
 11
634.5932469010379
 21
449.06770444327015
 31
0.0
  0
LINE
  5
131
100
AcDbEntity
  8
0
  6
Continuous
 62
               4
100
AcDbLine
 10
642.0932469010379
 20
446.26770444327019
 30
0.0
 11
644.5932469010379
 21
449.06770444327015
 31
0.0
  0
LINE
  5
132
100
AcDbEntity
  8
0
  6
Continuous
 62
               4
100
AcDbLine
 10
637.0932469010379
 20
406.06770444327003
 30
0.0
 11
639.5932469010379
 21
404.06770444327003
 31
0.0
  0
LINE
  5
133
100
AcDbEntity
  8
0
  6
Continuous
 62
               4
100
AcDbLine
 10
639.5932469010379
 20
404.06770444327003
 30
0.0
 11
642.0932469010379
 21
406.06770444327003
 31
0.0
  0
LINE
  5
134
100
AcDbEntity
  8
0
  6
Continuous
 62
               4
100
AcDbLine
 10
642.0932469010379
 20
407.43229184447955
 30
0.0
 11
637.0932469010379
 21
406.55065694093719
 31
0.0
  0
LINE
  5
135
100
AcDbEntity
  8
0
  6
Continuous
 62
               4
100
AcDbLine
 10
642.0932469010379
 20
408.44771845636524
 30
0.0
 11
637.0932469010379
 21
407.56608355282287
 31
0.0
  0
LINE
  5
136
100
AcDbEntity
  8
0
  6
Continuous
 62
               4
100
AcDbLine
 10
642.0932469010379
 20
409.46314506825092
 30
0.0
 11
637.0932469010379
 21
408.58151016470856
 31
0.0
  0
LINE
  5
137
100
AcDbEntity
  8
0
  6
Continuous
 62
               4
100
AcDbLine
 10
642.0932469010379
 20
410.47857168013661
 30
0.0
 11
637.0932469010379
 21
409.59693677659425
 31
0.0
  0
LINE
  5
138
100
AcDbEntity
  8
0
  6
Continuous
 62
               4
100
AcDbLine
 10
642.0932469010379
 20
411.49399829202252
 30
0.0
 11
637.0932469010379
 21
410.61236338848016
 31
0.0
  0
LINE
  5
139
100
AcDbEntity
  8
0
  6
Continuous
 62
               4
100
AcDbLine
 10
642.0932469010379
 20
412.50942490390821
 30
0.0
 11
637.0932469010379
 21
411.62779000036585
 31
0.0
  0
LINE
  5
13A
100
AcDbEntity
  8
0
  6
Continuous
 62
               4
100
AcDbLine
 10
642.0932469010379
 20
413.5248515157939
 30
0.0
 11
637.0932469010379
 21
412.64321661225154
 31
0.0
  0
LINE
  5
13B
100
AcDbEntity
  8
0
  6
Continuous
 62
               4
100
AcDbLine
 10
642.0932469010379
 20
414.54027812767981
 30
0.0
 11
637.0932469010379
 21
413.65864322413745
 31
0.0
  0
LINE
  5
13C
100
AcDbEntity
  8
0
  6
Continuous
 62
               4
100
AcDbLine
 10
642.0932469010379
 20
415.5557047395655
 30
0.0
 11
637.0932469010379
 21
414.67406983602314
 31
0.0
  0
LINE
  5
13D
100
AcDbEntity
  8
0
  6
Continuous
 62
               4
100
AcDbLine
 10
642.0932469010379
 20
416.57113135145119
 30
0.0
 11
637.0932469010379
 21
415.68949644790905
 31
0.0
  0
LINE
  5
13E
100
AcDbEntity
  8
0
  6
Continuous
 62
               4
100
AcDbLine
 10
642.0932469010379
 20
417.5865579633371
 30
0.0
 11
637.0932469010379
 21
416.70492305979474
 31
0.0
  0
LINE
  5
13F
100
AcDbEntity
  8
0
  6
Continuous
 62
               4
100
AcDbLine
 10
642.0932469010379
 20
418.60198457522279
 30
0.0
 11
637.0932469010379
 21
417.72034967168042
 31
0.0
  0
LINE
  5
140
100
AcDbEntity
  8
0
  6
Continuous
 62
               4
100
AcDbLine
 10
642.0932469010379
 20
419.61741118710847
 30
0.0
 11
637.0932469010379
 21
418.73577628356634
 31
0.0
  0
LINE
  5
141
100
AcDbEntity
  8
0
  6
Continuous
 62
               4
100
AcDbLine
 10
642.0932469010379
 20
420.63283779899439
 30
0.0
 11
637.0932469010379
 21
419.75120289545202
 31
0.0
  0
LINE
  5
142
100
AcDbEntity
  8
0
  6
Continuous
 62
               4
100
AcDbLine
 10
642.0932469010379
 20
421.64826441088007
 30
0.0
 11
637.0932469010379
 21
420.76662950733771
 31
0.0
  0
LINE
  5
143
100
AcDbEntity
  8
0
  6
Continuous
 62
               4
100
AcDbLine
 10
642.0932469010379
 20
422.66369102276576
 30
0.0
 11
637.0932469010379
 21
421.7820561192234
 31
0.0
  0
LINE
  5
144
100
AcDbEntity
  8
0
  6
Continuous
 62
               4
100
AcDbLine
 10
642.0932469010379
 20
423.67911763465145
 30
0.0
 11
637.0932469010379
 21
422.79748273110908
 31
0.0
  0
LINE
  5
145
100
AcDbEntity
  8
0
  6
Continuous
 62
               4
100
AcDbLine
 10
642.0932469010379
 20
424.69454424653713
 30
0.0
 11
637.0932469010379
 21
423.812909342995
 31
0.0
  0
LINE
  5
146
100
AcDbEntity
  8
0
  6
Continuous
 62
               4
100
AcDbLine
 10
642.0932469010379
 20
425.70997085842305
 30
0.0
 11
637.0932469010379
 21
424.82833595488069
 31
0.0
  0
LINE
  5
147
100
AcDbEntity
  8
0
  6
Continuous
 62
               4
100
AcDbLine
 10
642.0932469010379
 20
426.72539747030874
 30
0.0
 11
637.0932469010379
 21
425.84376256676637
 31
0.0
  0
LINE
  5
148
100
AcDbEntity
  8
0
  6
Continuous
 62
               4
100
AcDbLine
 10
642.0932469010379
 20
427.74082408219442
 30
0.0
 11
637.0932469010379
 21
426.85918917865229
 31
0.0
  0
LINE
  5
149
100
AcDbEntity
  8
0
  6
Continuous
 62
               4
100
AcDbLine
 10
642.0932469010379
 20
428.75625069408034
 30
0.0
 11
637.0932469010379
 21
427.87461579053797
 31
0.0
  0
LINE
  5
14A
100
AcDbEntity
  8
0
  6
Continuous
 62
               4
100
AcDbLine
 10
642.0932469010379
 20
429.77167730596602
 30
0.0
 11
637.0932469010379
 21
428.89004240242366
 31
0.0
  0
LINE
  5
14B
100
AcDbEntity
  8
0
  6
Continuous
 62
               4
100
AcDbLine
 10
642.0932469010379
 20
430.78710391785171
 30
0.0
 11
637.0932469010379
 21
429.90546901430935
 31
0.0
  0
LINE
  5
14C
100
AcDbEntity
  8
0
  6
Continuous
 62
               4
100
AcDbLine
 10
642.0932469010379
 20
431.8025305297374
 30
0.0
 11
637.0932469010379
 21
430.92089562619503
 31
0.0
  0
LINE
  5
14D
100
AcDbEntity
  8
0
  6
Continuous
 62
               4
100
AcDbLine
 10
642.0932469010379
 20
432.81795714162331
 30
0.0
 11
637.0932469010379
 21
431.93632223808095
 31
0.0
  0
LINE
  5
14E
100
AcDbEntity
  8
0
  6
Continuous
 62
               4
100
AcDbLine
 10
642.0932469010379
 20
433.833383753509
 30
0.0
 11
637.0932469010379
 21
432.95174884996663
 31
0.0
  0
LINE
  5
14F
100
AcDbEntity
  8
0
  6
Continuous
 62
               4
100
AcDbLine
 10
642.0932469010379
 20
434.84881036539468
 30
0.0
 11
637.0932469010379
 21
433.96717546185232
 31
0.0
  0
LINE
  5
150
100
AcDbEntity
  8
0
  6
Continuous
 62
               4
100
AcDbLine
 10
642.0932469010379
 20
435.8642369772806
 30
0.0
 11
637.0932469010379
 21
434.98260207373824
 31
0.0
  0
LINE
  5
151
100
AcDbEntity
  8
0
  6
Continuous
 62
               4
100
AcDbLine
 10
642.0932469010379
 20
436.87966358916628
 30
0.0
 11
637.0932469010379
 21
435.99802868562392
 31
0.0
  0
LINE
  5
152
100
AcDbEntity
  8
0
  6
Continuous
 62
               4
100
AcDbLine
 10
642.0932469010379
 20
437.89509020105186
 30
0.0
 11
637.0932469010379
 21
437.01345529750961
 31
0.0
  0
LINE
  5
153
100
AcDbEntity
  8
0
  6
Continuous
 62
               4
100
AcDbLine
 10
642.0932469010379
 20
438.91051681293754
 30
0.0
 11
637.0932469010379
 21
438.02888190939518
 31
0.0
  0
LINE
  5
154
100
AcDbEntity
  8
0
  6
Continuous
 62
               4
100
AcDbLine
 10
642.0932469010379
 20
439.92594342482323
 30
0.0
 11
637.0932469010379
 21
439.04430852128087
 31
0.0
  0
LINE
  5
155
100
AcDbEntity
  8
0
  6
Continuous
 62
               4
100
AcDbLine
 10
642.0932469010379
 20
440.94137003670915
 30
0.0
 11
637.0932469010379
 21
440.05973513316678
 31
0.0
  0
LINE
  5
156
100
AcDbEntity
  8
0
  6
Continuous
 62
               4
100
AcDbLine
 10
642.0932469010379
 20
441.95679664859483
 30
0.0
 11
637.0932469010379
 21
441.07516174505247
 31
0.0
  0
LINE
  5
157
100
AcDbEntity
  8
0
  6
Continuous
 62
               4
100
AcDbLine
 10
642.0932469010379
 20
442.97222326048052
 30
0.0
 11
639.43537172863967
 21
442.50356815623161
 31
0.0
  0
LINE
  5
158
100
AcDbEntity
  8
0
  6
Continuous
 62
               4
100
AcDbLine
 10
405.90694823701853
 20
449.15486630815928
 30
0.0
 11
415.90694823701853
 21
449.15486630815928
 31
0.0
  0
LINE
  5
159
100
AcDbEntity
  8
0
  6
Continuous
 62
               4
100
AcDbLine
 10
408.40694823701853
 20
406.15486630815917
 30
0.0
 11
413.40694823701853
 21
406.15486630815917
 31
0.0
  0
LINE
  5
15A
100
AcDbEntity
  8
0
  6
Continuous
 62
               4
100
AcDbLine
 10
408.40694823701853
 20
446.35486630815933
 30
0.0
 11
413.40694823701853
 21
446.35486630815933
 31
0.0
  0
LINE
  5
15B
100
AcDbEntity
  8
0
  6
Continuous
 62
               4
100
AcDbLine
 10
408.40694823701853
 20
406.15486630815917
 30
0.0
 11
408.40694823701853
 21
446.35486630815933
 31
0.0
  0
LINE
  5
15C
100
AcDbEntity
  8
0
  6
Continuous
 62
               4
100
AcDbLine
 10
413.40694823701853
 20
406.15486630815917
 30
0.0
 11
413.40694823701853
 21
446.35486630815933
 31
0.0
  0
LINE
  5
15D
100
AcDbEntity
  8
0
  6
Continuous
 62
               4
100
AcDbLine
 10
408.40694823701853
 20
446.35486630815933
 30
0.0
 11
405.90694823701853
 21
449.15486630815928
 31
0.0
  0
LINE
  5
15E
100
AcDbEntity
  8
0
  6
Continuous
 62
               4
100
AcDbLine
 10
413.40694823701853
 20
446.35486630815933
 30
0.0
 11
415.90694823701853
 21
449.15486630815928
 31
0.0
  0
LINE
  5
15F
100
AcDbEntity
  8
0
  6
Continuous
 62
               4
100
AcDbLine
 10
408.40694823701853
 20
406.15486630815917
 30
0.0
 11
410.90694823701853
 21
404.15486630815917
 31
0.0
  0
LINE
  5
160
100
AcDbEntity
  8
0
  6
Continuous
 62
               4
100
AcDbLine
 10
410.90694823701853
 20
404.15486630815917
 30
0.0
 11
413.40694823701853
 21
406.15486630815917
 31
0.0
  0
LINE
  5
161
100
AcDbEntity
  8
0
  6
Continuous
 62
               4
100
AcDbLine
 10
413.40694823701875
 20
407.51945370936869
 30
0.0
 11
408.40694823701853
 21
406.63781880582633
 31
0.0
  0
LINE
  5
162
100
AcDbEntity
  8
0
  6
Continuous
 62
               4
100
AcDbLine
 10
413.40694823701875
 20
408.53488032125438
 30
0.0
 11
408.40694823701853
 21
407.65324541771201
 31
0.0
  0
LINE
  5
163
100
AcDbEntity
  8
0
  6
Continuous
 62
               4
100
AcDbLine
 10
413.40694823701875
 20
409.55030693314006
 30
0.0
 11
408.40694823701853
 21
408.6686720295977
 31
0.0
  0
LINE
  5
164
100
AcDbEntity
  8
0
  6
Continuous
 62
               4
100
AcDbLine
 10
413.40694823701875
 20
410.56573354502575
 30
0.0
 11
408.40694823701853
 21
409.68409864148339
 31
0.0
  0
LINE
  5
165
100
AcDbEntity
  8
0
  6
Continuous
 62
               4
100
AcDbLine
 10
413.40694823701875
 20
411.58116015691166
 30
0.0
 11
408.40694823701853
 21
410.6995252533693
 31
0.0
  0
LINE
  5
166
100
AcDbEntity
  8
0
  6
Continuous
 62
               4
100
AcDbLine
 10
413.40694823701875
 20
412.59658676879735
 30
0.0
 11
408.40694823701853
 21
411.71495186525499
 31
0.0
  0
LINE
  5
167
100
AcDbEntity
  8
0
  6
Continuous
 62
               4
100
AcDbLine
 10
413.40694823701875
 20
413.61201338068304
 30
0.0
 11
408.40694823701853
 21
412.73037847714068
 31
0.0
  0
LINE
  5
168
100
AcDbEntity
  8
0
  6
Continuous
 62
               4
100
AcDbLine
 10
413.40694823701875
 20
414.62743999256895
 30
0.0
 11
408.40694823701853
 21
413.74580508902659
 31
0.0
  0
LINE
  5
169
100
AcDbEntity
  8
0
  6
Continuous
 62
               4
100
AcDbLine
 10
413.40694823701875
 20
415.64286660445464
 30
0.0
 11
408.40694823701853
 21
414.76123170091228
 31
0.0
  0
LINE
  5
16A
100
AcDbEntity
  8
0
  6
Continuous
 62
               4
100
AcDbLine
 10
413.40694823701875
 20
416.65829321634033
 30
0.0
 11
408.40694823701853
 21
415.77665831279819
 31
0.0
  0
LINE
  5
16B
100
AcDbEntity
  8
0
  6
Continuous
 62
               4
100
AcDbLine
 10
413.40694823701875
 20
417.67371982822624
 30
0.0
 11
408.40694823701853
 21
416.79208492468388
 31
0.0
  0
LINE
  5
16C
100
AcDbEntity
  8
0
  6
Continuous
 62
               4
100
AcDbLine
 10
413.40694823701875
 20
418.68914644011193
 30
0.0
 11
408.40694823701853
 21
417.80751153656956
 31
0.0
  0
LINE
  5
16D
100
AcDbEntity
  8
0
  6
Continuous
 62
               4
100
AcDbLine
 10
413.40694823701875
 20
419.70457305199761
 30
0.0
 11
408.40694823701853
 21
418.82293814845548
 31
0.0
  0
LINE
  5
16E
100
AcDbEntity
  8
0
  6
Continuous
 62
               4
100
AcDbLine
 10
413.40694823701875
 20
420.71999966388353
 30
0.0
 11
408.40694823701853
 21
419.83836476034116
 31
0.0
  0
LINE
  5
16F
100
AcDbEntity
  8
0
  6
Continuous
 62
               4
100
AcDbLine
 10
413.40694823701875
 20
421.73542627576921
 30
0.0
 11
408.40694823701853
 21
420.85379137222685
 31
0.0
  0
LINE
  5
170
100
AcDbEntity
  8
0
  6
Continuous
 62
               4
100
AcDbLine
 10
413.40694823701875
 20
422.7508528876549
 30
0.0
 11
408.40694823701853
 21
421.86921798411254
 31
0.0
  0
LINE
  5
171
100
AcDbEntity
  8
0
  6
Continuous
 62
               4
100
AcDbLine
 10
413.40694823701875
 20
423.76627949954059
 30
0.0
 11
408.40694823701853
 21
422.88464459599822
 31
0.0
  0
LINE
  5
172
100
AcDbEntity
  8
0
  6
Continuous
 62
               4
100
AcDbLine
 10
413.40694823701875
 20
424.78170611142627
 30
0.0
 11
408.40694823701853
 21
423.90007120788414
 31
0.0
  0
LINE
  5
173
100
AcDbEntity
  8
0
  6
Continuous
 62
               4
100
AcDbLine
 10
413.40694823701875
 20
425.79713272331219
 30
0.0
 11
408.40694823701853
 21
424.91549781976983
 31
0.0
  0
LINE
  5
174
100
AcDbEntity
  8
0
  6
Continuous
 62
               4
100
AcDbLine
 10
413.40694823701875
 20
426.81255933519788
 30
0.0
 11
408.40694823701853
 21
425.93092443165551
 31
0.0
  0
LINE
  5
175
100
AcDbEntity
  8
0
  6
Continuous
 62
               4
100
AcDbLine
 10
413.40694823701875
 20
427.82798594708356
 30
0.0
 11
408.40694823701853
 21
426.94635104354143
 31
0.0
  0
LINE
  5
176
100
AcDbEntity
  8
0
  6
Continuous
 62
               4
100
AcDbLine
 10
413.40694823701875
 20
428.84341255896948
 30
0.0
 11
408.40694823701853
 21
427.96177765542711
 31
0.0
  0
LINE
  5
177
100
AcDbEntity
  8
0
  6
Continuous
 62
               4
100
AcDbLine
 10
413.40694823701875
 20
429.85883917085516
 30
0.0
 11
408.40694823701853
 21
428.9772042673128
 31
0.0
  0
LINE
  5
178
100
AcDbEntity
  8
0
  6
Continuous
 62
               4
100
AcDbLine
 10
413.40694823701875
 20
430.87426578274085
 30
0.0
 11
408.40694823701853
 21
429.99263087919849
 31
0.0
  0
LINE
  5
179
100
AcDbEntity
  8
0
  6
Continuous
 62
               4
100
AcDbLine
 10
413.40694823701875
 20
431.88969239462654
 30
0.0
 11
408.40694823701853
 21
431.00805749108417
 31
0.0
  0
LINE
  5
17A
100
AcDbEntity
  8
0
  6
Continuous
 62
               4
100
AcDbLine
 10
413.40694823701875
 20
432.90511900651245
 30
0.0
 11
408.40694823701853
 21
432.02348410297009
 31
0.0
  0
LINE
  5
17B
100
AcDbEntity
  8
0
  6
Continuous
 62
               4
100
AcDbLine
 10
413.40694823701875
 20
433.92054561839814
 30
0.0
 11
408.40694823701853
 21
433.03891071485577
 31
0.0
  0
LINE
  5
17C
100
AcDbEntity
  8
0
  6
Continuous
 62
               4
100
AcDbLine
 10
413.40694823701875
 20
434.93597223028382
 30
0.0
 11
408.40694823701853
 21
434.05433732674146
 31
0.0
  0
LINE
  5
17D
100
AcDbEntity
  8
0
  6
Continuous
 62
               4
100
AcDbLine
 10
413.40694823701875
 20
435.95139884216974
 30
0.0
 11
408.40694823701853
 21
435.06976393862737
 31
0.0
  0
LINE
  5
17E
100
AcDbEntity
  8
0
  6
Continuous
 62
               4
100
AcDbLine
 10
413.40694823701875
 20
436.96682545405542
 30
0.0
 11
408.40694823701853
 21
436.08519055051306
 31
0.0
  0
LINE
  5
17F
100
AcDbEntity
  8
0
  6
Continuous
 62
               4
100
AcDbLine
 10
413.40694823701875
 20
437.982252065941
 30
0.0
 11
408.40694823701853
 21
437.10061716239863
 31
0.0
  0
LINE
  5
180
100
AcDbEntity
  8
0
  6
Continuous
 62
               4
100
AcDbLine
 10
413.40694823701875
 20
438.99767867782668
 30
0.0
 11
408.40694823701853
 21
438.11604377428432
 31
0.0
  0
LINE
  5
181
100
AcDbEntity
  8
0
  6
Continuous
 62
               4
100
AcDbLine
 10
413.40694823701875
 20
440.01310528971237
 30
0.0
 11
408.40694823701853
 21
439.13147038617001
 31
0.0
  0
LINE
  5
182
100
AcDbEntity
  8
0
  6
Continuous
 62
               4
100
AcDbLine
 10
413.40694823701875
 20
441.02853190159829
 30
0.0
 11
408.40694823701853
 21
440.14689699805592
 31
0.0
  0
LINE
  5
183
100
AcDbEntity
  8
0
  6
Continuous
 62
               4
100
AcDbLine
 10
413.40694823701853
 20
442.04395851348397
 30
0.0
 11
408.40694823701853
 21
441.16232360994161
 31
0.0
  0
LINE
  5
184
100
AcDbEntity
  8
0
  6
Continuous
 62
               4
100
AcDbLine
 10
413.40694823701853
 20
443.05938512536966
 30
0.0
 11
410.74907306462029
 21
442.59073002112075
 31
0.0
  0
LINE
  5
185
100
AcDbEntity
  8
0
  6
DASHDOT
 62
               4
100
AcDbLine
 10
626.55246792408366
 20
543.72142588326267
 30
0.0
 11
626.55246792408366
 21
380.22143491312136
 31
0.0
  0
LINE
  5
186
100
AcDbEntity
  8
0
  6
Continuous
 62
               4
100
AcDbLine
 10
688.04331053757164
 20
540.72142588326267
 30
0.0
 11
679.18004076046213
 21
539.15859228426018
 31
0.0
  0
LINE
  5
187
100
AcDbEntity
  8
0
  6
Continuous
 62
               4
100
AcDbLine
 10
688.04331053757164
 20
540.72142588326267
 30
0.0
 11
679.18004076046213
 21
542.28425948226493
 31
0.0
  0
LINE
  5
188
100
AcDbEntity
  8
0
  6
Continuous
 62
               4
100
AcDbLine
 10
714.78679656440374
 20
21.213203435595801
 30
0.0
 11
714.78679656440374
 21
41.213203435595801
 31
0.0
  0
LINE
  5
189
100
AcDbEntity
  8
0
  6
Continuous
 62
               4
100
AcDbLine
 10
864.78679656440374
 20
21.213203435595801
 30
0.0
 11
714.78679656440374
 21
21.213203435595801
 31
0.0
  0
LINE
  5
18A
100
AcDbEntity
  8
0
  6
Continuous
 62
               4
100
AcDbLine
 10
864.78679656440374
 20
41.213203435595801
 30
0.0
 11
864.78679656440374
 21
21.213203435595801
 31
0.0
  0
LINE
  5
18B
100
AcDbEntity
  8
0
  6
Continuous
 62
               4
100
AcDbLine
 10
864.78679656440374
 20
41.213203435595801
 30
0.0
 11
714.78679656440374
 21
41.213203435595801
 31
0.0
  0
LINE
  5
18C
100
AcDbEntity
  8
0
  6
Continuous
 62
               4
100
AcDbLine
 10
14.142135623730949
 20
595.85786437626837
 30
0.0
 11
14.142135623730949
 21
615.85786437626837
 31
0.0
  0
LINE
  5
18D
100
AcDbEntity
  8
0
  6
Continuous
 62
               4
100
AcDbLine
 10
164.14213562373095
 20
595.85786437626837
 30
0.0
 11
14.142135623730949
 21
595.85786437626837
 31
0.0
  0
LINE
  5
18E
100
AcDbEntity
  8
0
  6
Continuous
 62
               4
100
AcDbLine
 10
164.14213562373095
 20
615.85786437626837
 30
0.0
 11
164.14213562373095
 21
595.85786437626837
 31
0.0
  0
LINE
  5
18F
100
AcDbEntity
  8
0
  6
Continuous
 62
               4
100
AcDbLine
 10
164.14213562373095
 20
615.85786437626837
 30
0.0
 11
14.142135623730949
 21
615.85786437626837
 31
0.0
  0
CIRCLE
  5
190
100
AcDbEntity
  8
0
  6
Continuous
 62
               4
100
AcDbCircle
 10
299.55246792408383
 20
447.7214258832629
 30
0.0
 40
1.500000000000002
  0
CIRCLE
  5
191
100
AcDbEntity
  8
0
  6
Continuous
 62
               4
100
AcDbCircle
 10
299.55246792408383
 20
397.7214258832629
 30
0.0
 40
1.500000000000002
  0
CIRCLE
  5
192
100
AcDbEntity
  8
0
  6
Continuous
 62
               4
100
AcDbCircle
 10
675.05246792408411
 20
450.7214258832629
 30
0.0
 40
1.500000000000002
  0
CIRCLE
  5
193
100
AcDbEntity
  8
0
  6
Continuous
 62
               4
100
AcDbCircle
 10
675.05246792408411
 20
480.72142588326267
 30
0.0
 40
1.500000000000002
  0
CIRCLE
  5
194
100
AcDbEntity
  8
0
  6
Continuous
 62
               4
100
AcDbCircle
 10
626.55246792408366
 20
540.72142588326267
 30
0.0
 40
1.500000000000002
  0
CIRCLE
  5
195
100
AcDbEntity
  8
0
  6
Continuous
 62
               4
100
AcDbCircle
 10
626.55246792408366
 20
540.72142588326267
 30
0.0
 40
1.500000000000002
  0
CIRCLE
  5
196
100
AcDbEntity
  8
0
  6
Continuous
 62
               4
100
AcDbCircle
 10
326.55246792408394
 20
540.72142588326267
 30
0.0
 40
1.500000000000002
  0
CIRCLE
  5
197
100
AcDbEntity
  8
0
  6
Continuous
 62
               4
100
AcDbCircle
 10
326.55246792408394
 20
504.72142588326267
 30
0.0
 40
1.500000000000002
  0
CIRCLE
  5
198
100
AcDbEntity
  8
0
  6
Continuous
 62
               4
100
AcDbCircle
 10
346.55246792408394
 20
504.72142588326267
 30
0.0
 40
1.500000000000002
  0
CIRCLE
  5
199
100
AcDbEntity
  8
0
  6
Continuous
 62
               4
100
AcDbCircle
 10
430.4741324553782
 20
389.99608341750923
 30
0.0
 40
1.0
  0
CIRCLE
  5
19A
100
AcDbEntity
  8
0
  6
Continuous
 62
               4
100
AcDbCircle
 10
454.88509135948794
 20
393.04745328052309
 30
0.0
 40
0.5
  0
CIRCLE
  5
19B
100
AcDbEntity
  8
0
  6
Continuous
 62
               4
100
AcDbCircle
 10
456.1056393046934
 20
375.95978204764629
 30
0.0
 40
1.0
  0
CIRCLE
  5
19C
100
AcDbEntity
  8
0
  6
Continuous
 62
               4
100
AcDbCircle
 10
510.42002286633721
 20
388.77553547230377
 30
0.0
 40
1.0
  0
CIRCLE
  5
19D
100
AcDbEntity
  8
0
  6
Continuous
 62
               4
100
AcDbCircle
 10
489.67070779784416
 20
360.09265875997505
 30
0.0
 40
1.0
  0
CIRCLE
  5
19E
100
AcDbEntity
  8
0
  6
Continuous
 62
               4
100
AcDbCircle
 10
501.87618724989858
 20
338.73306971887911
 30
0.0
 40
1.0
  0
CIRCLE
  5
19F
100
AcDbEntity
  8
0
  6
Continuous
 62
               4
100
AcDbCircle
 10
526.897420126611
 20
371.68786423942697
 30
0.0
 40
1.0
  0
CIRCLE
  5
1A0
100
AcDbEntity
  8
0
  6
Continuous
 62
               4
100
AcDbCircle
 10
471.36248861976179
 20
332.63032999285173
 30
0.0
 40
1.0
  0
CIRCLE
  5
1A1
100
AcDbEntity
  8
0
  6
Continuous
 62
               4
100
AcDbCircle
 10
477.46522834578917
 20
381.45224780107083
 30
0.0
 40
1.0
  0
CIRCLE
  5
1A2
100
AcDbEntity
  8
0
  6
Continuous
 62
               4
100
AcDbCircle
 10
542.76454341428234
 20
390.60635739011195
 30
0.0
 40
1.0
  0
CIRCLE
  5
1A3
100
AcDbEntity
  8
0
  6
Continuous
 62
               4
100
AcDbCircle
 10
470.14194067455634
 20
361.31320670518051
 30
0.0
 40
0.5
  0
CIRCLE
  5
1A4
100
AcDbEntity
  8
0
  6
Continuous
 62
               4
100
AcDbCircle
 10
502.48646122250153
 20
375.95978204764629
 30
0.0
 40
0.5
  0
CIRCLE
  5
1A5
100
AcDbEntity
  8
0
  6
Continuous
 62
               4
100
AcDbCircle
 10
490.89125574304961
 20
392.43717930792036
 30
0.0
 40
0.5
  0
CIRCLE
  5
1A6
100
AcDbEntity
  8
0
  6
Continuous
 62
               4
100
AcDbCircle
 10
487.83988588003575
 20
321.03512451339969
 30
0.0
 40
0.5
  0
CIRCLE
  5
1A7
100
AcDbEntity
  8
0
  6
Continuous
 62
               4
100
AcDbCircle
 10
484.78851601702212
 20
345.44608341750921
 30
0.0
 40
0.5
  0
CIRCLE
  5
1A8
100
AcDbEntity
  8
0
  6
Continuous
 62
               4
100
AcDbCircle
 10
455.49536533209067
 20
358.26183684216687
 30
0.0
 40
0.5
  0
CIRCLE
  5
1A9
100
AcDbEntity
  8
0
  6
Continuous
 62
               4
100
AcDbCircle
 10
518.96385848277532
 20
354.60019300655028
 30
0.0
 40
0.5
  0
CIRCLE
  5
1AA
100
AcDbEntity
  8
0
  6
Continuous
 62
               4
100
AcDbCircle
 10
416.89553656496724
 20
419.44180259559153
 30
0.0
 40
1.0
  0
CIRCLE
  5
1AB
100
AcDbEntity
  8
0
  6
Continuous
 62
               4
100
AcDbCircle
 10
460.83526259236459
 20
412.7287888969613
 30
0.0
 40
1.0
  0
CIRCLE
  5
1AC
100
AcDbEntity
  8
0
  6
Continuous
 62
               4
100
AcDbCircle
 10
512.70855026359732
 20
422.49317245860516
 30
0.0
 40
1.0
  0
CIRCLE
  5
1AD
100
AcDbEntity
  8
0
  6
Continuous
 62
               4
100
AcDbCircle
 10
527.35512560606321
 20
410.89796697915313
 30
0.0
 40
1.0
  0
CIRCLE
  5
1AE
100
AcDbEntity
  8
0
  6
Continuous
 62
               4
100
AcDbCircle
 10
558.47909820880272
 20
423.71372040381061
 30
0.0
 40
1.0
  0
CIRCLE
  5
1AF
100
AcDbEntity
  8
0
  6
Continuous
 62
               4
100
AcDbCircle
 10
560.30992012661113
 20
409.67741903394767
 30
0.0
 40
1.0
  0
CIRCLE
  5
1B0
100
AcDbEntity
  8
0
  6
Continuous
 62
               4
100
AcDbCircle
 10
480.36402971565229
 20
420.66235054079698
 30
0.0
 40
0.5
  0
CIRCLE
  5
1B1
100
AcDbEntity
  8
0
  6
Continuous
 62
               4
100
AcDbCircle
 10
505.99553656496715
 20
409.06714506134495
 30
0.0
 40
0.5
  0
CIRCLE
  5
1B2
100
AcDbEntity
  8
0
  6
Continuous
 62
               4
100
AcDbCircle
 10
441.30649546907699
 20
412.7287888969613
 30
0.0
 40
0.5
  0
CIRCLE
  5
1B3
100
AcDbEntity
  8
0
  6
Continuous
 62
               4
100
AcDbCircle
 10
470.59964615400844
 20
396.86166560929018
 30
0.0
 40
0.1
  0
CIRCLE
  5
1B4
100
AcDbEntity
  8
0
  6
Continuous
 62
               4
100
AcDbCircle
 10
505.99553656496715
 20
398.08221355449564
 30
0.0
 40
0.1
  0
CIRCLE
  5
1B5
100
AcDbEntity
  8
0
  6
Continuous
 62
               4
100
AcDbCircle
 10
525.5243036882548
 20
393.20002177367383
 30
0.0
 40
0.1
  0
CIRCLE
  5
1B6
100
AcDbEntity
  8
0
  6
Continuous
 62
               4
100
AcDbCircle
 10
506.60581053757011
 20
360.85550122572852
 30
0.0
 40
0.1
  0
CIRCLE
  5
1B7
100
AcDbEntity
  8
0
  6
Continuous
 62
               4
100
AcDbCircle
 10
485.24622149647411
 20
370.00961081476953
 30
0.0
 40
0.1
  0
CIRCLE
  5
1B8
100
AcDbEntity
  8
0
  6
Continuous
 62
               4
100
AcDbCircle
 10
464.49690642798106
 20
348.03974780107092
 30
0.0
 40
0.1
  0
CIRCLE
  5
1B9
100
AcDbEntity
  8
0
  6
Continuous
 62
               4
100
AcDbCircle
 10
485.24622149647411
 20
331.5623505407969
 30
0.0
 40
0.1
  0
CIRCLE
  5
1BA
100
AcDbEntity
  8
0
  6
Continuous
 62
               4
100
AcDbCircle
 10
499.89279683893989
 20
321.79796697915316
 30
0.0
 40
0.1
  0
CIRCLE
  5
1BB
100
AcDbEntity
  8
0
  6
Continuous
 62
               4
100
AcDbCircle
 10
537.11950916770684
 20
413.94933684216699
 30
0.0
 40
0.1
  0
CIRCLE
  5
1BC
100
AcDbEntity
  8
0
  6
Continuous
 62
               4
100
AcDbCircle
 10
428.49074204441939
 20
410.89796697915313
 30
0.0
 40
0.1
  0
CIRCLE
  5
1BD
100
AcDbEntity
  8
0
  6
Continuous
 62
               4
100
AcDbCircle
 10
454.73252286633721
 20
422.49317245860516
 30
0.0
 40
0.1
  0
CIRCLE
  5
1BE
100
AcDbEntity
  8
0
  6
Continuous
 62
               4
100
AcDbCircle
 10
442.52704341428245
 20
380.38426834901611
 30
0.0
 40
0.2
  0
CIRCLE
  5
1BF
100
AcDbEntity
  8
0
  6
Continuous
 62
               4
100
AcDbCircle
 10
496.84142697592603
 20
413.94933684216699
 30
0.0
 40
0.2
  0
CIRCLE
  5
1C0
100
AcDbEntity
  8
0
  6
Continuous
 62
               4
100
AcDbCircle
 10
573.12567355126862
 20
422.49317245860516
 30
0.0
 40
0.1
  0
CIRCLE
  5
1C1
100
AcDbEntity
  8
0
  6
Continuous
 62
               4
100
AcDbCircle
 10
630.4741324553795
 20
391.496083417509
 30
0.0
 40
1.0
  0
CIRCLE
  5
1C2
100
AcDbEntity
  8
0
  6
Continuous
 62
               4
100
AcDbCircle
 10
654.88509135948902
 20
394.54745328052286
 30
0.0
 40
0.5
  0
CIRCLE
  5
1C3
100
AcDbEntity
  8
0
  6
Continuous
 62
               4
100
AcDbCircle
 10
656.10563930469448
 20
377.45978204764606
 30
0.0
 40
1.0
  0
CIRCLE
  5
1C4
100
AcDbEntity
  8
0
  6
Continuous
 62
               4
100
AcDbCircle
 10
671.36248861976287
 20
334.1303299928515
 30
0.0
 40
1.0
  0
CIRCLE
  5
1C5
100
AcDbEntity
  8
0
  6
Continuous
 62
               4
100
AcDbCircle
 10
677.46522834579014
 20
382.9522478010706
 30
0.0
 40
1.0
  0
CIRCLE
  5
1C6
100
AcDbEntity
  8
0
  6
Continuous
 62
               4
100
AcDbCircle
 10
670.14194067455742
 20
362.81320670518016
 30
0.0
 40
0.5
  0
CIRCLE
  5
1C7
100
AcDbEntity
  8
0
  6
Continuous
 62
               4
100
AcDbCircle
 10
684.78851601702286
 20
346.94608341750899
 30
0.0
 40
0.5
  0
CIRCLE
  5
1C8
100
AcDbEntity
  8
0
  6
Continuous
 62
               4
100
AcDbCircle
 10
655.49536533209198
 20
359.76183684216642
 30
0.0
 40
0.5
  0
CIRCLE
  5
1C9
100
AcDbEntity
  8
0
  6
Continuous
 62
               4
100
AcDbCircle
 10
616.89553656496878
 20
420.9418025955913
 30
0.0
 40
1.0
  0
CIRCLE
  5
1CA
100
AcDbEntity
  8
0
  6
Continuous
 62
               4
100
AcDbCircle
 10
660.83526259236601
 20
414.22878889696108
 30
0.0
 40
1.0
  0
CIRCLE
  5
1CB
100
AcDbEntity
  8
0
  6
Continuous
 62
               4
100
AcDbCircle
 10
680.36402971565326
 20
422.16235054079675
 30
0.0
 40
0.5
  0
CIRCLE
  5
1CC
100
AcDbEntity
  8
0
  6
Continuous
 62
               4
100
AcDbCircle
 10
641.3064954690783
 20
414.22878889696108
 30
0.0
 40
0.5
  0
CIRCLE
  5
1CD
100
AcDbEntity
  8
0
  6
Continuous
 62
               4
100
AcDbCircle
 10
670.59964615400918
 20
398.36166560928996
 30
0.0
 40
0.1
  0
CIRCLE
  5
1CE
100
AcDbEntity
  8
0
  6
Continuous
 62
               4
100
AcDbCircle
 10
685.24622149647507
 20
371.5096108147693
 30
0.0
 40
0.1
  0
CIRCLE
  5
1CF
100
AcDbEntity
  8
0
  6
Continuous
 62
               4
100
AcDbCircle
 10
664.49690642798191
 20
349.53974780107069
 30
0.0
 40
0.1
  0
CIRCLE
  5
1D0
100
AcDbEntity
  8
0
  6
Continuous
 62
               4
100
AcDbCircle
 10
685.24622149647507
 20
333.06235054079667
 30
0.0
 40
0.1
  0
CIRCLE
  5
1D1
100
AcDbEntity
  8
0
  6
Continuous
 62
               4
100
AcDbCircle
 10
628.49074204442081
 20
412.3979669791529
 30
0.0
 40
0.1
  0
CIRCLE
  5
1D2
100
AcDbEntity
  8
0
  6
Continuous
 62
               4
100
AcDbCircle
 10
654.73252286633829
 20
423.99317245860493
 30
0.0
 40
0.1
  0
CIRCLE
  5
1D3
100
AcDbEntity
  8
0
  6
Continuous
 62
               4
100
AcDbCircle
 10
642.52704341428375
 20
381.88426834901588
 30
0.0
 40
0.2
  0
ARC
  5
1D4
100
AcDbEntity
  8
0
  6
DOT
 62
               4
100
AcDbCircle
 10
588.04331053757028
 20
399.92142588326351
 30
0.0
 40
12.0
100
AcDbArc
 50
250.52877936550931
 51
289.47122063449063
  0
ARC
  5
1D5
100
AcDbEntity
  8
0
  6
DOT
 62
               4
100
AcDbCircle
 10
594.04331053757028
 20
391.12142588326333
 30
0.0
 40
3.2000000000000002
100
AcDbArc
 50
231.63034153868779
 51
269.99999999999994
  0
ARC
  5
1D6
100
AcDbEntity
  8
0
  6
DOT
 62
               4
100
AcDbCircle
 10
582.04331053757028
 20
391.12142588326333
 30
0.0
 40
3.2000000000000002
100
AcDbArc
 50
269.99999999999994
 51
308.68218745348975
  0
ARC
  5
1D7
100
AcDbEntity
  8
0
  6
DOT
 62
               4
100
AcDbCircle
 10
588.04331053757028
 20
402.02142588326342
 30
0.0
 40
12.0
100
AcDbArc
 50
70.528779365509322
 51
109.47122063449066
  0
ARC
  5
1D8
100
AcDbEntity
  8
0
  6
DOT
 62
               4
100
AcDbCircle
 10
594.04331053757028
 20
410.82142588326337
 30
0.0
 40
3.2000000000000002
100
AcDbArc
 50
89.999999999999957
 51
128.36965846131216
  0
ARC
  5
1D9
100
AcDbEntity
  8
0
  6
DOT
 62
               4
100
AcDbCircle
 10
582.04331053757028
 20
410.82142588326337
 30
0.0
 40
3.2000000000000002
100
AcDbArc
 50
51.317812546510218
 51
89.999999999999957
  0
ARC
  5
1DA
100
AcDbEntity
  8
0
  6
DOT
 62
               4
100
AcDbCircle
 10
575.02564318849977
 20
408.72142588326346
 30
0.0
 40
3.0
100
AcDbArc
 50
269.99999999999994
 51
307.47617956136111
  0
ARC
  5
1DB
100
AcDbEntity
  8
0
  6
DOT
 62
               4
100
AcDbCircle
 10
580.06097788664033
 20
405.02142588326342
 30
0.0
 40
3.0
100
AcDbArc
 50
89.999999999999957
 51
127.47617956136058
  0
ARC
  5
1DC
100
AcDbEntity
  8
0
  6
DOT
 62
               4
100
AcDbCircle
 10
601.06097788664033
 20
408.72142588326346
 30
0.0
 40
3.0
100
AcDbArc
 50
232.52382043863878
 51
269.99999999999994
  0
ARC
  5
1DD
100
AcDbEntity
  8
0
  6
DOT
 62
               4
100
AcDbCircle
 10
596.02564318849977
 20
405.02142588326342
 30
0.0
 40
3.0
100
AcDbArc
 50
52.523820438639355
 51
89.999999999999957
  0
ARC
  5
1DE
100
AcDbEntity
  8
0
  6
DOT
 62
               4
100
AcDbCircle
 10
574.54331053757028
 20
402.92142588326351
 30
0.0
 40
0.5
100
AcDbArc
 50
89.999999999999957
 51
269.99999999999994
  0
ARC
  5
1DF
100
AcDbEntity
  8
0
  6
DOT
 62
               4
100
AcDbCircle
 10
601.54331053757028
 20
402.92142588326351
 30
0.0
 40
0.5
100
AcDbArc
 50
269.99999999999994
 51
90.0
  0
ARC
  5
1E0
100
AcDbEntity
  8
0
  6
DOT
 62
               4
100
AcDbCircle
 10
388.04331053756999
 20
401.42142588326305
 30
0.0
 40
12.0
100
AcDbArc
 50
250.52877936550931
 51
289.47122063449063
  0
ARC
  5
1E1
100
AcDbEntity
  8
0
  6
DOT
 62
               4
100
AcDbCircle
 10
394.04331053757011
 20
392.62142588326287
 30
0.0
 40
3.2000000000000002
100
AcDbArc
 50
231.63034153868779
 51
269.99999999999994
  0
ARC
  5
1E2
100
AcDbEntity
  8
0
  6
DOT
 62
               4
100
AcDbCircle
 10
382.04331053756999
 20
392.62142588326287
 30
0.0
 40
3.2000000000000002
100
AcDbArc
 50
269.99999999999994
 51
308.68218745348975
  0
ARC
  5
1E3
100
AcDbEntity
  8
0
  6
DOT
 62
               4
100
AcDbCircle
 10
388.04331053756999
 20
404.02142588326296
 30
0.0
 40
12.0
100
AcDbArc
 50
70.528779365509322
 51
109.47122063449066
  0
ARC
  5
1E4
100
AcDbEntity
  8
0
  6
DOT
 62
               4
100
AcDbCircle
 10
394.04331053757011
 20
412.82142588326315
 30
0.0
 40
3.2000000000000002
100
AcDbArc
 50
89.999999999999957
 51
128.36965846131216
  0
ARC
  5
1E5
100
AcDbEntity
  8
0
  6
DOT
 62
               4
100
AcDbCircle
 10
382.0433128662342
 20
412.82146250435676
 30
0.0
 40
3.1999998092651372
100
AcDbArc
 50
51.317813450973887
 51
90.000001607419762
  0
ARC
  5
1E6
100
AcDbEntity
  8
0
  6
DOT
 62
               4
100
AcDbCircle
 10
375.02564318849983
 20
410.72142588326301
 30
0.0
 40
3.0
100
AcDbArc
 50
269.99999999999994
 51
307.47617956136111
  0
ARC
  5
1E7
100
AcDbEntity
  8
0
  6
DOT
 62
               4
100
AcDbCircle
 10
380.06097788664016
 20
407.02142588326296
 30
0.0
 40
3.0
100
AcDbArc
 50
89.999999999999957
 51
127.47617956136058
  0
ARC
  5
1E8
100
AcDbEntity
  8
0
  6
DOT
 62
               4
100
AcDbCircle
 10
401.06097788664016
 20
410.72142588326301
 30
0.0
 40
3.0
100
AcDbArc
 50
232.52382043863878
 51
269.99999999999994
  0
ARC
  5
1E9
100
AcDbEntity
  8
0
  6
DOT
 62
               4
100
AcDbCircle
 10
396.02564318849983
 20
407.02142588326296
 30
0.0
 40
3.0
100
AcDbArc
 50
52.523820438639355
 51
89.999999999999957
  0
ARC
  5
1EA
100
AcDbEntity
  8
0
  6
DOT
 62
               4
100
AcDbCircle
 10
374.54331053756999
 20
404.92142588326305
 30
0.0
 40
0.5
100
AcDbArc
 50
89.999999999999957
 51
269.99999999999994
  0
ARC
  5
1EB
100
AcDbEntity
  8
0
  6
DOT
 62
               4
100
AcDbCircle
 10
401.54331053757011
 20
404.92142588326305
 30
0.0
 40
0.5
100
AcDbArc
 50
269.99999999999994
 51
90.0
  0
ARC
  5
1EC
100
AcDbEntity
  8
0
  6
Continuous
 62
               4
100
AcDbCircle
 10
419.30246792408394
 20
147.42142588326266
 30
0.0
 40
0.75
100
AcDbArc
 50
180.0
 51
0.0
  0
ARC
  5
1ED
100
AcDbEntity
  8
0
  6
Continuous
 62
               4
100
AcDbCircle
 10
347.30246792408394
 20
397.7214258832629
 30
0.0
 40
0.75
100
AcDbArc
 50
180.0
 51
0.0
  0
ARC
  5
1EE
100
AcDbEntity
  8
0
  6
Continuous
 62
               4
100
AcDbCircle
 10
326.55246792408394
 20
448.22142588326312
 30
0.0
 40
0.499999999999972
100
AcDbArc
 50
90.000000000000028
 51
270.0
  0
ARC
  5
1EF
100
AcDbEntity
  8
0
  6
Continuous
 62
               2
100
AcDbCircle
 10
326.55246792408394
 20
448.7214258832629
 30
0.0
 40
1.999999999999889
100
AcDbArc
 50
90.000000000000028
 51
270.0
  0
ARC
  5
1F0
100
AcDbEntity
  8
0
  6
Continuous
 62
               2
100
AcDbCircle
 10
626.22561311949789
 20
446.43334145985443
 30
0.0
 40
13.241589910331108
100
AcDbArc
 50
14.377820588166037
 51
84.249105970512574
  0
ARC
  5
1F1
100
AcDbEntity
  8
0
  6
Continuous
 62
               2
100
AcDbCircle
 10
626.87932272866942
 20
446.43334145985443
 30
0.0
 40
13.241589910331108
100
AcDbArc
 50
95.750894029487256
 51
165.62217941183397
  0
ARC
  5
1F2
100
AcDbEntity
  8
0
  6
Continuous
 62
               2
100
AcDbCircle
 10
624.30246792408366
 20
471.47142588326267
 30
0.0
 40
0.750000000000014
100
AcDbArc
 50
180.0
 51
0.0
  0
ARC
  5
1F3
100
AcDbEntity
  8
0
  6
Continuous
 62
               2
100
AcDbCircle
 10
625.55246792408366
 20
478.72142588326267
 30
0.0
 40
2.0000000000000142
100
AcDbArc
 50
0.0
 51
180.0
  0
ARC
  5
1F4
100
AcDbEntity
  8
0
  6
Continuous
 62
               4
100
AcDbCircle
 10
625.30246792408366
 20
479.03316463309613
 30
0.0
 40
1.250000000000014
100
AcDbArc
 50
0.0
 51
180.0
  0
ARC
  5
1F5
100
AcDbEntity
  8
0
  6
Continuous
 62
               4
100
AcDbCircle
 10
625.05246792408366
 20
479.31379616411539
 30
0.0
 40
0.5
100
AcDbArc
 50
0.0
 51
180.0
  0
TEXT
  5
1F6
100
AcDbEntity
  8
0
 62
               7
100
AcDbText
 10
299.55246792408383
 20
416.72142588326301
 30
0.0
 40
12.000000000000012
  1
50
 50
90.000000000000028
 41
0.7695
  7
FontTableH_0
 72
               5
 11
299.55246792408383
 21
428.72142588326301
 31
0.0
100
AcDbText
  0
TEXT
  5
1F7
100
AcDbEntity
  8
0
 62
               7
100
AcDbText
 10
470.14349884079769
 20
471.33217085819444
 30
0.0
 40
11.999999999999842
  1
遮音材
 41
0.7695
  7
FontTableH_0
 72
               5
 11
506.14349884079775
 21
471.33217085819444
 31
0.0
100
AcDbText
  0
TEXT
  5
1F8
100
AcDbEntity
  8
0
 62
               7
100
AcDbText
 10
448.73779199665972
 20
492.27551878075349
 30
0.0
 40
11.999999999999842
  1
ルーフィング
 41
0.7695
  7
FontTableH_0
 72
               5
 11
520.73779199665978
 21
492.27551878075349
 31
0.0
100
AcDbText
  0
TEXT
  5
1F9
100
AcDbEntity
  8
0
 62
               7
100
AcDbText
 10
415.53164825631967
 20
509.4320263799292
 30
0.0
 40
12.000000000000012
  1
L-30X30X3 @455
 41
0.7695
  7
FontTableH_0
 72
               5
 11
499.53164825631978
 21
509.4320263799292
 31
0.0
100
AcDbText
  0
TEXT
  5
1FA
100
AcDbEntity
  8
0
 62
               7
100
AcDbText
 10
675.05246792408411
 20
459.72142588326267
 30
0.0
 40
12.000000000000012
  1
30
 50
90.000000000000028
 41
0.7695
  7
FontTableH_0
 72
               5
 11
675.05246792408411
 21
471.72142588326267
 31
0.0
100
AcDbText
  0
TEXT
  5
1FB
100
AcDbEntity
  8
0
 62
               7
100
AcDbText
 10
645.29788923082765
 20
540.72142588326267
 30
0.0
 40
12.000000000000012
  1
@385
 41
0.7695
  7
FontTableH_0
 72
               5
 11
669.29788923082765
 21
540.72142588326267
 31
0.0
100
AcDbText
  0
TEXT
  5
1FC
100
AcDbEntity
  8
0
 62
               7
100
AcDbText
 10
428.5524679240836
 20
540.72142588326267
 30
0.0
 40
12.000000000000012
  1
(割付により調整)
 41
0.7695
  7
FontTableH_0
 72
               5
 11
524.55246792408389
 21
540.72142588326267
 31
0.0
100
AcDbText
  0
TEXT
  5
1FD
100
AcDbEntity
  8
0
 62
               7
100
AcDbText
 10
330.55246792408383
 20
504.72142588326267
 30
0.0
 40
12.000000000000012
  1
20
 41
0.7695
  7
FontTableH_0
 72
               5
 11
342.55246792408383
 21
504.72142588326267
 31
0.0
100
AcDbText
  0
TEXT
  5
1FE
100
AcDbEntity
  8
0
 62
               7
100
AcDbText
 10
582.67790107655105
 20
488.01436502995864
 30
0.0
 40
12.000000000000012
  1
吊子
 41
0.7695
  7
FontTableH_0
 72
               5
 11
606.67790107655105
 21
488.01436502995864
 31
0.0
100
AcDbText
  0
TEXT
  5
1FF
100
AcDbEntity
  8
0
 62
               7
100
AcDbText
 10
249.14111679379749
 20
361.64090339494317
 30
0.0
 40
12.000000000000012
  1
ケラバ唐草
 41
0.7695
  7
FontTableH_0
 72
               5
 11
309.14111679379755
 21
361.64090339494317
 31
0.0
100
AcDbText
  0
TEXT
  5
200
100
AcDbEntity
  8
0
 62
               7
100
AcDbText
 10
366.0389304207942
 20
571.64541138052084
 30
0.0
 40
12.000000000000012
  1
ハーパーズストロングルーフ385
 41
0.7695
  7
FontTableH_0
 72
               5
 11
540.0389304207946
 21
571.64541138052084
 31
0.0
100
AcDbText
  0
TEXT
  5
201
100
AcDbEntity
  8
0
 62
               7
100
AcDbText
 10
387.01110091447759
 20
333.05779277756386
 30
0.0
 40
12.000000000000012
  1
断熱材
 41
0.7695
  7
FontTableH_0
 72
               5
 11
423.01110091447765
 21
333.05779277756386
 31
0.0
100
AcDbText
  0
TEXT
  5
202
100
AcDbEntity
  8
0
 62
               7
100
AcDbText
 10
558.8633451031917
 20
331.97312707411123
 30
0.0
 40
12.000000000000012
  1
既存折板葺
 41
0.7695
  7
FontTableH_0
 72
               5
 11
618.86334510319182
 21
331.97312707411123
 31
0.0
100
AcDbText
  0
TEXT
  5
203
100
AcDbEntity
  8
0
 62
               7
100
AcDbText
 10
542.46542024244604
 20
165.55765097130421
 30
0.0
 40
12.000000000000012
  1
既存母屋
 41
0.7695
  7
FontTableH_0
 72
               5
 11
590.46542024244604
 21
165.55765097130421
 31
0.0
100
AcDbText
  0
TEXT
  5
204
100
AcDbEntity
  8
0
 62
               7
100
AcDbText
 10
352.9492685171445
 20
110.93028950302676
 30
0.0
 40
12.000000000000012
  1
既存外壁
 41
0.7695
  7
FontTableH_0
 72
               5
 11
400.94926851714456
 21
110.93028950302777
 31
0.0
100
AcDbText
  0
TEXT
  5
205
100
AcDbEntity
  8
0
 62
               7
100
AcDbText
 10
258.08114374034091
 20
177.06491499227252
 30
0.0
 40
12.000000000000012
  1
既存破風板
 41
0.7695
  7
FontTableH_0
 72
               5
 11
318.08114374034096
 21
177.06491499227252
 31
0.0
100
AcDbText
  0
TEXT
  5
206
100
AcDbEntity
  8
0
 62
               7
100
AcDbText
 10
57.642136458195907
 20
601.35786449547766
 30
0.0
 40
8.9999997615814422
  1
ジンクロン折板
 41
0.7695
  7
FontTableH_0
 72
               5
 11
120.64213478926601
 21
601.35786449547766
 31
0.0
100
AcDbText
  0
TEXT
  5
207
100
AcDbEntity
  8
0
 62
               7
100
AcDbText
 10
740.28679787570559
 20
26.71320355480508
 30
0.0
 40
8.9999997615814422
  1
ケラバ詳細図 【S=1/3】
 41
0.7695
  7
FontTableH_0
 72
               5
 11
839.28679525310145
 21
26.71320355480508
 31
0.0
100
AcDbText
  0
ENDSEC
  0
SECTION
  2
OBJECTS
  0
DICTIONARY
  5
19
100
AcDbDictionary
  3
ACAD_GROUP
350
1A
  3
ACAD_MLINESTYLE
350
1B
  3
DWGPROPS
350
208
  0
DICTIONARY
  5
1A
102
{ACAD_REACTORS
330
19
102
}
100
AcDbDictionary
  0
DICTIONARY
  5
1B
102
{ACAD_REACTORS
330
19
102
}
100
AcDbDictionary
  3
STANDARD
350
1C
  0
MLINESTYLE
  5
1C
102
{ACAD_REACTORS
330
1B
102
}
100
AcDbMlineStyle
  2
Standard
 70
               0
  3

 62
               0
 51
90.0
 52
90.0
 71
               2
 49
0.5
 62
             256
  6
ByLayer
 49
-0.5
 62
             256
  6
ByLayer
  0
XRECORD
  5
208
100
AcDbXrecord
  1
DWGPROPS COOKIE
  2

  3

  4

  6

  7

  0
ENDSEC
  0
EOF
