  0
SECTION
  2
HEADER
  9
$ACADVER
  1
AC1014
  9
$ACADMAINTVER
 70
               0
  9
$DWGCODEPAGE
  3
ANSI_932
  9
$INSBASE
 10
0.0
 20
0.0
 30
0.0
  9
$EXTMIN
 10
0.0
 20
0.0
 30
0.0
  9
$EXTMAX
 10
891.00000000000091
 20
630.00000000000068
 30
0.0
  9
$LIMMIN
 10
0.0
 20
0.0
  9
$LIMMAX
 10
891.00000000000091
 20
630.00000000000068
  9
$ORTHOMODE
 70
               0
  9
$REGENMODE
 70
               1
  9
$FILLMODE
 70
               1
  9
$QTEXTMODE
 70
               0
  9
$MIRRTEXT
 70
               1
  9
$DRAGMODE
 70
               2
  9
$LTSCALE
 40
3.0000000000000031
  9
$OSMODE
 70
               0
  9
$ATTMODE
 70
               1
  9
$TEXTSIZE
 40
0.2
  9
$TRACEWID
 40
0.05
  9
$TEXTSTYLE
  7
Standard
  9
$CLAYER
  8
0
  9
$CELTYPE
  6
Continuous
  9
$CECOLOR
 62
             256
  9
$CELTSCALE
 40
1.0
  9
$DELOBJ
 70
               1
  9
$DISPSILH
 70
               0
  9
$DIMSCALE
 40
1.0
  9
$DIMASZ
 40
0.18
  9
$DIMEXO
 40
0.0625
  9
$DIMDLI
 40
0.38
  9
$DIMRND
 40
0.0
  9
$DIMDLE
 40
0.0
  9
$DIMEXE
 40
0.18
  9
$DIMTP
 40
0.0
  9
$DIMTM
 40
0.0
  9
$DIMTXT
 40
0.18
  9
$DIMCEN
 40
0.09
  9
$DIMTSZ
 40
0.0
  9
$DIMTOL
 70
               0
  9
$DIMLIM
 70
               0
  9
$DIMTIH
 70
               1
  9
$DIMTOH
 70
               1
  9
$DIMSE1
 70
               0
  9
$DIMSE2
 70
               0
  9
$DIMTAD
 70
               0
  9
$DIMZIN
 70
               0
  9
$DIMBLK
  1

  9
$DIMASO
 70
               1
  9
$DIMSHO
 70
               1
  9
$DIMPOST
  1

  9
$DIMAPOST
  1

  9
$DIMALT
 70
               0
  9
$DIMALTD
 70
               2
  9
$DIMALTF
 40
25.399999999999999
  9
$DIMLFAC
 40
1.0
  9
$DIMTOFL
 70
               0
  9
$DIMTVP
 40
0.0
  9
$DIMTIX
 70
               0
  9
$DIMSOXD
 70
               0
  9
$DIMSAH
 70
               0
  9
$DIMBLK1
  1

  9
$DIMBLK2
  1

  9
$DIMSTYLE
  2
Standard
  9
$DIMCLRD
 70
               0
  9
$DIMCLRE
 70
               0
  9
$DIMCLRT
 70
               0
  9
$DIMTFAC
 40
1.0
  9
$DIMGAP
 40
0.09
  9
$DIMJUST
 70
               0
  9
$DIMSD1
 70
               0
  9
$DIMSD2
 70
               0
  9
$DIMTOLJ
 70
               1
  9
$DIMTZIN
 70
               0
  9
$DIMALTZ
 70
               0
  9
$DIMALTTZ
 70
               0
  9
$DIMFIT
 70
               3
  9
$DIMUPT
 70
               0
  9
$DIMUNIT
 70
               2
  9
$DIMDEC
 70
               4
  9
$DIMTDEC
 70
               4
  9
$DIMALTU
 70
               2
  9
$DIMALTTD
 70
               2
  9
$DIMTXSTY
  7
Standard
  9
$DIMAUNIT
 70
               0
  9
$LUNITS
 70
               2
  9
$LUPREC
 70
               4
  9
$SKETCHINC
 40
0.1
  9
$FILLETRAD
 40
0.0
  9
$AUNITS
 70
               0
  9
$AUPREC
 70
               0
  9
$MENU
  1
acad
  9
$ELEVATION
 40
0.0
  9
$PELEVATION
 40
0.0
  9
$THICKNESS
 40
0.0
  9
$LIMCHECK
 70
               0
  9
$BLIPMODE
 70
               1
  9
$CHAMFERA
 40
0.0
  9
$CHAMFERB
 40
0.0
  9
$CHAMFERC
 40
0.0
  9
$CHAMFERD
 40
0.0
  9
$SKPOLY
 70
               0
  9
$TDCREATE
 40
0.000000000
  9
$TDUPDATE
 40
0.000000000
  9
$TDINDWG
 40
0.0000000000
  9
$TDUSRTIMER
 40
0.0000000000
  9
$USRTIMER
 70
               1
  9
$ANGBASE
 50
0.0
  9
$ANGDIR
 70
               0
  9
$PDMODE
 70
               0
  9
$PDSIZE
 40
0.0
  9
$PLINEWID
 40
0.0
  9
$COORDS
 70
               0
  9
$SPLFRAME
 70
               0
  9
$SPLINETYPE
 70
               6
  9
$SPLINESEGS
 70
               8
  9
$ATTDIA
 70
               0
  9
$ATTREQ
 70
               1
  9
$HANDLING
 70
               1
  9
$HANDSEED
  5
1D8
  9
$SURFTAB1
 70
               6
  9
$SURFTAB2
 70
               6
  9
$SURFTYPE
 70
               6
  9
$SURFU
 70
               6
  9
$SURFV
 70
               6
  9
$UCSNAME
  2

  9
$UCSORG
 10
0.0
 20
0.0
 30
0.0
  9
$UCSXDIR
 10
1.0
 20
0.0
 30
0.0
  9
$UCSYDIR
 10
0.0
 20
1.0
 30
0.0
  9
$PUCSNAME
  2

  9
$PUCSORG
 10
0.0
 20
0.0
 30
0.0
  9
$PUCSXDIR
 10
1.0
 20
0.0
 30
0.0
  9
$PUCSYDIR
 10
0.0
 20
1.0
 30
0.0
  9
$USERI1
 70
               0
  9
$USERI2
 70
               0
  9
$USERI3
 70
               0
  9
$USERI4
 70
               0
  9
$USERI5
 70
               0
  9
$USERR1
 40
0.0
  9
$USERR2
 40
0.0
  9
$USERR3
 40
0.0
  9
$USERR4
 40
0.0
  9
$USERR5
 40
0.0
  9
$WORLDVIEW
 70
               1
  9
$SHADEDGE
 70
               3
  9
$SHADEDIF
 70
              70
  9
$TILEMODE
 70
               1
  9
$MAXACTVP
 70
              16
  9
$PINSBASE
 10
0.0
 20
0.0
 30
0.0
  9
$PLIMCHECK
 70
               0
  9
$PEXTMIN
 10
1.0000000000000000E+20
 20
1.0000000000000000E+20
 30
1.0000000000000000E+20
  9
$PEXTMAX
 10
-1.0000000000000000E+20
 20
-1.0000000000000000E+20
 30
-1.0000000000000000E+20
  9
$PLIMMIN
 10
0.0
 20
0.0
  9
$PLIMMAX
 10
12.0
 20
9.0
  9
$UNITMODE
 70
               0
  9
$VISRETAIN
 70
               0
  9
$PLINEGEN
 70
               1
  9
$PSLTSCALE
 70
               0
  9
$TREEDEPTH
 70
            3020
  9
$PICKSTYLE
 70
               1
  9
$CMLSTYLE
  2
Standard
  9
$CMLJUST
 70
               0
  9
$CMLSCALE
 40
1.0
  9
$PROXYGRAPHICS
 70
               0
  9
$MEASUREMENT
 70
               0
  0
ENDSEC
  0
SECTION
  2
CLASSES
  0
CLASS
  1
LWPOLYLINE
  2
AcDbPolyline
  3
"AutoCAD"
 90
        0
280
               0
281
               1
  0
CLASS
  1
IMAGE
  2
AcDbRasterImage
  3
ISM
 90
      127
280
               0
281
               1
  0
CLASS
  1
OLE2FRAME
  2
AcDbOle2Frame
  3
""
 90
        0
280
               0
281
               1
  0
CLASS
  1
HATCH
  2
AcDbHatch
  3
"ACAD_SEDONA"
 90
        0
280
               0
281
               1
  0
CLASS
  1
DICTIONARYVAR
  2
AcDbDictionaryVar
  3
"AutoCAD"
 90
        0
280
               0
281
               0
  0
CLASS
  1
RASTERVARIABLES
  2
AcDbRasterVariables
  3
ISM
 90
        0
280
               0
281
               0
  0
CLASS
  1
IMAGEDEF
  2
AcDbRasterImageDef
  3
ISM
 90
        0
280
               0
281
               0
  0
CLASS
  1
IMAGEDEF_REACTOR
  2
AcDbRasterImageDefReactor
  3
ISM
 90
        1
280
               0
281
               0
  0
CLASS
  1
IDBUFFER
  2
AcDbIdBuffer
  3
"Acad"
 90
        0
280
               0
281
               0
  0
CLASS
  1
SPATIAL_FILTER
  2
AcDbSpatialFilter
  3
"Acad"
 90
        0
280
               0
281
               0
  0
CLASS
  1
XRECORD
  2
AcDbXrecord
  3
"<Built In>"
 90
        0
280
               0
281
               0
  0
CLASS
  1
SORTENTSTABLE
  2
AcDbSortentsTable
  3
"AutoCAD"
 90
        0
280
               0
281
               0
  0
CLASS
  1
LAYER_INDEX
  2
AcDbLayerIndex
  3
"Acad"
 90
        0
280
               0
281
               0
  0
CLASS
  1
SPATIAL_INDEX
  2
AcDbSpatialIndex
  3
"Acad"
 90
        0
280
               0
281
               0
  0
CLASS
  1
OBJECT_PTR
  2
CAseDLPNTableRecord
  3
"ASE-LPNTableRecord"
 90
        1
280
               0
281
               0
  0
CLASS
  1
LAYOUT
  2
AcDbLayout
  3
"AutoCAD 2000"
 90
        0
280
               0
281
               0
  0
CLASS
  1
PLOTSETTINGS
  2
AcDbPlotSettings
  3
"AutoCAD 2000"
 90
        0
280
               0
281
               0
  0
CLASS
  1
ACDBDICTIONARYWDFLT
  2
AcDbDictionaryWithDefault
  3
"AutoCAD 2000"
 90
        0
280
               0
281
               0
  0
CLASS
  1
ACDBPLACEHOLDER
  2
AcDbPlaceHolder
  3
"AutoCAD 2000"
 90
        0
280
               0
281
               0
  0
CLASS
  1
VBA_PROJECT
  2
AcDbVbaProject
  3
"acadvba"
 90
        0
280
               0
281
               0
  0
CLASS
  1
WIPEOUT
  2
AcDbWipeout
  3
WipeOut|AutoCAD Express Tool|expresstools@autodesk.com
 90
      127
280
               0
281
               1
  0
CLASS
  1
WIPEOUTVARIABLES
  2
AcDbWipeoutVariables
  3
WipeOut|AutoCAD Express Tool|expresstools@autodesk.com
 90
        0
280
               0
281
               0
  0
CLASS
  1
RTEXT
  2
RText
  3
RText|AutoCAD Express Tool|expresstools@autodesk.com
 90
        0
280
               0
281
               1
  0
CLASS
  1
ARCALIGNEDTEXT
  2
AcDbArcAlignedText
  3
ATEXT|AutoCAD Express Tool|expresstools@autodesk.com
 90
        0
280
               0
281
               1
  0
ENDSEC
  0
SECTION
  2
TABLES
  0
TABLE
  2
VPORT
  5
7
100
AcDbSymbolTable
 70
               1
  0
VPORT
  5
15
100
AcDbSymbolTableRecord
100
AcDbViewportTableRecord
  2
*ACTIVE
 70
               0
 10
0.0
 20
0.0
 11
1.0
 21
1.0
 12
445.50000000000045
 22
315.00000000000034
 13
0.0
 23
0.0
 14
10.0
 24
10.0
 15
10.0
 25
10.0
 16
0.0
 26
0.0
 36
1.0
 17
0.0
 27
0.0
 37
0.0
 40
630.00000000000068
 41
1.4142857142857141
 42
50.0
 43
0.0
 44
0.0
 50
0.0
 51
0.0
 71
               0
 72
             100
 73
               1
 74
               1
 75
               0
 76
               0
 77
               0
 78
               0
  0
ENDTAB
  0
TABLE
  2
LTYPE
  5
4
100
AcDbSymbolTable
 70
              24
  0
LTYPE
  5
11
100
AcDbSymbolTableRecord
100
AcDbLinetypeTableRecord
  2
ByBlock
 70
              64
  3

 72
              65
 73
               0
 40
0.0
  0
LTYPE
  5
12
100
AcDbSymbolTableRecord
100
AcDbLinetypeTableRecord
  2
ByLayer
 70
              64
  3

 72
              65
 73
               0
 40
0.0
  0
LTYPE
  5
13
100
AcDbSymbolTableRecord
100
AcDbLinetypeTableRecord
  2
Continuous
 70
              64
  3
Solid line
 72
              65
 73
               0
 40
0.0
  0
LTYPE
  5
1D
100
AcDbSymbolTableRecord
100
AcDbLinetypeTableRecord
  2
DOT
 70
              64
  3
Dot . . . . . . . . . . . . . . . . . . . . . .
 72
              65
 73
               2
 40
6.3499999999999996
 49
0.35
 74
               0
 49
-6.0
 74
               0
  0
LTYPE
  5
1E
100
AcDbSymbolTableRecord
100
AcDbLinetypeTableRecord
  2
DASHED
 70
              64
  3
Dashed __ __ __ __ __ __ __ __ __ __ __ __ __ _
 72
              65
 73
               2
 40
12.699999999999999
 49
6.3499999999999996
 74
               0
 49
-6.3499999999999996
 74
               0
  0
LTYPE
  5
1F
100
AcDbSymbolTableRecord
100
AcDbLinetypeTableRecord
  2
DASHDOT
 70
              64
  3
Dash dot __ . __ . __ . __ . __ . __ . __ . __
 72
              65
 73
               4
 40
25.399999999999999
 49
12.699999999999999
 74
               0
 49
-6.0
 74
               0
 49
0.7
 74
               0
 49
-6.0
 74
               0
  0
LTYPE
  5
20
100
AcDbSymbolTableRecord
100
AcDbLinetypeTableRecord
  2
DIVIDE
 70
              64
  3
Divide ____ . . ____ . . ____ . . ____ . . ____
 72
              65
 73
               6
 40
31.75
 49
12.699999999999999
 74
               0
 49
-6.0
 74
               0
 49
0.875
 74
               0
 49
-6.0
 74
               0
 49
0.875
 74
               0
 49
-6.0
 74
               0
  0
LTYPE
  5
21
100
AcDbSymbolTableRecord
100
AcDbLinetypeTableRecord
  2
HIDDEN
 70
              64
  3
Hidden __ __ __ __ __ __ __ __ __ __ __ __ __ _
 72
              65
 73
               2
 40
9.5250000000000004
 49
6.3499999999999996
 74
               0
 49
-3.1749999999999998
 74
               0
  0
LTYPE
  5
22
100
AcDbSymbolTableRecord
100
AcDbLinetypeTableRecord
  2
CENTER
 70
              64
  3
Center ____ _ ____ _ ____ _ ____ _ ____ _ ____
 72
              65
 73
               4
 40
50.799999999999997
 49
31.75
 74
               0
 49
-6.3499999999999996
 74
               0
 49
6.3499999999999996
 74
               0
 49
-6.3499999999999996
 74
               0
  0
LTYPE
  5
23
100
AcDbSymbolTableRecord
100
AcDbLinetypeTableRecord
  2
PHANTOM
 70
              64
  3
Phantom ______  __  __  ______  __  __  ______
 72
              65
 73
               6
 40
63.5
 49
31.75
 74
               0
 49
-6.3499999999999996
 74
               0
 49
6.3499999999999996
 74
               0
 49
-6.3499999999999996
 74
               0
 49
6.3499999999999996
 74
               0
 49
-6.3499999999999996
 74
               0
  0
LTYPE
  5
24
100
AcDbSymbolTableRecord
100
AcDbLinetypeTableRecord
  2
ACAD_ISO02W100
 70
              64
  3
ISO dash __ __ __ __ __ __ __ __ __ __ __ __ __
 72
              65
 73
               2
 40
15.0
 49
12.0
 74
               0
 49
-3.0
 74
               0
  0
LTYPE
  5
25
100
AcDbSymbolTableRecord
100
AcDbLinetypeTableRecord
  2
ACAD_ISO03W100
 70
              64
  3
ISO dash space __ __ __ __ __ __ __ __ __ __ __ __ __ __
 72
              65
 73
               2
 40
30.0
 49
12.0
 74
               0
 49
-18.0
 74
               0
  0
LTYPE
  5
26
100
AcDbSymbolTableRecord
100
AcDbLinetypeTableRecord
  2
ACAD_ISO04W100
 70
              64
  3
ISO long-dash dot ____ . ____ . ____ . ____ . _
 72
              65
 73
               4
 40
30.0
 49
24.0
 74
               0
 49
-3.0
 74
               0
 49
0.0
 74
               0
 49
-3.0
 74
               0
  0
LTYPE
  5
27
100
AcDbSymbolTableRecord
100
AcDbLinetypeTableRecord
  2
ACAD_ISO05W100
 70
              64
  3
ISO long-dash double-dot ____ .. ____ .. ____ .
 72
              65
 73
               6
 40
33.0
 49
24.0
 74
               0
 49
-3.0
 74
               0
 49
0.0
 74
               0
 49
-3.0
 74
               0
 49
0.0
 74
               0
 49
-3.0
 74
               0
  0
LTYPE
  5
28
100
AcDbSymbolTableRecord
100
AcDbLinetypeTableRecord
  2
ACAD_ISO06W100
 70
              64
  3
ISO long-dash triple-dot ____ ... ____ ... ____
 72
              65
 73
               8
 40
36.0
 49
24.0
 74
               0
 49
-3.0
 74
               0
 49
0.0
 74
               0
 49
-3.0
 74
               0
 49
0.0
 74
               0
 49
-3.0
 74
               0
 49
0.0
 74
               0
 49
-3.0
 74
               0
  0
LTYPE
  5
29
100
AcDbSymbolTableRecord
100
AcDbLinetypeTableRecord
  2
ACAD_ISO07W100
 70
              64
  3
ISO dot . . . . . . . . . . . . . . . . . . . .
 72
              65
 73
               2
 40
3.0
 49
0.0
 74
               0
 49
-3.0
 74
               0
  0
LTYPE
  5
2A
100
AcDbSymbolTableRecord
100
AcDbLinetypeTableRecord
  2
ACAD_ISO08W100
 70
              64
  3
ISO long-dash short-dash ____ __ ____ __ ____ _
 72
              65
 73
               4
 40
36.0
 49
24.0
 74
               0
 49
-3.0
 74
               0
 49
6.0
 74
               0
 49
-3.0
 74
               0
  0
LTYPE
  5
2B
100
AcDbSymbolTableRecord
100
AcDbLinetypeTableRecord
  2
ACAD_ISO09W100
 70
              64
  3
ISO long-dash double-short-dash ____ __ __ ____
 72
              65
 73
               6
 40
45.0
 49
24.0
 74
               0
 49
-3.0
 74
               0
 49
6.0
 74
               0
 49
-3.0
 74
               0
 49
6.0
 74
               0
 49
-3.0
 74
               0
  0
LTYPE
  5
2C
100
AcDbSymbolTableRecord
100
AcDbLinetypeTableRecord
  2
ACAD_ISO10W100
 70
              64
  3
ISO dash dot __ . __ . __ . __ . __ . __ . __ .
 72
              65
 73
               4
 40
18.0
 49
12.0
 74
               0
 49
-3.0
 74
               0
 49
0.0
 74
               0
 49
-3.0
 74
               0
  0
LTYPE
  5
2D
100
AcDbSymbolTableRecord
100
AcDbLinetypeTableRecord
  2
ACAD_ISO11W100
 70
              64
  3
ISO double-dash dot __ __ . __ __ . __ __ . __ 
 72
              65
 73
               6
 40
33.0
 49
12.0
 74
               0
 49
-3.0
 74
               0
 49
12.0
 74
               0
 49
-3.0
 74
               0
 49
0.0
 74
               0
 49
-3.0
 74
               0
  0
LTYPE
  5
2E
100
AcDbSymbolTableRecord
100
AcDbLinetypeTableRecord
  2
ACAD_ISO12W100
 70
              64
  3
ISO dash double-dot __ . . __ . . __ . . __ . .
 72
              65
 73
               6
 40
21.0
 49
12.0
 74
               0
 49
-3.0
 74
               0
 49
0.0
 74
               0
 49
-3.0
 74
               0
 49
0.0
 74
               0
 49
-3.0
 74
               0
  0
LTYPE
  5
2F
100
AcDbSymbolTableRecord
100
AcDbLinetypeTableRecord
  2
ACAD_ISO13W100
 70
              64
  3
ISO double-dash double-dot __ __ . . __ __ . . 
 72
              65
 73
               8
 40
36.0
 49
12.0
 74
               0
 49
-3.0
 74
               0
 49
12.0
 74
               0
 49
-3.0
 74
               0
 49
0.0
 74
               0
 49
-3.0
 74
               0
 49
0.0
 74
               0
 49
-3.0
 74
               0
  0
LTYPE
  5
30
100
AcDbSymbolTableRecord
100
AcDbLinetypeTableRecord
  2
ACAD_ISO14W100
 70
              64
  3
ISO dash triple-dot __ . . . __ . . . __ . . . 
 72
              65
 73
               8
 40
24.0
 49
12.0
 74
               0
 49
-3.0
 74
               0
 49
0.0
 74
               0
 49
-3.0
 74
               0
 49
0.0
 74
               0
 49
-3.0
 74
               0
 49
0.0
 74
               0
 49
-3.0
 74
               0
  0
LTYPE
  5
31
100
AcDbSymbolTableRecord
100
AcDbLinetypeTableRecord
  2
ACAD_ISO15W100
 70
              64
  3
ISO double-dash double-dot __ __ . . __ __ . . 
 72
              65
 73
              10
 40
39.0
 49
12.0
 74
               0
 49
-3.0
 74
               0
 49
12.0
 74
               0
 49
-3.0
 74
               0
 49
0.0
 74
               0
 49
-3.0
 74
               0
 49
0.0
 74
               0
 49
-3.0
 74
               0
 49
0.0
 74
               0
 49
-3.0
 74
               0
  0
ENDTAB
  0
TABLE
  2
LAYER
  5
2
100
AcDbSymbolTable
 70
              16
  0
LAYER
  5
14
100
AcDbSymbolTableRecord
100
AcDbLayerTableRecord
  2
0
 70
               0
 62
               7
  6
Continuous
  0
LAYER
  5
35
100
AcDbSymbolTableRecord
100
AcDbLayerTableRecord
  2
Layer00001
 70
               0
 62
               7
  6
Continuous
  0
LAYER
  5
36
100
AcDbSymbolTableRecord
100
AcDbLayerTableRecord
  2
Layer00002
 70
               0
 62
               7
  6
Continuous
  0
LAYER
  5
37
100
AcDbSymbolTableRecord
100
AcDbLayerTableRecord
  2
Layer00003
 70
               0
 62
               7
  6
Continuous
  0
LAYER
  5
38
100
AcDbSymbolTableRecord
100
AcDbLayerTableRecord
  2
Layer00004
 70
               0
 62
               7
  6
Continuous
  0
LAYER
  5
39
100
AcDbSymbolTableRecord
100
AcDbLayerTableRecord
  2
Layer00005
 70
               0
 62
               7
  6
Continuous
  0
LAYER
  5
3A
100
AcDbSymbolTableRecord
100
AcDbLayerTableRecord
  2
Layer00006
 70
               0
 62
               7
  6
Continuous
  0
LAYER
  5
3B
100
AcDbSymbolTableRecord
100
AcDbLayerTableRecord
  2
Layer00007
 70
               0
 62
               7
  6
Continuous
  0
LAYER
  5
3C
100
AcDbSymbolTableRecord
100
AcDbLayerTableRecord
  2
Layer00008
 70
               0
 62
               7
  6
Continuous
  0
LAYER
  5
3D
100
AcDbSymbolTableRecord
100
AcDbLayerTableRecord
  2
Layer00009
 70
               0
 62
               7
  6
Continuous
  0
LAYER
  5
3E
100
AcDbSymbolTableRecord
100
AcDbLayerTableRecord
  2
Layer00010
 70
               0
 62
               7
  6
Continuous
  0
LAYER
  5
3F
100
AcDbSymbolTableRecord
100
AcDbLayerTableRecord
  2
Layer00011
 70
               0
 62
               7
  6
Continuous
  0
LAYER
  5
40
100
AcDbSymbolTableRecord
100
AcDbLayerTableRecord
  2
Layer00012
 70
               0
 62
               7
  6
Continuous
  0
LAYER
  5
41
100
AcDbSymbolTableRecord
100
AcDbLayerTableRecord
  2
Layer00013
 70
               0
 62
               7
  6
Continuous
  0
LAYER
  5
42
100
AcDbSymbolTableRecord
100
AcDbLayerTableRecord
  2
Layer00014
 70
               0
 62
               7
  6
Continuous
  0
LAYER
  5
43
100
AcDbSymbolTableRecord
100
AcDbLayerTableRecord
  2
Layer00015
 70
               0
 62
               7
  6
Continuous
  0
ENDTAB
  0
TABLE
  2
STYLE
  5
3
100
AcDbSymbolTable
 70
               4
  0
STYLE
  5
17
100
AcDbSymbolTableRecord
100
AcDbTextStyleTableRecord
  2
Standard
 70
               0
 40
0.0
 41
1.0
 50
0.0
 71
               0
 42
0.0
  3
txt.shx
  4
bigfont.shx
  0
STYLE
  5
32
100
AcDbSymbolTableRecord
100
AcDbTextStyleTableRecord
  2
STANDARD_T
 70
               4
 40
0.0
 41
1.0
 50
0.0
 71
               0
 42
0.0
  3
txt.shx
  4
bigfont.shx
  0
STYLE
  5
33
100
AcDbSymbolTableRecord
100
AcDbTextStyleTableRecord
  2
FontTableH_0
 70
               0
 40
0.0
 41
1.0
 50
0.0
 71
               0
 42
0.0
  3
MS Gothic.ttf
  4

1001
ACAD
1000
MS Gothic
1071
    32817
  0
STYLE
  5
34
100
AcDbSymbolTableRecord
100
AcDbTextStyleTableRecord
  2
FontTableV_0
 70
               0
 40
0.0
 41
1.0
 50
0.0
 71
               0
 42
0.0
  3
@MS Gothic.ttf
  4

1001
ACAD
1000
@MS Gothic
1071
    32817
  0
ENDTAB
  0
TABLE
  2
VIEW
  5
5
100
AcDbSymbolTable
 70
               0
  0
ENDTAB
  0
TABLE
  2
UCS
  5
6
100
AcDbSymbolTable
 70
               0
  0
ENDTAB
  0
TABLE
  2
APPID
  5
8
100
AcDbSymbolTable
 70
               1
  0
APPID
  5
16
100
AcDbSymbolTableRecord
100
AcDbRegAppTableRecord
  2
ACAD
 70
               0
  0
ENDTAB
  0
TABLE
  2
DIMSTYLE
  5
9
100
AcDbSymbolTable
 70
               1
  0
DIMSTYLE
105
18
100
AcDbSymbolTableRecord
100
AcDbDimStyleTableRecord
  2
Standard
 70
               0
  3

  4

  5

  6

  7

 40
1.0
 41
0.18
 42
0.0625
 43
0.38
 44
0.18
 45
0.0
 46
0.0
 47
0.0
 48
0.0
 71
               0
 72
               0
 73
               1
 74
               1
 75
               0
 76
               0
 77
               0
 78
               0
140
0.18
141
0.09
142
0.0
143
25.399999999999999
144
1.0
145
0.0
146
1.0
147
0.09
170
               0
171
               2
172
               0
173
               0
174
               0
175
               0
176
               0
177
               0
178
               0
270
               2
271
               4
272
               4
273
               2
274
               2
275
               0
280
               0
281
               0
282
               0
283
               1
284
               0
285
               0
286
               0
287
               0
288
               0
340
17
  0
ENDTAB
  0
TABLE
  2
BLOCK_RECORD
  5
1
100
AcDbSymbolTable
 70
               0
  0
BLOCK_RECORD
  5
A
100
AcDbSymbolTableRecord
100
AcDbBlockTableRecord
  2
*MODEL_SPACE
  0
BLOCK_RECORD
  5
B
100
AcDbSymbolTableRecord
100
AcDbBlockTableRecord
  2
*PAPER_SPACE
  0
ENDTAB
  0
ENDSEC
  0
SECTION
  2
BLOCKS
  0
BLOCK
  5
D
100
AcDbEntity
  8
0
100
AcDbBlockBegin
  2
*MODEL_SPACE
 70
               0
 10
0.0
 20
0.0
 30
0.0
  3
*MODEL_SPACE
  1

  0
ENDBLK
  5
E
100
AcDbEntity
  8
0
100
AcDbBlockEnd
  0
BLOCK
  5
F
100
AcDbEntity
 67
               1
  8
0
100
AcDbBlockBegin
  2
*PAPER_SPACE
 70
               0
 10
0.0
 20
0.0
 30
0.0
  3
*PAPER_SPACE
  1

  0
ENDBLK
  5
10
100
AcDbEntity
 67
               1
  8
0
100
AcDbBlockEnd
  0
ENDSEC
  0
SECTION
  2
ENTITIES
  0
LINE
  5
44
100
AcDbEntity
  8
0
  6
Continuous
 62
               4
100
AcDbLine
 10
341.52912047870984
 20
386.80947432216533
 30
0.0
 11
334.63277103209202
 21
409.7973051095654
 31
0.0
  0
LINE
  5
45
100
AcDbEntity
  8
0
  6
Continuous
 62
               4
100
AcDbLine
 10
370.31179090459415
 20
360.46925244437637
 30
0.0
 11
353.78928801949388
 21
415.5442603811174
 31
0.0
  0
LINE
  5
46
100
AcDbEntity
  8
0
  6
Continuous
 62
               4
100
AcDbLine
 10
335.49481471291921
 20
406.92382626114045
 30
0.0
 11
354.65133170032112
 21
412.67078153269244
 31
0.0
  0
LINE
  5
47
100
AcDbEntity
  8
0
  6
Continuous
 62
               4
100
AcDbLine
 10
341.52912050283811
 20
386.80947424173803
 30
0.0
 11
326.87437790464713
 21
435.65861474539008
 31
0.0
  0
LINE
  5
48
100
AcDbEntity
  8
0
  6
Continuous
 62
               4
100
AcDbLine
 10
403.27059307494807
 20
355.00964261504993
 30
0.0
 11
374.76568297809308
 21
450.02600670575259
 31
0.0
  0
LINE
  5
49
100
AcDbEntity
  8
0
  6
Continuous
 62
               4
100
AcDbLine
 10
327.73642158547437
 20
432.78513589696513
 30
0.0
 11
375.62772665892027
 21
447.15252785732764
 31
0.0
  0
LINE
  5
4A
100
AcDbEntity
  8
0
  6
Continuous
 62
               4
100
AcDbLine
 10
494.39818574709778
 20
399.26121687346415
 30
0.0
 11
470.54831126129977
 21
478.7607960673721
 31
0.0
  0
LINE
  5
4B
100
AcDbEntity
  8
0
  6
Continuous
 62
               4
100
AcDbLine
 10
375.62772665892027
 20
447.15252785732764
 30
0.0
 11
471.41035494212696
 21
475.88731721894703
 31
0.0
  0
LINE
  5
4C
100
AcDbEntity
  8
0
  6
Continuous
 62
               4
100
AcDbLine
 10
670.41005704223812
 20
447.88865550064338
 30
0.0
 11
661.78962045792991
 21
476.62344323834679
 31
0.0
  0
LINE
  5
4D
100
AcDbEntity
  8
0
  6
Continuous
 62
               4
100
AcDbLine
 10
671.55944861667422
 20
444.05735036941098
 30
0.0
 11
675.00762333998341
 21
432.56343497571027
 31
0.0
  0
LINE
  5
4E
100
AcDbEntity
  8
0
  6
Continuous
 62
               4
100
AcDbLine
 10
675.29497123359238
 20
431.60560869290202
 30
0.0
 11
683.91540804186479
 21
402.87082020865205
 31
0.0
  0
LINE
  5
4F
100
AcDbEntity
  8
0
  6
Continuous
 62
               4
100
AcDbLine
 10
372.03587826624863
 20
329.7222947475264
 30
0.0
 11
343.5461568053845
 21
280.37664968382438
 31
0.0
  0
LINE
  5
50
100
AcDbEntity
  8
0
  6
Continuous
 62
               4
100
AcDbLine
 10
343.5461568053845
 20
280.37664968382438
 30
0.0
 11
294.51539381838973
 21
280.37664968382848
 31
0.0
  0
LINE
  5
51
100
AcDbEntity
  8
0
  6
Continuous
 62
               4
100
AcDbLine
 10
372.03587826624863
 20
329.7222947475264
 30
0.0
 11
368.95769697631755
 21
321.26506116045323
 31
0.0
  0
LINE
  5
52
100
AcDbEntity
  8
0
  6
Continuous
 62
               4
100
AcDbLine
 10
372.03587826624863
 20
329.7222947475264
 30
0.0
 11
366.25078977906975
 21
322.82789475945555
 31
0.0
  0
LINE
  5
53
100
AcDbEntity
  8
0
  6
Continuous
 62
               4
100
AcDbLine
 10
334.99422000728759
 20
189.00652709721868
 30
0.0
 11
317.40899726097433
 21
219.46502635624927
 31
0.0
  0
LINE
  5
54
100
AcDbEntity
  8
0
  6
Continuous
 62
               4
100
AcDbLine
 10
317.40899726097433
 20
219.46502635624927
 30
0.0
 11
291.39337134140499
 21
219.46502635624927
 31
0.0
  0
LINE
  5
55
100
AcDbEntity
  8
0
  6
Continuous
 62
               4
100
AcDbLine
 10
334.99422000728759
 20
189.00652709721868
 30
0.0
 11
329.20913152010871
 21
195.90092708528948
 31
0.0
  0
LINE
  5
56
100
AcDbEntity
  8
0
  6
Continuous
 62
               4
100
AcDbLine
 10
334.99422000728759
 20
189.00652709721868
 30
0.0
 11
331.91603871735657
 21
197.46376068429191
 31
0.0
  0
LINE
  5
57
100
AcDbEntity
  8
0
  6
Continuous
 62
               4
100
AcDbLine
 10
366.03587826624863
 20
354.7222947475264
 30
0.0
 11
324.03587826624852
 21
354.7222947475264
 31
0.0
  0
LINE
  5
58
100
AcDbEntity
  8
0
  6
Continuous
 62
               4
100
AcDbLine
 10
366.03587826624863
 20
304.72229474752646
 30
0.0
 11
324.03587826624852
 21
304.72229474752646
 31
0.0
  0
LINE
  5
59
100
AcDbEntity
  8
0
  6
Continuous
 62
               4
100
AcDbLine
 10
327.03587826624857
 20
354.7222947475264
 30
0.0
 11
327.03587826624857
 21
304.72229474752646
 31
0.0
  0
LINE
  5
5A
100
AcDbEntity
  8
0
  6
Continuous
 62
               4
100
AcDbLine
 10
443.07800035226916
 20
110.65115073484714
 30
0.0
 11
423.52299280448977
 21
144.52141734999401
 31
0.0
  0
LINE
  5
5B
100
AcDbEntity
  8
0
  6
Continuous
 62
               4
100
AcDbLine
 10
423.52299280448977
 20
144.52141734999401
 30
0.0
 11
372.85615994142802
 21
144.52141734999401
 31
0.0
  0
LINE
  5
5C
100
AcDbEntity
  8
0
  6
Continuous
 62
               4
100
AcDbLine
 10
443.07800035226916
 20
110.65115073484714
 30
0.0
 11
437.29291186509033
 21
117.54555072291799
 31
0.0
  0
LINE
  5
5D
100
AcDbEntity
  8
0
  6
Continuous
 62
               4
100
AcDbLine
 10
443.07800035226916
 20
110.65115073484714
 30
0.0
 11
439.99981906233813
 21
119.10838432192037
 31
0.0
  0
LINE
  5
5E
100
AcDbEntity
  8
0
  6
Continuous
 62
               4
100
AcDbLine
 10
584.12604966639969
 20
251.30444202500308
 30
0.0
 11
607.3915914579004
 21
211.0073415765072
 31
0.0
  0
LINE
  5
5F
100
AcDbEntity
  8
0
  6
Continuous
 62
               4
100
AcDbLine
 10
607.3915914579004
 20
211.0073415765072
 30
0.0
 11
658.45131375579695
 21
211.0073415765072
 31
0.0
  0
LINE
  5
60
100
AcDbEntity
  8
0
  6
Continuous
 62
               4
100
AcDbLine
 10
584.12604966639969
 20
251.30444202500308
 30
0.0
 11
589.91113815357858
 21
244.41004203693234
 31
0.0
  0
LINE
  5
61
100
AcDbEntity
  8
0
  6
Continuous
 62
               4
100
AcDbLine
 10
584.12604966639969
 20
251.30444202500308
 30
0.0
 11
587.20423095633078
 21
242.84720843792996
 31
0.0
  0
LINE
  5
62
100
AcDbEntity
  8
0
  6
Continuous
 62
               4
100
AcDbLine
 10
604.99812703932776
 20
392.59698340632019
 30
0.0
 11
625.88267618414602
 21
314.6547849046886
 31
0.0
  0
LINE
  5
63
100
AcDbEntity
  8
0
  6
Continuous
 62
               4
100
AcDbLine
 10
604.99812703932776
 20
392.59698340632019
 30
0.0
 11
608.8016913949939
 21
384.44021332299042
 31
0.0
  0
LINE
  5
64
100
AcDbEntity
  8
0
  6
Continuous
 62
               4
100
AcDbLine
 10
604.99812703932776
 20
392.59698340632019
 30
0.0
 11
605.78252872405665
 21
383.63123112349444
 31
0.0
  0
LINE
  5
65
100
AcDbEntity
  8
0
  6
Continuous
 62
               4
100
AcDbLine
 10
571.9462497885097
 20
406.81257093010402
 30
0.0
 11
547.64273105982534
 21
497.5145376282552
 31
0.0
  0
LINE
  5
66
100
AcDbEntity
  8
0
  6
Continuous
 62
               4
100
AcDbLine
 10
547.64273105982534
 20
497.5145376282552
 30
0.0
 11
510.19611517505137
 21
497.5145376282552
 31
0.0
  0
LINE
  5
67
100
AcDbEntity
  8
0
  6
Continuous
 62
               4
100
AcDbLine
 10
571.9462497885097
 20
406.81257093010402
 30
0.0
 11
568.14268543284334
 21
414.96934101343379
 31
0.0
  0
LINE
  5
68
100
AcDbEntity
  8
0
  6
Continuous
 62
               4
100
AcDbLine
 10
571.9462497885097
 20
406.81257093010402
 30
0.0
 11
571.16184810378059
 21
415.77832321292976
 31
0.0
  0
LINE
  5
69
100
AcDbEntity
  8
0
  6
Continuous
 62
               4
100
AcDbLine
 10
614.51185260635839
 20
448.61652319912321
 30
0.0
 11
592.26795410891873
 21
531.6318825499734
 31
0.0
  0
LINE
  5
6A
100
AcDbEntity
  8
0
  6
Continuous
 62
               4
100
AcDbLine
 10
592.26795410891873
 20
531.6318825499734
 30
0.0
 11
416.16068053010872
 21
531.6318825499734
 31
0.0
  0
LINE
  5
6B
100
AcDbEntity
  8
0
  6
Continuous
 62
               4
100
AcDbLine
 10
614.51185260635839
 20
448.61652319912321
 30
0.0
 11
610.70828825069202
 21
456.7732932824531
 31
0.0
  0
LINE
  5
6C
100
AcDbEntity
  8
0
  6
Continuous
 62
               4
100
AcDbLine
 10
614.51185260635839
 20
448.61652319912321
 30
0.0
 11
613.7274509216295
 21
457.58227548194895
 31
0.0
  0
LINE
  5
6D
100
AcDbEntity
  8
0
  6
Continuous
 62
               6
100
AcDbLine
 10
532.02029975036896
 20
337.98772083751743
 30
0.0
 11
559.60569676473801
 21
246.03639745628686
 31
0.0
  0
LINE
  5
6E
100
AcDbEntity
  8
0
  6
Continuous
 62
               6
100
AcDbLine
 10
577.42126566985166
 20
353.69607191514416
 30
0.0
 11
533.3612565496785
 21
340.4780691790923
 31
0.0
  0
LINE
  5
6F
100
AcDbEntity
  8
0
  6
Continuous
 62
               6
100
AcDbLine
 10
606.15605422648605
 20
257.91344339302907
 30
0.0
 11
562.09604510631311
 21
244.69544065697721
 31
0.0
  0
LINE
  5
70
100
AcDbEntity
  8
0
  6
Continuous
 62
               6
100
AcDbLine
 10
579.91161401142654
 20
352.35511511583451
 30
0.0
 11
585.08387595162071
 21
335.11424198185392
 31
0.0
  0
LINE
  5
71
100
AcDbEntity
  8
0
  6
Continuous
 62
               6
100
AcDbLine
 10
582.88087549561214
 20
334.45334184505128
 30
0.0
 11
577.794817921088
 21
351.40686709346556
 31
0.0
  0
LINE
  5
72
100
AcDbEntity
  8
0
  6
Continuous
 62
               6
100
AcDbLine
 10
577.794817921088
 20
351.40686709346556
 30
0.0
 11
534.30950457204744
 21
338.36127308875353
 31
0.0
  0
LINE
  5
73
100
AcDbEntity
  8
0
  6
Continuous
 62
               6
100
AcDbLine
 10
534.30950457204744
 20
338.36127308875353
 30
0.0
 11
561.72249285507678
 21
246.98464547865581
 31
0.0
  0
LINE
  5
74
100
AcDbEntity
  8
0
  6
Continuous
 62
               6
100
AcDbLine
 10
561.72249285507678
 20
246.98464547865581
 30
0.0
 11
605.20780620411733
 21
260.03023948336784
 31
0.0
  0
LINE
  5
75
100
AcDbEntity
  8
0
  6
Continuous
 62
               6
100
AcDbLine
 10
605.20780620411733
 20
260.03023948336784
 30
0.0
 11
600.12174862959296
 21
276.98376473178234
 31
0.0
  0
LINE
  5
76
100
AcDbEntity
  8
0
  6
Continuous
 62
               6
100
AcDbLine
 10
582.88087549561214
 20
334.45334184505128
 30
0.0
 11
585.08387595162071
 21
335.11424198185392
 31
0.0
  0
LINE
  5
77
100
AcDbEntity
  8
0
  6
Continuous
 62
               6
100
AcDbLine
 10
600.12174862959296
 20
276.98376473178234
 30
0.0
 11
602.32474908560152
 21
277.64466486858475
 31
0.0
  0
LINE
  5
78
100
AcDbEntity
  8
0
  6
Continuous
 62
               4
100
AcDbLine
 10
533.50695010318873
 20
403.48998145516202
 30
0.0
 11
543.08517505164184
 21
406.36358665365901
 31
0.0
  0
LINE
  5
79
100
AcDbEntity
  8
0
  6
Continuous
 62
               4
100
AcDbLine
 10
556.87882428933085
 20
334.28734063107828
 30
0.0
 11
561.66793676355746
 21
335.72414323032677
 31
0.0
  0
LINE
  5
7A
100
AcDbEntity
  8
0
  6
Continuous
 62
               4
100
AcDbLine
 10
536.70611579588115
 20
401.52647976921935
 30
0.0
 11
541.49522827010765
 21
402.96328236846784
 31
0.0
  0
LINE
  5
7B
100
AcDbEntity
  8
0
  6
Continuous
 62
               4
100
AcDbLine
 10
556.87882428933085
 20
334.28734063107828
 30
0.0
 11
536.70611579588115
 21
401.52647976921935
 31
0.0
  0
LINE
  5
7C
100
AcDbEntity
  8
0
  6
Continuous
 62
               4
100
AcDbLine
 10
561.66793676355746
 20
335.72414323032677
 30
0.0
 11
541.49522827010765
 21
402.96328236846784
 31
0.0
  0
LINE
  5
7D
100
AcDbEntity
  8
0
  6
Continuous
 62
               4
100
AcDbLine
 10
536.70611579588115
 20
401.52647976921935
 30
0.0
 11
533.50695010318873
 21
403.48998145516202
 31
0.0
  0
LINE
  5
7E
100
AcDbEntity
  8
0
  6
Continuous
 62
               4
100
AcDbLine
 10
541.49522827010765
 20
402.96328236846784
 30
0.0
 11
543.08517505164184
 21
406.36358665365901
 31
0.0
  0
LINE
  5
7F
100
AcDbEntity
  8
0
  6
Continuous
 62
               4
100
AcDbLine
 10
556.87882428933085
 20
334.28734063107828
 30
0.0
 11
559.84810156614367
 21
333.09009694101184
 31
0.0
  0
LINE
  5
80
100
AcDbEntity
  8
0
  6
Continuous
 62
               4
100
AcDbLine
 10
559.84810156614367
 20
333.09009694101184
 30
0.0
 11
561.66793676355746
 21
335.72414323032677
 31
0.0
  0
LINE
  5
81
100
AcDbEntity
  8
0
  6
Continuous
 62
               4
100
AcDbLine
 10
552.47342641411365
 20
348.97129647105845
 30
0.0
 11
557.00919182414054
 21
351.25254881316056
 31
0.0
  0
LINE
  5
82
100
AcDbEntity
  8
0
  6
Continuous
 62
               4
100
AcDbLine
 10
552.18163289505287
 20
349.94389492178726
 30
0.0
 11
556.71739830507977
 21
352.22514726388937
 31
0.0
  0
LINE
  5
83
100
AcDbEntity
  8
0
  6
Continuous
 62
               4
100
AcDbLine
 10
551.8898393759921
 20
350.91649337251584
 30
0.0
 11
556.42560478601922
 21
353.19774571461818
 31
0.0
  0
LINE
  5
84
100
AcDbEntity
  8
0
  6
Continuous
 62
               4
100
AcDbLine
 10
551.59804585693132
 20
351.88909182324466
 30
0.0
 11
556.13381126695845
 21
354.17034416534676
 31
0.0
  0
LINE
  5
85
100
AcDbEntity
  8
0
  6
Continuous
 62
               4
100
AcDbLine
 10
551.30625233787077
 20
352.86169027397347
 30
0.0
 11
555.84201774789767
 21
355.14294261607557
 31
0.0
  0
LINE
  5
86
100
AcDbEntity
  8
0
  6
Continuous
 62
               4
100
AcDbLine
 10
551.01445881881
 20
353.83428872470205
 30
0.0
 11
555.5502242288369
 21
356.11554106680438
 31
0.0
  0
LINE
  5
87
100
AcDbEntity
  8
0
  6
Continuous
 62
               4
100
AcDbLine
 10
550.72266529974922
 20
354.80688717543086
 30
0.0
 11
555.25843070977635
 21
357.08813951753297
 31
0.0
  0
LINE
  5
88
100
AcDbEntity
  8
0
  6
Continuous
 62
               4
100
AcDbLine
 10
550.43087178068845
 20
355.77948562615967
 30
0.0
 11
554.96663719071557
 21
358.06073796826178
 31
0.0
  0
LINE
  5
89
100
AcDbEntity
  8
0
  6
Continuous
 62
               4
100
AcDbLine
 10
550.13907826162779
 20
356.75208407688825
 30
0.0
 11
554.6748436716548
 21
359.03333641899059
 31
0.0
  0
LINE
  5
8A
100
AcDbEntity
  8
0
  6
Continuous
 62
               4
100
AcDbLine
 10
549.84728474256713
 20
357.72468252761706
 30
0.0
 11
554.38305015259402
 21
360.00593486971917
 31
0.0
  0
LINE
  5
8B
100
AcDbEntity
  8
0
  6
Continuous
 62
               4
100
AcDbLine
 10
549.55549122350635
 20
358.69728097834587
 30
0.0
 11
554.09125663353348
 21
360.97853332044798
 31
0.0
  0
LINE
  5
8C
100
AcDbEntity
  8
0
  6
Continuous
 62
               4
100
AcDbLine
 10
549.26369770444558
 20
359.66987942907446
 30
0.0
 11
553.7994631144727
 21
361.95113177117656
 31
0.0
  0
LINE
  5
8D
100
AcDbEntity
  8
0
  6
Continuous
 62
               4
100
AcDbLine
 10
548.97190418538491
 20
360.64247787980327
 30
0.0
 11
553.50766959541193
 21
362.92373022190537
 31
0.0
  0
LINE
  5
8E
100
AcDbEntity
  8
0
  6
Continuous
 62
               4
100
AcDbLine
 10
548.68011066632425
 20
361.61507633053185
 30
0.0
 11
553.21587607635115
 21
363.89632867263418
 31
0.0
  0
LINE
  5
8F
100
AcDbEntity
  8
0
  6
Continuous
 62
               4
100
AcDbLine
 10
548.38831714726348
 20
362.58767478126066
 30
0.0
 11
552.9240825572906
 21
364.86892712336277
 31
0.0
  0
LINE
  5
90
100
AcDbEntity
  8
0
  6
Continuous
 62
               4
100
AcDbLine
 10
548.0965236282027
 20
363.56027323198947
 30
0.0
 11
552.63228903822983
 21
365.84152557409158
 31
0.0
  0
LINE
  5
91
100
AcDbEntity
  8
0
  6
Continuous
 62
               4
100
AcDbLine
 10
547.80473010914204
 20
364.53287168271805
 30
0.0
 11
552.34049551916905
 21
366.81412402482039
 31
0.0
  0
LINE
  5
92
100
AcDbEntity
  8
0
  6
Continuous
 62
               4
100
AcDbLine
 10
547.51293659008138
 20
365.50547013344686
 30
0.0
 11
552.04870200010828
 21
367.78672247554897
 31
0.0
  0
LINE
  5
93
100
AcDbEntity
  8
0
  6
Continuous
 62
               4
100
AcDbLine
 10
547.22114307102061
 20
366.47806858417567
 30
0.0
 11
551.75690848104773
 21
368.75932092627778
 31
0.0
  0
LINE
  5
94
100
AcDbEntity
  8
0
  6
Continuous
 62
               4
100
AcDbLine
 10
546.92934955195983
 20
367.45066703490426
 30
0.0
 11
551.46511496198696
 21
369.73191937700659
 31
0.0
  0
LINE
  5
95
100
AcDbEntity
  8
0
  6
Continuous
 62
               4
100
AcDbLine
 10
546.63755603289917
 20
368.42326548563307
 30
0.0
 11
551.17332144292618
 21
370.70451782773517
 31
0.0
  0
LINE
  5
96
100
AcDbEntity
  8
0
  6
Continuous
 62
               4
100
AcDbLine
 10
546.34576251383851
 20
369.39586393636188
 30
0.0
 11
550.88152792386541
 21
371.67711627846398
 31
0.0
  0
LINE
  5
97
100
AcDbEntity
  8
0
  6
Continuous
 62
               4
100
AcDbLine
 10
546.05396899477773
 20
370.36846238709046
 30
0.0
 11
550.58973440480474
 21
372.64971472919274
 31
0.0
  0
LINE
  5
98
100
AcDbEntity
  8
0
  6
Continuous
 62
               4
100
AcDbLine
 10
545.76217547571696
 20
371.34106083781927
 30
0.0
 11
550.29794088574408
 21
373.62231317992132
 31
0.0
  0
LINE
  5
99
100
AcDbEntity
  8
0
  6
Continuous
 62
               4
100
AcDbLine
 10
545.4703819566563
 20
372.31365928854802
 30
0.0
 11
550.00614736668331
 21
374.59491163065013
 31
0.0
  0
LINE
  5
9A
100
AcDbEntity
  8
0
  6
Continuous
 62
               4
100
AcDbLine
 10
545.17858843759564
 20
373.28625773927661
 30
0.0
 11
549.71435384762253
 21
375.56751008137894
 31
0.0
  0
LINE
  5
9B
100
AcDbEntity
  8
0
  6
Continuous
 62
               4
100
AcDbLine
 10
544.88679491853486
 20
374.25885619000542
 30
0.0
 11
549.42256032856187
 21
376.54010853210752
 31
0.0
  0
LINE
  5
9C
100
AcDbEntity
  8
0
  6
Continuous
 62
               4
100
AcDbLine
 10
544.59500139947409
 20
375.23145464073423
 30
0.0
 11
549.13076680950121
 21
377.51270698283633
 31
0.0
  0
LINE
  5
9D
100
AcDbEntity
  8
0
  6
Continuous
 62
               4
100
AcDbLine
 10
544.30320788041342
 20
376.20405309146281
 30
0.0
 11
548.83897329044044
 21
378.48530543356514
 31
0.0
  0
LINE
  5
9E
100
AcDbEntity
  8
0
  6
Continuous
 62
               4
100
AcDbLine
 10
544.01141436135276
 20
377.17665154219162
 30
0.0
 11
548.54717977137966
 21
379.45790388429373
 31
0.0
  0
LINE
  5
9F
100
AcDbEntity
  8
0
  6
Continuous
 62
               4
100
AcDbLine
 10
543.71962084229199
 20
378.14924999292043
 30
0.0
 11
548.255386252319
 21
380.43050233502254
 31
0.0
  0
LINE
  5
A0
100
AcDbEntity
  8
0
  6
Continuous
 62
               4
100
AcDbLine
 10
543.42782732323121
 20
379.12184844364901
 30
0.0
 11
547.96359273325834
 21
381.40310078575135
 31
0.0
  0
LINE
  5
A1
100
AcDbEntity
  8
0
  6
Continuous
 62
               4
100
AcDbLine
 10
543.13603380417055
 20
380.09444689437782
 30
0.0
 11
547.67179921419756
 21
382.37569923647993
 31
0.0
  0
LINE
  5
A2
100
AcDbEntity
  8
0
  6
Continuous
 62
               4
100
AcDbLine
 10
542.84424028510989
 20
381.06704534510664
 30
0.0
 11
547.38000569513679
 21
383.34829768720874
 31
0.0
  0
LINE
  5
A3
100
AcDbEntity
  8
0
  6
Continuous
 62
               4
100
AcDbLine
 10
542.55244676604912
 20
382.03964379583522
 30
0.0
 11
547.08821217607613
 21
384.32089613793755
 31
0.0
  0
LINE
  5
A4
100
AcDbEntity
  8
0
  6
Continuous
 62
               4
100
AcDbLine
 10
542.26065324698834
 20
383.01224224656403
 30
0.0
 11
546.79641865701547
 21
385.29349458866614
 31
0.0
  0
LINE
  5
A5
100
AcDbEntity
  8
0
  6
Continuous
 62
               4
100
AcDbLine
 10
541.96885972792768
 20
383.98484069729284
 30
0.0
 11
546.50462513795469
 21
386.26609303939495
 31
0.0
  0
LINE
  5
A6
100
AcDbEntity
  8
0
  6
Continuous
 62
               4
100
AcDbLine
 10
541.67706620886702
 20
384.95743914802142
 30
0.0
 11
546.21283161889392
 21
387.23869149012353
 31
0.0
  0
LINE
  5
A7
100
AcDbEntity
  8
0
  6
Continuous
 62
               4
100
AcDbLine
 10
541.38527268980624
 20
385.93003759875023
 30
0.0
 11
545.92103809983325
 21
388.21128994085234
 31
0.0
  0
LINE
  5
A8
100
AcDbEntity
  8
0
  6
Continuous
 62
               4
100
AcDbLine
 10
541.09347917074547
 20
386.90263604947882
 30
0.0
 11
545.62924458077259
 21
389.18388839158115
 31
0.0
  0
LINE
  5
A9
100
AcDbEntity
  8
0
  6
Continuous
 62
               4
100
AcDbLine
 10
540.80168565168481
 20
387.87523450020763
 30
0.0
 11
545.33745106171182
 21
390.15648684230973
 31
0.0
  0
LINE
  5
AA
100
AcDbEntity
  8
0
  6
Continuous
 62
               4
100
AcDbLine
 10
540.50989213262415
 20
388.84783295093644
 30
0.0
 11
545.04565754265104
 21
391.12908529303854
 31
0.0
  0
LINE
  5
AB
100
AcDbEntity
  8
0
  6
Continuous
 62
               4
100
AcDbLine
 10
540.21809861356337
 20
389.82043140166502
 30
0.0
 11
544.75386402359038
 21
392.10168374376735
 31
0.0
  0
LINE
  5
AC
100
AcDbEntity
  8
0
  6
Continuous
 62
               4
100
AcDbLine
 10
539.9263050945026
 20
390.79302985239383
 30
0.0
 11
544.46207050452972
 21
393.07428219449594
 31
0.0
  0
LINE
  5
AD
100
AcDbEntity
  8
0
  6
Continuous
 62
               4
100
AcDbLine
 10
539.63451157544193
 20
391.76562830312264
 30
0.0
 11
544.17027698546894
 21
394.04688064522475
 31
0.0
  0
LINE
  5
AE
100
AcDbEntity
  8
0
  6
Continuous
 62
               4
100
AcDbLine
 10
539.34271805638127
 20
392.73822675385122
 30
0.0
 11
543.87848346640817
 21
395.01947909595356
 31
0.0
  0
LINE
  5
AF
100
AcDbEntity
  8
0
  6
Continuous
 62
               4
100
AcDbLine
 10
539.0509245373205
 20
393.71082520458003
 30
0.0
 11
543.58668994734751
 21
395.99207754668214
 31
0.0
  0
LINE
  5
B0
100
AcDbEntity
  8
0
  6
Continuous
 62
               4
100
AcDbLine
 10
538.75913101825972
 20
394.68342365530884
 30
0.0
 11
543.29489642828685
 21
396.96467599741095
 31
0.0
  0
LINE
  5
B1
100
AcDbEntity
  8
0
  6
Continuous
 62
               4
100
AcDbLine
 10
538.46733749919906
 20
395.65602210603743
 30
0.0
 11
543.00310290922607
 21
397.93727444813953
 31
0.0
  0
LINE
  5
B2
100
AcDbEntity
  8
0
  6
Continuous
 62
               4
100
AcDbLine
 10
540.44342668515185
 20
397.76924672781729
 30
0.0
 11
542.7113093901653
 21
398.90987289886834
 31
0.0
  0
LINE
  5
B3
100
AcDbEntity
  8
0
  6
Continuous
 62
               4
100
AcDbLine
 10
552.76521993317442
 20
347.99869802032964
 30
0.0
 11
557.30098534320132
 21
350.27995036243198
 31
0.0
  0
LINE
  5
B4
100
AcDbEntity
  8
0
  6
Continuous
 62
               4
100
AcDbLine
 10
553.05701345223497
 20
347.02609956960106
 30
0.0
 11
557.59277886226209
 21
349.30735191170317
 31
0.0
  0
LINE
  5
B5
100
AcDbEntity
  8
0
  6
Continuous
 62
               4
100
AcDbLine
 10
553.34880697129574
 20
346.05350111887225
 30
0.0
 11
557.88457238132264
 21
348.33475346097458
 31
0.0
  0
LINE
  5
B6
100
AcDbEntity
  8
0
  6
Continuous
 62
               4
100
AcDbLine
 10
553.64060049035652
 20
345.08090266814366
 30
0.0
 11
558.17636590038342
 21
347.36215501024577
 31
0.0
  0
LINE
  5
B7
100
AcDbEntity
  8
0
  6
Continuous
 62
               4
100
AcDbLine
 10
553.93239400941729
 20
344.10830421741485
 30
0.0
 11
558.46815941944419
 21
346.38955655951696
 31
0.0
  0
LINE
  5
B8
100
AcDbEntity
  8
0
  6
Continuous
 62
               4
100
AcDbLine
 10
554.22418752847784
 20
343.13570576668604
 30
0.0
 11
558.75995293850497
 21
345.41695810878838
 31
0.0
  0
LINE
  5
B9
100
AcDbEntity
  8
0
  6
Continuous
 62
               4
100
AcDbLine
 10
554.51598104753862
 20
342.16310731595746
 30
0.0
 11
559.05174645756551
 21
344.44435965805957
 31
0.0
  0
LINE
  5
BA
100
AcDbEntity
  8
0
  6
Continuous
 62
               4
100
AcDbLine
 10
554.80777456659939
 20
341.19050886522865
 30
0.0
 11
559.34353997662629
 21
343.47176120733076
 31
0.0
  0
LINE
  5
BB
100
AcDbEntity
  8
0
  6
Continuous
 62
               4
100
AcDbLine
 10
555.09956808566017
 20
340.21791041449984
 30
0.0
 11
559.63533349568706
 21
342.49916275660217
 31
0.0
  0
LINE
  5
BC
100
AcDbEntity
  8
0
  6
Continuous
 62
               4
100
AcDbLine
 10
555.39136160472071
 20
339.24531196377126
 30
0.0
 11
559.92712701474784
 21
341.52656430587336
 31
0.0
  0
LINE
  5
BD
100
AcDbEntity
  8
0
  6
Continuous
 62
               4
100
AcDbLine
 10
555.68315512378149
 20
338.27271351304245
 30
0.0
 11
560.21892053380839
 21
340.55396585514455
 31
0.0
  0
LINE
  5
BE
100
AcDbEntity
  8
0
  6
Continuous
 62
               4
100
AcDbLine
 10
555.97494864284226
 20
337.30011506231364
 30
0.0
 11
560.51071405286916
 21
339.58136740441597
 31
0.0
  0
LINE
  5
BF
100
AcDbEntity
  8
0
  6
Continuous
 62
               4
100
AcDbLine
 10
558.53462486691637
 20
337.46814278263611
 30
0.0
 11
560.80250757192994
 21
338.60876895368716
 31
0.0
  0
LINE
  5
C0
100
AcDbEntity
  8
0
  6
Continuous
 62
               4
100
AcDbLine
 10
538.21873847214044
 20
357.59577351919694
 30
0.0
 11
413.7013213933908
 21
320.24054839557186
 31
0.0
  0
LINE
  5
C1
100
AcDbEntity
  8
0
  6
Continuous
 62
               4
100
AcDbLine
 10
443.29815360672438
 20
325.98750610689888
 30
0.0
 11
446.7463282335205
 21
314.49359068424508
 31
0.0
  0
LINE
  5
C2
100
AcDbEntity
  8
0
  6
Continuous
 62
               4
100
AcDbLine
 10
438.07800035226916
 20
325.98750610689888
 30
0.0
 11
414.13234322174031
 21
318.80380896774011
 31
0.0
  0
LINE
  5
C3
100
AcDbEntity
  8
0
  6
Continuous
 62
               4
100
AcDbLine
 10
438.07800035226916
 20
325.98750610689888
 30
0.0
 11
438.07800035226916
 21
285.98750610689888
 31
0.0
  0
LINE
  5
C4
100
AcDbEntity
  8
0
  6
Continuous
 62
               4
100
AcDbLine
 10
414.56336505008983
 20
317.36706953990858
 30
0.0
 11
427.58980252909754
 21
319.18693948182874
 31
0.0
  0
LINE
  5
C5
100
AcDbEntity
  8
0
  6
Continuous
 62
               6
100
AcDbLine
 10
602.32474908560152
 20
277.64466486858498
 30
0.0
 11
607.4970110257957
 21
260.40379173460417
 31
0.0
  0
LINE
  5
C6
100
AcDbEntity
  8
0
  6
Continuous
 62
               4
100
AcDbLine
 10
441.6013070749504
 20
295.78067872387817
 30
0.0
 11
439.57800035226916
 21
285.98750610689888
 31
0.0
  0
LINE
  5
C7
100
AcDbEntity
  8
0
  6
Continuous
 62
               7
100
AcDbLine
 10
443.07800035226916
 20
314.49359068424508
 30
0.0
 11
473.07800035226916
 21
314.49359068424508
 31
0.0
  0
LINE
  5
C8
100
AcDbEntity
  8
0
  6
Continuous
 62
               4
100
AcDbLine
 10
395.41641761817039
 20
346.38920598500471
 30
0.0
 11
395.07160014583945
 21
347.53859752437467
 31
0.0
  0
LINE
  5
C9
100
AcDbEntity
  8
0
  6
Continuous
 62
               4
100
AcDbLine
 10
423.00181456305046
 20
354.66482532094579
 30
0.0
 11
395.41641761817039
 21
346.38920598500471
 31
0.0
  0
LINE
  5
CA
100
AcDbEntity
  8
0
  6
Continuous
 62
               4
100
AcDbLine
 10
423.80638863008954
 20
356.15903433264663
 30
0.0
 11
395.07160014583945
 21
347.53859752437467
 31
0.0
  0
LINE
  5
CB
100
AcDbEntity
  8
0
  6
Continuous
 62
               4
100
AcDbLine
 10
430.9900861501514
 20
328.03725417631114
 30
0.0
 11
460.8742661737715
 21
337.00250845691386
 31
0.0
  0
LINE
  5
CC
100
AcDbEntity
  8
0
  6
Continuous
 62
               4
100
AcDbLine
 10
430.9900861501514
 20
328.03725417631114
 30
0.0
 11
423.00181456305046
 21
354.66482532094579
 31
0.0
  0
LINE
  5
CD
100
AcDbEntity
  8
0
  6
Continuous
 62
               4
100
AcDbLine
 10
431.79466021719048
 20
329.53146318801191
 30
0.0
 11
423.80638863008954
 21
356.15903433264668
 31
0.0
  0
LINE
  5
CE
100
AcDbEntity
  8
0
  6
Continuous
 62
               4
100
AcDbLine
 10
460.52944870144057
 20
338.15189999628399
 30
0.0
 11
431.79466021719048
 21
329.53146318801191
 31
0.0
  0
LINE
  5
CF
100
AcDbEntity
  8
0
  6
Continuous
 62
               4
100
AcDbLine
 10
460.52944870144057
 20
338.15189999628399
 30
0.0
 11
460.8742661737715
 21
337.00250845691386
 31
0.0
  0
LINE
  5
D0
100
AcDbEntity
  8
0
  6
Continuous
 62
               4
100
AcDbLine
 10
425.91360656213141
 20
352.61507684569813
 30
0.0
 11
432.75248649999884
 21
329.81881108162105
 31
0.0
  0
LINE
  5
D1
100
AcDbEntity
  8
0
  6
Continuous
 62
               6
100
AcDbLine
 10
404.99468043660244
 20
349.26268491819997
 30
0.0
 11
413.27029956504134
 21
321.67728782340384
 31
0.0
  0
LINE
  5
D2
100
AcDbEntity
  8
0
  6
Continuous
 62
               3
100
AcDbLine
 10
394.78425225223026
 20
348.49642380718319
 30
0.0
 11
391.33607762543426
 21
359.99033922983659
 31
0.0
  0
LINE
  5
D3
100
AcDbEntity
  8
0
  6
Continuous
 62
               7
100
AcDbLine
 10
241.02344108254607
 20
187.20652944874922
 30
0.0
 11
373.17861570358036
 21
187.20652614169006
 31
0.0
  0
LINE
  5
D4
100
AcDbEntity
  8
0
  6
Continuous
 62
               7
100
AcDbLine
 10
236.82493377005099
 20
193.09456924974546
 30
0.0
 11
233.02993119923522
 21
335.4071656553362
 31
0.0
  0
LINE
  5
D5
100
AcDbEntity
  8
0
  6
Continuous
 62
               7
100
AcDbLine
 10
223.4174955856173
 20
320.7401915279558
 30
0.0
 11
223.03348485961754
 21
335.14059375294636
 31
0.0
  0
LINE
  5
D6
100
AcDbEntity
  8
0
  6
Continuous
 62
               7
100
AcDbLine
 10
224.78486225831858
 20
336.98793703650784
 30
0.0
 11
231.18258791567388
 21
337.15854305403735
 31
0.0
  0
LINE
  5
D7
100
AcDbEntity
  8
0
  6
Continuous
 62
               7
100
AcDbLine
 10
231.07977867932846
 20
320.04915210954022
 30
0.0
 11
225.24757016630986
 21
319.19955413582733
 31
0.0
  0
LINE
  5
D8
100
AcDbEntity
  8
0
  6
Continuous
 62
               7
100
AcDbLine
 10
231.58456736969669
 20
322.08431352818178
 30
0.0
 11
231.24389945322355
 21
334.85936039592519
 31
0.0
  0
LINE
  5
D9
100
AcDbEntity
  8
0
  6
Continuous
 62
               7
100
AcDbLine
 10
231.15682104220136
 20
321.57620715290267
 30
0.0
 11
225.77580461708479
 21
320.79233589022573
 31
0.0
  0
LINE
  5
DA
100
AcDbEntity
  8
0
  6
Continuous
 62
               7
100
AcDbLine
 10
224.84617379586822
 20
334.68875437839569
 30
0.0
 11
225.20390631061838
 21
321.27378507526572
 31
0.0
  0
LINE
  5
DB
100
AcDbEntity
  8
0
  6
Continuous
 62
               7
100
AcDbLine
 10
230.73074854112318
 20
335.3458541177867
 30
0.0
 11
225.33266751772965
 21
335.20190529049609
 31
0.0
  0
LINE
  5
DC
100
AcDbEntity
  8
0
  6
Continuous
 62
               7
100
AcDbLine
 10
235.02557342891981
 20
193.04658630731518
 30
0.0
 11
231.65167698579486
 21
319.56770292450022
 31
0.0
  0
LINE
  5
DD
100
AcDbEntity
  8
0
  6
Continuous
 62
               7
100
AcDbLine
 10
382.90532414727039
 20
304.9078027104153
 30
0.0
 11
382.50176592527754
 21
292.80105605063221
 31
0.0
  0
LINE
  5
DE
100
AcDbEntity
  8
0
  6
Continuous
 62
               7
100
AcDbLine
 10
392.43922941263395
 20
290.75834027525156
 30
0.0
 11
392.91643063217822
 21
305.0743768615784
 31
0.0
  0
LINE
  5
DF
100
AcDbEntity
  8
0
  6
Continuous
 62
               7
100
AcDbLine
 10
391.1773964940345
 20
306.93334438855953
 30
0.0
 11
382.98194825680542
 21
307.20652599646741
 31
0.0
  0
LINE
  5
E0
100
AcDbEntity
  8
0
  6
Continuous
 62
               7
100
AcDbLine
 10
383.01495822556973
 20
290.74224497282256
 30
0.0
 11
390.52688301983488
 21
289.24260476831813
 31
0.0
  0
LINE
  5
E1
100
AcDbEntity
  8
0
  6
Continuous
 62
               7
100
AcDbLine
 10
377.37628446303717
 20
193.06660385471304
 30
0.0
 11
381.12298072982418
 21
305.46749185832363
 31
0.0
  0
LINE
  5
E2
100
AcDbEntity
  8
0
  6
Continuous
 62
               7
100
AcDbLine
 10
390.05997945626808
 20
290.86541334214229
 30
0.0
 11
382.90360258450704
 21
292.29407387448276
 31
0.0
  0
LINE
  5
E3
100
AcDbEntity
  8
0
  6
Continuous
 62
               7
100
AcDbLine
 10
391.10077238449941
 20
304.63462110250765
 30
0.0
 11
390.65758770401777
 21
291.3390806880588
 31
0.0
  0
LINE
  5
E4
100
AcDbEntity
  8
0
  6
Continuous
 62
               7
100
AcDbLine
 10
383.42170401587629
 20
305.39086774878859
 30
0.0
 11
390.61770734612611
 21
305.15100097111343
 31
0.0
  0
LINE
  5
E5
100
AcDbEntity
  8
0
  6
Continuous
 62
               7
100
AcDbLine
 10
379.17528529559968
 20
193.00663716029425
 30
0.0
 11
382.41734997782004
 21
290.26857762690582
 31
0.0
  0
LINE
  5
E6
100
AcDbEntity
  8
0
  6
Continuous
 62
               7
100
AcDbLine
 10
241.02344112758936
 20
189.00652944874918
 30
0.0
 11
373.17861574862371
 21
189.00652614169002
 31
0.0
  0
LINE
  5
E7
100
AcDbEntity
  8
0
  6
Continuous
 62
               6
100
AcDbLine
 10
380.63380630085902
 20
185.20652595513087
 30
0.0
 11
233.57471719439039
 21
185.20652963514652
 31
0.0
  0
LINE
  5
E8
100
AcDbEntity
  8
0
  6
Continuous
 62
               6
100
AcDbLine
 10
381.60102828045495
 20
180.70652593092694
 30
0.0
 11
232.60102828045498
 21
180.70652965951211
 31
0.0
  0
LINE
  5
E9
100
AcDbEntity
  8
0
  6
Continuous
 62
               6
100
AcDbLine
 10
229.20682363403546
 20
312.48920812305295
 30
0.0
 11
232.57507258545269
 21
186.1798724449074
 31
0.0
  0
LINE
  5
EA
100
AcDbEntity
  8
0
  6
Continuous
 62
               6
100
AcDbLine
 10
221.43739846276762
 20
319.96717170720825
 30
0.0
 11
221.02781671048609
 21
335.32648741776455
 31
0.0
  0
LINE
  5
EB
100
AcDbEntity
  8
0
  6
Continuous
 62
               6
100
AcDbLine
 10
222.63505006265174
 20
318.18817141788185
 30
0.0
 11
226.51210753429618
 21
316.4919587740373
 31
0.0
  0
LINE
  5
EC
100
AcDbEntity
  8
0
  6
Continuous
 62
               6
100
AcDbLine
 10
224.74228524904905
 20
311.09940822291964
 30
0.0
 11
228.10262754023526
 21
185.08657230343664
 31
0.0
  0
LINE
  5
ED
100
AcDbEntity
  8
0
  6
Continuous
 62
               6
100
AcDbLine
 10
223.54463364916492
 20
312.87840851224604
 30
0.0
 11
219.66757617752049
 21
314.57462115609059
 31
0.0
  0
LINE
  5
EE
100
AcDbEntity
  8
0
  6
Continuous
 62
               6
100
AcDbLine
 10
216.97286007778121
 20
318.57737180707494
 30
0.0
 11
216.52941585765817
 21
335.20653006168908
 31
0.0
  0
LINE
  5
EF
100
AcDbEntity
  8
0
  6
Continuous
 62
               6
100
AcDbLine
 10
216.52941585765817
 20
335.20653006168908
 30
0.0
 11
221.02781671048609
 21
335.32648741776455
 31
0.0
  0
LINE
  5
F0
100
AcDbEntity
  8
0
  6
Continuous
 62
               6
100
AcDbLine
 10
215.97321544381944
 20
318.55071461683605
 30
0.0
 11
215.46150997223512
 21
337.73966980124709
 31
0.0
  0
LINE
  5
F1
100
AcDbEntity
  8
0
  6
Continuous
 62
               6
100
AcDbLine
 10
215.46150997223512
 20
337.73966980124709
 30
0.0
 11
234.95458033448961
 21
338.2594850109071
 31
0.0
  0
LINE
  5
F2
100
AcDbEntity
  8
0
  6
Continuous
 62
               6
100
AcDbLine
 10
235.84802142808877
 20
304.75544400093935
 30
0.0
 11
234.95458033448961
 21
338.2594850109071
 31
0.0
  0
LINE
  5
F3
100
AcDbEntity
  8
0
  6
Continuous
 62
               6
100
AcDbLine
 10
394.00915706380869
 20
307.83950777088734
 30
0.0
 11
393.41032704377795
 21
289.87460716996515
 31
0.0
  0
LINE
  5
F4
100
AcDbEntity
  8
0
  6
Continuous
 62
               6
100
AcDbLine
 10
394.00915706380869
 20
307.83950777088734
 30
0.0
 11
380.13018599634353
 21
308.30214013980316
 31
0.0
  0
LINE
  5
F5
100
AcDbEntity
  8
0
  6
Continuous
 62
               6
100
AcDbLine
 10
380.13018599634353
 20
308.30214013980316
 30
0.0
 11
376.24251280674736
 21
298.37244953210796
 31
0.0
  0
LINE
  5
F6
100
AcDbEntity
  8
0
  6
Continuous
 62
               6
100
AcDbLine
 10
384.63897508261658
 20
276.34492661752608
 30
0.0
 11
381.63325123286228
 21
186.17321112489816
 31
0.0
  0
LINE
  5
F7
100
AcDbEntity
  8
0
  6
Continuous
 62
               6
100
AcDbLine
 10
389.13647716402272
 20
276.19500988147922
 30
0.0
 11
386.09853047446944
 21
185.05660919488008
 31
0.0
  0
LINE
  5
F8
100
AcDbEntity
  8
0
  6
Continuous
 62
               6
100
AcDbLine
 10
383.81530089246939
 20
281.65136295271782
 30
0.0
 11
393.41032704377795
 21
289.87460716996515
 31
0.0
  0
LINE
  5
F9
100
AcDbEntity
  8
0
  6
Continuous
 62
               6
100
AcDbLine
 10
383.14900428781664
 20
261.66246481313459
 30
0.0
 11
383.81530089246939
 21
281.65136295271782
 31
0.0
  0
LINE
  5
FA
100
AcDbEntity
  8
0
  6
Continuous
 62
               6
100
AcDbLine
 10
438.57800035226916
 20
221.17835246636287
 30
0.0
 11
438.57800035226916
 21
281.17835246636292
 31
0.0
  0
LINE
  5
FB
100
AcDbEntity
  8
0
  6
Continuous
 62
               6
100
AcDbLine
 10
434.07800035226916
 20
221.17835246636287
 30
0.0
 11
438.57800035226916
 21
221.17835246636287
 31
0.0
  0
LINE
  5
FC
100
AcDbEntity
  8
0
  6
Continuous
 62
               6
100
AcDbLine
 10
434.07800035226916
 20
221.17835246636287
 30
0.0
 11
434.07800035226916
 21
276.67835246636304
 31
0.0
  0
LINE
  5
FD
100
AcDbEntity
  8
0
  6
Continuous
 62
               6
100
AcDbLine
 10
443.07800035226921
 20
271.17835246636292
 30
0.0
 11
438.57800035226916
 21
271.17835246636292
 31
0.0
  0
LINE
  5
FE
100
AcDbEntity
  8
0
  6
Continuous
 62
               6
100
AcDbLine
 10
443.07800035226921
 20
231.17835246636292
 30
0.0
 11
438.57800035226916
 21
231.17835246636287
 31
0.0
  0
LINE
  5
FF
100
AcDbEntity
  8
0
  6
Continuous
 62
               6
100
AcDbLine
 10
389.63619961751232
 20
276.67835246636309
 30
0.0
 11
434.07800035226916
 21
276.67835246636304
 31
0.0
  0
LINE
  5
100
100
AcDbEntity
  8
0
  6
Continuous
 62
               6
100
AcDbLine
 10
389.6361996175122
 20
281.17835246636292
 30
0.0
 11
438.57800035226916
 21
281.17835246636292
 31
0.0
  0
LINE
  5
101
100
AcDbEntity
  8
0
  6
Continuous
 62
               4
100
AcDbLine
 10
351.87363493821528
 20
352.32772911490065
 30
0.0
 11
343.25320784036427
 21
381.06251662531531
 31
0.0
  0
LINE
  5
102
100
AcDbEntity
  8
0
  6
Continuous
 62
               4
100
AcDbLine
 10
372.03587826624863
 20
354.7222947475264
 30
0.0
 11
352.87935256182567
 21
348.97533703619939
 31
0.0
  0
LINE
  5
103
100
AcDbEntity
  8
0
  6
Continuous
 62
               4
100
AcDbLine
 10
372.03587826624863
 20
354.7222947475264
 30
0.0
 11
372.03587826624863
 21
304.72229474752646
 31
0.0
  0
LINE
  5
104
100
AcDbEntity
  8
0
  6
Continuous
 62
               4
100
AcDbLine
 10
378.53587826624863
 20
313.38254878537089
 30
0.0
 11
373.53587826624863
 21
304.72229474752646
 31
0.0
  0
LINE
  5
105
100
AcDbEntity
  8
0
  6
Continuous
 62
               4
100
AcDbLine
 10
370.52476130324987
 20
352.79833935173679
 30
0.0
 11
353.31037439017513
 21
347.5385976083677
 31
0.0
  0
LINE
  5
106
100
AcDbEntity
  8
0
  6
Continuous
 62
               4
100
AcDbLine
 10
352.44833073347615
 20
350.41207646403114
 30
0.0
 11
496.12227310875227
 21
393.51425917661413
 31
0.0
  0
LINE
  5
107
100
AcDbEntity
  8
0
  6
Continuous
 62
               6
100
AcDbLine
 10
413.27029956504128
 20
321.67728782340362
 30
0.0
 11
701.15628046236452
 21
408.04308209260034
 31
0.0
  0
LINE
  5
108
100
AcDbEntity
  8
0
  6
DASHED
 62
               4
100
AcDbLine
 10
442.86713177837493
 20
327.42424553473063
 30
0.0
 11
702.01832411906344
 21
405.16960323693684
 31
0.0
  0
LINE
  5
109
100
AcDbEntity
  8
0
  6
Continuous
 62
               4
100
AcDbLine
 10
443.29815360672438
 20
325.98750610689888
 30
0.0
 11
702.44934594741289
 21
403.73286380910508
 31
0.0
  0
LINE
  5
10A
100
AcDbEntity
  8
0
  6
Continuous
 62
               4
100
AcDbLine
 10
446.7463282335205
 20
314.49359068424508
 30
0.0
 11
705.89752057420901
 21
392.23894838645128
 31
0.0
  0
LINE
  5
10B
100
AcDbEntity
  8
0
  6
DOT
 62
               6
100
AcDbLine
 10
407.52334185371444
 20
340.83381352782663
 30
0.0
 11
695.40932275103751
 21
427.19960779702342
 31
0.0
  0
LINE
  5
10C
100
AcDbEntity
  8
0
  6
Continuous
 62
               7
100
AcDbLine
 10
446.45898034795414
 20
315.45141696946609
 30
0.0
 11
705.61017268864271
 21
393.19677467167253
 31
0.0
  0
LINE
  5
10D
100
AcDbEntity
  8
0
  6
Continuous
 62
               7
100
AcDbLine
 10
443.58550149229069
 20
325.02967982167763
 30
0.0
 11
702.7366938329792
 21
402.77503752388407
 31
0.0
  0
LINE
  5
10E
100
AcDbEntity
  8
0
  6
Continuous
 62
               7
100
AcDbLine
 10
445.88428457682147
 20
317.3670695399083
 30
0.0
 11
705.0354769175101
 21
395.11242724211479
 31
0.0
  0
LINE
  5
10F
100
AcDbEntity
  8
0
  6
Continuous
 62
               7
100
AcDbLine
 10
445.02224092012244
 20
320.24054839557192
 30
0.0
 11
704.17343326081095
 21
397.9859060977783
 31
0.0
  0
LINE
  5
110
100
AcDbEntity
  8
0
  6
Continuous
 62
               7
100
AcDbLine
 10
444.16019726342336
 20
323.11402725123537
 30
0.0
 11
703.31138960411181
 21
400.85938495344158
 31
0.0
  0
LINE
  5
111
100
AcDbEntity
  8
0
  6
Continuous
 62
               4
100
AcDbLine
 10
425.91360656213141
 20
352.61507684569813
 30
0.0
 11
693.68523543763945
 21
432.94656550835043
 31
0.0
  0
LINE
  5
112
100
AcDbEntity
  8
0
  6
Continuous
 62
               4
100
AcDbLine
 10
460.8742661737715
 20
337.0025084569138
 30
0.0
 11
700.86893257679799
 21
409.00090837782159
 31
0.0
  0
LINE
  5
113
100
AcDbEntity
  8
0
  6
Continuous
 62
               6
100
AcDbLine
 10
423.80638870247401
 20
356.15903409136513
 30
0.0
 11
692.53584389537423
 21
436.77787064923496
 31
0.0
  0
LINE
  5
114
100
AcDbEntity
  8
0
  6
Continuous
 62
               3
100
AcDbLine
 10
394.78425225223026
 20
348.49642380718319
 30
0.0
 11
692.24849600980792
 21
437.73569693445597
 31
0.0
  0
LINE
  5
115
100
AcDbEntity
  8
0
  6
Continuous
 62
               4
100
AcDbLine
 10
351.87363496234337
 20
352.32772903447363
 30
0.0
 11
687.65093013278806
 21
453.06091758560683
 31
0.0
  0
LINE
  5
116
100
AcDbEntity
  8
0
  6
Continuous
 62
               4
100
AcDbLine
 10
349.00015890645807
 20
361.90599272661854
 30
0.0
 11
684.77745127712456
 21
462.63918043781837
 31
0.0
  0
LINE
  5
117
100
AcDbEntity
  8
0
  6
Continuous
 62
               4
100
AcDbLine
 10
346.12668285057276
 20
371.48425641876349
 30
0.0
 11
681.90397242146128
 21
472.21744329002991
 31
0.0
  0
LINE
  5
118
100
AcDbEntity
  8
0
  6
Continuous
 62
               3
100
AcDbLine
 10
391.33607762543426
 20
359.99033922983659
 30
0.0
 11
688.80032138301158
 21
449.22961235711057
 31
0.0
  0
LINE
  5
119
100
AcDbEntity
  8
0
  6
DASHED
 62
               6
100
AcDbLine
 10
391.04872973986784
 20
360.94816551505772
 30
0.0
 11
688.51297349744505
 21
450.1874386423317
 31
0.0
  0
LINE
  5
11A
100
AcDbEntity
  8
0
  6
Continuous
 62
               4
100
AcDbLine
 10
343.25320786449242
 20
381.06251654488801
 30
0.0
 11
679.03049378976175
 21
481.79570539569477
 31
0.0
  0
LINE
  5
11B
100
AcDbEntity
  8
0
  6
Continuous
 62
               7
100
AcDbLine
 10
463.07800035226916
 20
78.648128355477951
 30
0.0
 11
463.07800035226916
 21
314.49359068424508
 31
0.0
  0
LINE
  5
11C
100
AcDbEntity
  8
0
  6
Continuous
 62
               7
100
AcDbLine
 10
473.07800035226916
 20
78.648128355477951
 30
0.0
 11
473.07800035226916
 21
314.49359068424508
 31
0.0
  0
LINE
  5
11D
100
AcDbEntity
  8
0
  6
Continuous
 62
               7
100
AcDbLine
 10
443.07800035226916
 20
314.49359068424508
 30
0.0
 11
443.07800035226916
 21
78.648128355477951
 31
0.0
  0
LINE
  5
11E
100
AcDbEntity
  8
0
  6
Continuous
 62
               4
100
AcDbLine
 10
713.37929063627098
 20
314.6547849046886
 30
0.0
 11
625.88267618414602
 21
314.6547849046886
 31
0.0
  0
LINE
  5
11F
100
AcDbEntity
  8
0
  6
Continuous
 62
               4
100
AcDbLine
 10
621.86343829767929
 20
329.65478490468848
 30
0.0
 11
713.37929063627075
 21
329.65478490468854
 31
0.0
  0
LINE
  5
120
100
AcDbEntity
  8
0
  6
Continuous
 62
               4
100
AcDbLine
 10
714.78679656440374
 20
21.213203435595801
 30
0.0
 11
714.78679656440374
 21
41.213203435595801
 31
0.0
  0
LINE
  5
121
100
AcDbEntity
  8
0
  6
Continuous
 62
               4
100
AcDbLine
 10
864.78679656440374
 20
21.213203435595801
 30
0.0
 11
714.78679656440374
 21
21.213203435595801
 31
0.0
  0
LINE
  5
122
100
AcDbEntity
  8
0
  6
Continuous
 62
               4
100
AcDbLine
 10
864.78679656440374
 20
41.213203435595801
 30
0.0
 11
864.78679656440374
 21
21.213203435595801
 31
0.0
  0
LINE
  5
123
100
AcDbEntity
  8
0
  6
Continuous
 62
               4
100
AcDbLine
 10
864.78679656440374
 20
41.213203435595801
 30
0.0
 11
714.78679656440374
 21
41.213203435595801
 31
0.0
  0
LINE
  5
124
100
AcDbEntity
  8
0
  6
Continuous
 62
               4
100
AcDbLine
 10
14.142135623730949
 20
595.85786437626837
 30
0.0
 11
14.142135623730949
 21
615.85786437626837
 31
0.0
  0
LINE
  5
125
100
AcDbEntity
  8
0
  6
Continuous
 62
               4
100
AcDbLine
 10
164.14213562373095
 20
595.85786437626837
 30
0.0
 11
14.142135623730949
 21
595.85786437626837
 31
0.0
  0
LINE
  5
126
100
AcDbEntity
  8
0
  6
Continuous
 62
               4
100
AcDbLine
 10
164.14213562373095
 20
615.85786437626837
 30
0.0
 11
164.14213562373095
 21
595.85786437626837
 31
0.0
  0
LINE
  5
127
100
AcDbEntity
  8
0
  6
Continuous
 62
               4
100
AcDbLine
 10
164.14213562373095
 20
615.85786437626837
 30
0.0
 11
14.142135623730949
 21
615.85786437626837
 31
0.0
  0
CIRCLE
  5
128
100
AcDbEntity
  8
0
  6
Continuous
 62
               4
100
AcDbCircle
 10
335.49481471291921
 20
406.92382626114045
 30
0.0
 40
1.500000000000002
  0
CIRCLE
  5
129
100
AcDbEntity
  8
0
  6
Continuous
 62
               4
100
AcDbCircle
 10
354.65133170032112
 20
412.67078153269244
 30
0.0
 40
1.500000000000002
  0
CIRCLE
  5
12A
100
AcDbEntity
  8
0
  6
Continuous
 62
               4
100
AcDbCircle
 10
327.73642158547437
 20
432.78513589696513
 30
0.0
 40
1.500000000000002
  0
CIRCLE
  5
12B
100
AcDbEntity
  8
0
  6
Continuous
 62
               4
100
AcDbCircle
 10
375.62772665892027
 20
447.15252785732764
 30
0.0
 40
1.500000000000002
  0
CIRCLE
  5
12C
100
AcDbEntity
  8
0
  6
Continuous
 62
               4
100
AcDbCircle
 10
375.62772665892027
 20
447.15252785732764
 30
0.0
 40
1.500000000000002
  0
CIRCLE
  5
12D
100
AcDbEntity
  8
0
  6
Continuous
 62
               4
100
AcDbCircle
 10
471.41035494212696
 20
475.88731721894703
 30
0.0
 40
1.500000000000002
  0
CIRCLE
  5
12E
100
AcDbEntity
  8
0
  6
Continuous
 62
               4
100
AcDbCircle
 10
670.41005704223812
 20
447.88865550064338
 30
0.0
 40
1.500000000000002
  0
CIRCLE
  5
12F
100
AcDbEntity
  8
0
  6
Continuous
 62
               4
100
AcDbCircle
 10
661.78962045792991
 20
476.62344323834679
 30
0.0
 40
1.500000000000002
  0
CIRCLE
  5
130
100
AcDbEntity
  8
0
  6
Continuous
 62
               4
100
AcDbCircle
 10
671.55944861667422
 20
444.05735036941098
 30
0.0
 40
1.500000000000002
  0
CIRCLE
  5
131
100
AcDbEntity
  8
0
  6
Continuous
 62
               4
100
AcDbCircle
 10
675.00762333998341
 20
432.56343497571027
 30
0.0
 40
1.500000000000002
  0
CIRCLE
  5
132
100
AcDbEntity
  8
0
  6
Continuous
 62
               4
100
AcDbCircle
 10
675.29497123359238
 20
431.60560869290202
 30
0.0
 40
1.500000000000002
  0
CIRCLE
  5
133
100
AcDbEntity
  8
0
  6
Continuous
 62
               4
100
AcDbCircle
 10
683.91540804186479
 20
402.87082020865205
 30
0.0
 40
1.500000000000002
  0
CIRCLE
  5
134
100
AcDbEntity
  8
0
  6
Continuous
 62
               4
100
AcDbCircle
 10
327.03587826624857
 20
354.7222947475264
 30
0.0
 40
1.500000000000002
  0
CIRCLE
  5
135
100
AcDbEntity
  8
0
  6
Continuous
 62
               4
100
AcDbCircle
 10
327.03587826624857
 20
304.72229474752646
 30
0.0
 40
1.500000000000002
  0
CIRCLE
  5
136
100
AcDbEntity
  8
0
  6
Continuous
 62
               7
100
AcDbCircle
 10
432.26353733870059
 20
347.47562931549288
 30
0.0
 40
1.0
  0
CIRCLE
  5
137
100
AcDbEntity
  8
0
  6
Continuous
 62
               7
100
AcDbCircle
 10
439.38340035239924
 20
344.93282109631474
 30
0.0
 40
0.5
  0
CIRCLE
  5
138
100
AcDbEntity
  8
0
  6
Continuous
 62
               7
100
AcDbCircle
 10
433.5349414482896
 20
337.30439643878054
 30
0.0
 40
0.1
  0
CIRCLE
  5
139
100
AcDbEntity
  8
0
  6
Continuous
 62
               7
100
AcDbCircle
 10
440.90908528390605
 20
334.7615882196024
 30
0.0
 40
1.0
  0
CIRCLE
  5
13A
100
AcDbEntity
  8
0
  6
Continuous
 62
               7
100
AcDbCircle
 10
439.63768117431704
 20
351.54412246617773
 30
0.0
 40
0.1
  0
CIRCLE
  5
13B
100
AcDbEntity
  8
0
  6
Continuous
 62
               7
100
AcDbCircle
 10
444.2147359688376
 20
340.10148547987643
 30
0.0
 40
0.5
  0
CIRCLE
  5
13C
100
AcDbEntity
  8
0
  6
Continuous
 62
               7
100
AcDbCircle
 10
447.18232016249499
 20
351.95126416263116
 30
0.0
 40
1.0
  0
CIRCLE
  5
13D
100
AcDbEntity
  8
0
  6
Continuous
 62
               7
100
AcDbCircle
 10
454.30218317619358
 20
349.40845594345325
 30
0.0
 40
0.5
  0
CIRCLE
  5
13E
100
AcDbEntity
  8
0
  6
Continuous
 62
               7
100
AcDbCircle
 10
448.453724272084
 20
341.78003128591882
 30
0.0
 40
0.1
  0
CIRCLE
  5
13F
100
AcDbEntity
  8
0
  6
Continuous
 62
               7
100
AcDbCircle
 10
455.82786810770045
 20
339.23722306674091
 30
0.0
 40
1.0
  0
CIRCLE
  5
140
100
AcDbEntity
  8
0
  6
Continuous
 62
               7
100
AcDbCircle
 10
454.55646399811144
 20
356.01975731331623
 30
0.0
 40
0.1
  0
CIRCLE
  5
141
100
AcDbEntity
  8
0
  6
Continuous
 62
               7
100
AcDbCircle
 10
459.133518792632
 20
344.57712032701471
 30
0.0
 40
0.5
  0
CIRCLE
  5
142
100
AcDbEntity
  8
0
  6
Continuous
 62
               7
100
AcDbCircle
 10
462.10110298628939
 20
356.42689900976944
 30
0.0
 40
1.0
  0
CIRCLE
  5
143
100
AcDbEntity
  8
0
  6
Continuous
 62
               7
100
AcDbCircle
 10
469.22096599998798
 20
353.88409079059153
 30
0.0
 40
0.5
  0
CIRCLE
  5
144
100
AcDbEntity
  8
0
  6
Continuous
 62
               7
100
AcDbCircle
 10
463.3725070958784
 20
346.25566613305733
 30
0.0
 40
0.1
  0
CIRCLE
  5
145
100
AcDbEntity
  8
0
  6
Continuous
 62
               7
100
AcDbCircle
 10
470.74665093149486
 20
343.71285791387919
 30
0.0
 40
1.0
  0
CIRCLE
  5
146
100
AcDbEntity
  8
0
  6
Continuous
 62
               7
100
AcDbCircle
 10
469.47524682190584
 20
360.49539216045451
 30
0.0
 40
0.1
  0
CIRCLE
  5
147
100
AcDbEntity
  8
0
  6
Continuous
 62
               7
100
AcDbCircle
 10
474.0523016164264
 20
349.05275517415322
 30
0.0
 40
0.5
  0
CIRCLE
  5
148
100
AcDbEntity
  8
0
  6
Continuous
 62
               7
100
AcDbCircle
 10
477.01988581008379
 20
360.90253385690795
 30
0.0
 40
1.0
  0
CIRCLE
  5
149
100
AcDbEntity
  8
0
  6
Continuous
 62
               7
100
AcDbCircle
 10
484.13974882378238
 20
358.35972563772981
 30
0.0
 40
0.5
  0
CIRCLE
  5
14A
100
AcDbEntity
  8
0
  6
Continuous
 62
               7
100
AcDbCircle
 10
478.29128991967281
 20
350.73130098019561
 30
0.0
 40
0.1
  0
CIRCLE
  5
14B
100
AcDbEntity
  8
0
  6
Continuous
 62
               7
100
AcDbCircle
 10
485.66543375528926
 20
348.18849276101747
 30
0.0
 40
1.0
  0
CIRCLE
  5
14C
100
AcDbEntity
  8
0
  6
Continuous
 62
               7
100
AcDbCircle
 10
484.39402964570024
 20
364.9710270075928
 30
0.0
 40
0.1
  0
CIRCLE
  5
14D
100
AcDbEntity
  8
0
  6
Continuous
 62
               7
100
AcDbCircle
 10
488.97108444022081
 20
353.5283900212915
 30
0.0
 40
0.5
  0
CIRCLE
  5
14E
100
AcDbEntity
  8
0
  6
Continuous
 62
               7
100
AcDbCircle
 10
491.93866863387819
 20
365.37816870404623
 30
0.0
 40
1.0
  0
CIRCLE
  5
14F
100
AcDbEntity
  8
0
  6
Continuous
 62
               7
100
AcDbCircle
 10
499.05853164757679
 20
362.83536048486809
 30
0.0
 40
0.5
  0
CIRCLE
  5
150
100
AcDbEntity
  8
0
  6
Continuous
 62
               7
100
AcDbCircle
 10
493.21007274346721
 20
355.20693582733389
 30
0.0
 40
0.1
  0
CIRCLE
  5
151
100
AcDbEntity
  8
0
  6
Continuous
 62
               7
100
AcDbCircle
 10
500.58421657908366
 20
352.66412760815575
 30
0.0
 40
1.0
  0
CIRCLE
  5
152
100
AcDbEntity
  8
0
  6
Continuous
 62
               7
100
AcDbCircle
 10
499.31281246949465
 20
369.44666185473108
 30
0.0
 40
0.1
  0
CIRCLE
  5
153
100
AcDbEntity
  8
0
  6
Continuous
 62
               7
100
AcDbCircle
 10
503.88986726401521
 20
358.00402486842978
 30
0.0
 40
0.5
  0
CIRCLE
  5
154
100
AcDbEntity
  8
0
  6
Continuous
 62
               7
100
AcDbCircle
 10
506.8574514576726
 20
369.85380355118451
 30
0.0
 40
1.0
  0
CIRCLE
  5
155
100
AcDbEntity
  8
0
  6
Continuous
 62
               7
100
AcDbCircle
 10
513.97731447137119
 20
367.31099533200637
 30
0.0
 40
0.5
  0
CIRCLE
  5
156
100
AcDbEntity
  8
0
  6
Continuous
 62
               7
100
AcDbCircle
 10
508.12885556726161
 20
359.68257067447217
 30
0.0
 40
0.1
  0
CIRCLE
  5
157
100
AcDbEntity
  8
0
  6
Continuous
 62
               7
100
AcDbCircle
 10
515.502999402878
 20
357.13976245529403
 30
0.0
 40
1.0
  0
CIRCLE
  5
158
100
AcDbEntity
  8
0
  6
Continuous
 62
               7
100
AcDbCircle
 10
514.23159529328905
 20
373.9222967018693
 30
0.0
 40
0.1
  0
CIRCLE
  5
159
100
AcDbEntity
  8
0
  6
Continuous
 62
               7
100
AcDbCircle
 10
518.80865008780961
 20
362.47965971556806
 30
0.0
 40
0.5
  0
CIRCLE
  5
15A
100
AcDbEntity
  8
0
  6
Continuous
 62
               7
100
AcDbCircle
 10
521.77623428146705
 20
374.32943839832274
 30
0.0
 40
1.0
  0
CIRCLE
  5
15B
100
AcDbEntity
  8
0
  6
Continuous
 62
               7
100
AcDbCircle
 10
528.89609729516565
 20
371.78663017914465
 30
0.0
 40
0.5
  0
CIRCLE
  5
15C
100
AcDbEntity
  8
0
  6
Continuous
 62
               7
100
AcDbCircle
 10
523.04763839105613
 20
364.15820552161045
 30
0.0
 40
0.1
  0
CIRCLE
  5
15D
100
AcDbEntity
  8
0
  6
Continuous
 62
               7
100
AcDbCircle
 10
530.42178222667258
 20
361.61539730243254
 30
0.0
 40
1.0
  0
CIRCLE
  5
15E
100
AcDbEntity
  8
0
  6
Continuous
 62
               7
100
AcDbCircle
 10
529.15037811708351
 20
378.39793154900781
 30
0.0
 40
0.1
  0
CIRCLE
  5
15F
100
AcDbEntity
  8
0
  6
Continuous
 62
               7
100
AcDbCircle
 10
533.72743291160407
 20
366.95529456270634
 30
0.0
 40
0.5
  0
CIRCLE
  5
160
100
AcDbEntity
  8
0
  6
Continuous
 62
               7
100
AcDbCircle
 10
536.69501710526151
 20
378.80507324546102
 30
0.0
 40
1.0
  0
CIRCLE
  5
161
100
AcDbEntity
  8
0
  6
Continuous
 62
               7
100
AcDbCircle
 10
543.81488011895999
 20
376.2622650262831
 30
0.0
 40
0.5
  0
CIRCLE
  5
162
100
AcDbEntity
  8
0
  6
Continuous
 62
               7
100
AcDbCircle
 10
537.96642121485047
 20
368.63384036874874
 30
0.0
 40
0.1
  0
CIRCLE
  5
163
100
AcDbEntity
  8
0
  6
Continuous
 62
               7
100
AcDbCircle
 10
545.34056505046692
 20
366.09103214957082
 30
0.0
 40
1.0
  0
CIRCLE
  5
164
100
AcDbEntity
  8
0
  6
Continuous
 62
               7
100
AcDbCircle
 10
544.06916094087796
 20
382.87356639614609
 30
0.0
 40
0.1
  0
CIRCLE
  5
165
100
AcDbEntity
  8
0
  6
Continuous
 62
               7
100
AcDbCircle
 10
548.64621573539853
 20
371.43092940984462
 30
0.0
 40
0.5
  0
CIRCLE
  5
166
100
AcDbEntity
  8
0
  6
Continuous
 62
               7
100
AcDbCircle
 10
551.61379992905586
 20
383.28070809259953
 30
0.0
 40
1.0
  0
CIRCLE
  5
167
100
AcDbEntity
  8
0
  6
Continuous
 62
               7
100
AcDbCircle
 10
558.73366294275456
 20
380.73789987342138
 30
0.0
 40
0.5
  0
CIRCLE
  5
168
100
AcDbEntity
  8
0
  6
Continuous
 62
               7
100
AcDbCircle
 10
552.88520403864482
 20
373.10947521588719
 30
0.0
 40
0.1
  0
CIRCLE
  5
169
100
AcDbEntity
  8
0
  6
Continuous
 62
               7
100
AcDbCircle
 10
560.25934787426127
 20
370.5666669967091
 30
0.0
 40
1.0
  0
CIRCLE
  5
16A
100
AcDbEntity
  8
0
  6
Continuous
 62
               7
100
AcDbCircle
 10
558.98794376467231
 20
387.34920124328437
 30
0.0
 40
0.1
  0
CIRCLE
  5
16B
100
AcDbEntity
  8
0
  6
Continuous
 62
               7
100
AcDbCircle
 10
563.56499855919287
 20
375.90656425698307
 30
0.0
 40
0.5
  0
CIRCLE
  5
16C
100
AcDbEntity
  8
0
  6
Continuous
 62
               7
100
AcDbCircle
 10
566.5325827528502
 20
387.75634293973781
 30
0.0
 40
1.0
  0
CIRCLE
  5
16D
100
AcDbEntity
  8
0
  6
Continuous
 62
               7
100
AcDbCircle
 10
567.80398686243939
 20
377.58511006302547
 30
0.0
 40
0.1
  0
CIRCLE
  5
16E
100
AcDbEntity
  8
0
  6
Continuous
 62
               7
100
AcDbCircle
 10
573.65244576654891
 20
385.21353472055966
 30
0.0
 40
0.5
  0
CIRCLE
  5
16F
100
AcDbEntity
  8
0
  6
Continuous
 62
               7
100
AcDbCircle
 10
575.17813069805584
 20
375.04230184384733
 30
0.0
 40
1.0
  0
CIRCLE
  5
170
100
AcDbEntity
  8
0
  6
Continuous
 62
               7
100
AcDbCircle
 10
573.90672658846665
 20
391.82483609042265
 30
0.0
 40
0.1
  0
CIRCLE
  5
171
100
AcDbEntity
  8
0
  6
Continuous
 62
               7
100
AcDbCircle
 10
578.48378138298722
 20
380.38219910412136
 30
0.0
 40
0.5
  0
CIRCLE
  5
172
100
AcDbEntity
  8
0
  6
Continuous
 62
               7
100
AcDbCircle
 10
581.45136557664478
 20
392.23197778687609
 30
0.0
 40
1.0
  0
CIRCLE
  5
173
100
AcDbEntity
  8
0
  6
Continuous
 62
               7
100
AcDbCircle
 10
582.72276968623373
 20
382.06074491016375
 30
0.0
 40
0.1
  0
CIRCLE
  5
174
100
AcDbEntity
  8
0
  6
Continuous
 62
               7
100
AcDbCircle
 10
588.57122859034325
 20
389.68916956769795
 30
0.0
 40
0.5
  0
CIRCLE
  5
175
100
AcDbEntity
  8
0
  6
Continuous
 62
               7
100
AcDbCircle
 10
590.09691352185018
 20
379.51793669098561
 30
0.0
 40
1.0
  0
CIRCLE
  5
176
100
AcDbEntity
  8
0
  6
Continuous
 62
               7
100
AcDbCircle
 10
588.82550941226123
 20
396.30047093756093
 30
0.0
 40
0.1
  0
CIRCLE
  5
177
100
AcDbEntity
  8
0
  6
Continuous
 62
               7
100
AcDbCircle
 10
593.40256420678179
 20
384.85783395125964
 30
0.0
 40
0.5
  0
CIRCLE
  5
178
100
AcDbEntity
  8
0
  6
Continuous
 62
               7
100
AcDbCircle
 10
596.37014840043912
 20
396.70761263401437
 30
0.0
 40
1.0
  0
CIRCLE
  5
179
100
AcDbEntity
  8
0
  6
Continuous
 62
               7
100
AcDbCircle
 10
597.64155251002808
 20
386.53637975730203
 30
0.0
 40
0.1
  0
CIRCLE
  5
17A
100
AcDbEntity
  8
0
  6
Continuous
 62
               7
100
AcDbCircle
 10
603.4900114141376
 20
394.16480441483645
 30
0.0
 40
0.5
  0
CIRCLE
  5
17B
100
AcDbEntity
  8
0
  6
Continuous
 62
               7
100
AcDbCircle
 10
605.01569634564453
 20
383.99357153812412
 30
0.0
 40
1.0
  0
CIRCLE
  5
17C
100
AcDbEntity
  8
0
  6
Continuous
 62
               7
100
AcDbCircle
 10
603.74429223605557
 20
400.77610578469944
 30
0.0
 40
0.1
  0
CIRCLE
  5
17D
100
AcDbEntity
  8
0
  6
Continuous
 62
               7
100
AcDbCircle
 10
608.32134703057613
 20
389.33346879839792
 30
0.0
 40
0.5
  0
CIRCLE
  5
17E
100
AcDbEntity
  8
0
  6
Continuous
 62
               7
100
AcDbCircle
 10
611.28893122423347
 20
401.18324748115288
 30
0.0
 40
1.0
  0
CIRCLE
  5
17F
100
AcDbEntity
  8
0
  6
Continuous
 62
               7
100
AcDbCircle
 10
612.56033533382242
 20
391.01201460444054
 30
0.0
 40
0.1
  0
CIRCLE
  5
180
100
AcDbEntity
  8
0
  6
Continuous
 62
               7
100
AcDbCircle
 10
618.40879423793217
 20
398.64043926197473
 30
0.0
 40
0.5
  0
CIRCLE
  5
181
100
AcDbEntity
  8
0
  6
Continuous
 62
               7
100
AcDbCircle
 10
619.93447916943887
 20
388.4692063852624
 30
0.0
 40
1.0
  0
CIRCLE
  5
182
100
AcDbEntity
  8
0
  6
Continuous
 62
               7
100
AcDbCircle
 10
618.66307505984992
 20
405.25174063183772
 30
0.0
 40
0.1
  0
CIRCLE
  5
183
100
AcDbEntity
  8
0
  6
Continuous
 62
               7
100
AcDbCircle
 10
623.24012985437048
 20
393.80910364553642
 30
0.0
 40
0.5
  0
CIRCLE
  5
184
100
AcDbEntity
  8
0
  6
Continuous
 62
               7
100
AcDbCircle
 10
626.20771404802781
 20
405.65888232829116
 30
0.0
 40
1.0
  0
CIRCLE
  5
185
100
AcDbEntity
  8
0
  6
Continuous
 62
               7
100
AcDbCircle
 10
627.47911815761699
 20
395.48764945157882
 30
0.0
 40
0.1
  0
CIRCLE
  5
186
100
AcDbEntity
  8
0
  6
Continuous
 62
               7
100
AcDbCircle
 10
633.32757706172652
 20
403.11607410911301
 30
0.0
 40
0.5
  0
CIRCLE
  5
187
100
AcDbEntity
  8
0
  6
Continuous
 62
               7
100
AcDbCircle
 10
634.85326199323345
 20
392.94484123240068
 30
0.0
 40
1.0
  0
CIRCLE
  5
188
100
AcDbEntity
  8
0
  6
Continuous
 62
               7
100
AcDbCircle
 10
633.58185788364426
 20
409.727375478976
 30
0.0
 40
0.1
  0
CIRCLE
  5
189
100
AcDbEntity
  8
0
  6
Continuous
 62
               7
100
AcDbCircle
 10
638.15891267816482
 20
398.28473849267471
 30
0.0
 40
0.5
  0
CIRCLE
  5
18A
100
AcDbEntity
  8
0
  6
Continuous
 62
               7
100
AcDbCircle
 10
641.12649687182238
 20
410.13451717542944
 30
0.0
 40
1.0
  0
CIRCLE
  5
18B
100
AcDbEntity
  8
0
  6
Continuous
 62
               7
100
AcDbCircle
 10
642.39790098141134
 20
399.9632842987171
 30
0.0
 40
0.1
  0
CIRCLE
  5
18C
100
AcDbEntity
  8
0
  6
Continuous
 62
               7
100
AcDbCircle
 10
648.24635988552086
 20
407.5917089562513
 30
0.0
 40
0.5
  0
CIRCLE
  5
18D
100
AcDbEntity
  8
0
  6
Continuous
 62
               7
100
AcDbCircle
 10
649.77204481702779
 20
397.42047607953896
 30
0.0
 40
1.0
  0
CIRCLE
  5
18E
100
AcDbEntity
  8
0
  6
Continuous
 62
               7
100
AcDbCircle
 10
648.50064070743883
 20
414.20301032611428
 30
0.0
 40
0.1
  0
CIRCLE
  5
18F
100
AcDbEntity
  8
0
  6
Continuous
 62
               7
100
AcDbCircle
 10
653.0776955019594
 20
402.76037333981299
 30
0.0
 40
0.5
  0
CIRCLE
  5
190
100
AcDbEntity
  8
0
  6
Continuous
 62
               7
100
AcDbCircle
 10
656.04527969561673
 20
414.61015202256772
 30
0.0
 40
1.0
  0
CIRCLE
  5
191
100
AcDbEntity
  8
0
  6
Continuous
 62
               7
100
AcDbCircle
 10
657.31668380520568
 20
404.43891914585538
 30
0.0
 40
0.1
  0
CIRCLE
  5
192
100
AcDbEntity
  8
0
  6
Continuous
 62
               7
100
AcDbCircle
 10
663.16514270931521
 20
412.0673438033898
 30
0.0
 40
0.5
  0
CIRCLE
  5
193
100
AcDbEntity
  8
0
  6
Continuous
 62
               7
100
AcDbCircle
 10
664.69082764082214
 20
401.89611092667747
 30
0.0
 40
1.0
  0
CIRCLE
  5
194
100
AcDbEntity
  8
0
  6
Continuous
 62
               7
100
AcDbCircle
 10
663.41942353123318
 20
418.67864517325279
 30
0.0
 40
0.1
  0
CIRCLE
  5
195
100
AcDbEntity
  8
0
  6
Continuous
 62
               7
100
AcDbCircle
 10
667.99647832575374
 20
407.23600818695127
 30
0.0
 40
0.5
  0
CIRCLE
  5
196
100
AcDbEntity
  8
0
  6
Continuous
 62
               7
100
AcDbCircle
 10
670.96406251941107
 20
419.08578686970623
 30
0.0
 40
1.0
  0
CIRCLE
  5
197
100
AcDbEntity
  8
0
  6
Continuous
 62
               7
100
AcDbCircle
 10
672.23546662900003
 20
408.91455399299389
 30
0.0
 40
0.1
  0
CIRCLE
  5
198
100
AcDbEntity
  8
0
  6
Continuous
 62
               7
100
AcDbCircle
 10
678.08392553310955
 20
416.54297865052808
 30
0.0
 40
0.5
  0
CIRCLE
  5
199
100
AcDbEntity
  8
0
  6
Continuous
 62
               7
100
AcDbCircle
 10
679.60961046461648
 20
406.37174577381575
 30
0.0
 40
1.0
  0
CIRCLE
  5
19A
100
AcDbEntity
  8
0
  6
Continuous
 62
               7
100
AcDbCircle
 10
678.33820635502752
 20
423.15428002039107
 30
0.0
 40
0.1
  0
CIRCLE
  5
19B
100
AcDbEntity
  8
0
  6
Continuous
 62
               7
100
AcDbCircle
 10
682.91526114954809
 20
411.71164303408978
 30
0.0
 40
0.5
  0
CIRCLE
  5
19C
100
AcDbEntity
  8
0
  6
Continuous
 62
               7
100
AcDbCircle
 10
685.88284534320542
 20
423.56142171684451
 30
0.0
 40
1.0
  0
CIRCLE
  5
19D
100
AcDbEntity
  8
0
  6
Continuous
 62
               7
100
AcDbCircle
 10
687.15424945279437
 20
413.39018884013217
 30
0.0
 40
0.1
  0
ARC
  5
19E
100
AcDbEntity
  8
0
  6
Continuous
 62
               6
100
AcDbCircle
 10
561.5213493351805
 20
246.61109322741947
 30
0.0
 40
2.0
100
AcDbArc
 50
196.69924423399354
 51
286.69924423399362
  0
ARC
  5
19F
100
AcDbEntity
  8
0
  6
Continuous
 62
               6
100
AcDbCircle
 10
605.58135845535344
 20
259.82909596347156
 30
0.0
 40
2.0
100
AcDbArc
 50
286.69924423399362
 51
16.699244233993603
  0
ARC
  5
1A0
100
AcDbEntity
  8
0
  6
Continuous
 62
               6
100
AcDbCircle
 10
533.93595232081134
 20
338.56241660865004
 30
0.0
 40
2.0
100
AcDbArc
 50
106.6992442339936
 51
196.69924423399354
  0
ARC
  5
1A1
100
AcDbEntity
  8
0
  6
Continuous
 62
               6
100
AcDbCircle
 10
577.99596144098427
 20
351.7804193447019
 30
0.0
 40
2.0
100
AcDbArc
 50
16.699244233993618
 51
106.6992442339936
  0
ARC
  5
1A2
100
AcDbEntity
  8
0
  6
Continuous
 62
               4
100
AcDbCircle
 10
438.82800035226916
 20
285.98750610689888
 30
0.0
 40
0.75
100
AcDbArc
 50
180.0
 51
0.0
  0
ARC
  5
1A3
100
AcDbEntity
  8
0
  6
Continuous
 62
               4
100
AcDbCircle
 10
413.91683230756553
 20
319.5221786816561
 30
0.0
 40
0.749999999999985
100
AcDbArc
 50
106.69924423399382
 51
286.69924423399311
  0
ARC
  5
1A4
100
AcDbEntity
  8
0
  6
Continuous
 62
               4
100
AcDbCircle
 10
413.91683230756558
 20
319.5221786816561
 30
0.0
 40
2.250000000000028
100
AcDbArc
 50
106.6992442339925
 51
286.69924423399249
  0
ARC
  5
1A5
100
AcDbEntity
  8
0
  6
Continuous
 62
               7
100
AcDbCircle
 10
231.23057085810404
 20
335.35918271290615
 30
0.0
 40
1.8
100
AcDbArc
 50
1.5275254422129296
 51
91.527525442212834
  0
ARC
  5
1A6
100
AcDbEntity
  8
0
  6
Continuous
 62
               7
100
AcDbCircle
 10
224.83284520074875
 20
335.18857669537664
 30
0.0
 40
1.8
100
AcDbArc
 50
91.527525442212834
 51
181.52752544221286
  0
ARC
  5
1A7
100
AcDbEntity
  8
0
  6
Continuous
 62
               7
100
AcDbCircle
 10
225.01692699995613
 20
320.78284303233812
 30
0.0
 40
1.6000000000000001
100
AcDbArc
 50
181.52752544221286
 51
278.28817526085123
  0
ARC
  5
1A8
100
AcDbEntity
  8
0
  6
Continuous
 62
               7
100
AcDbCircle
 10
225.70372862759925
 20
321.28711367038539
 30
0.0
 40
0.5
100
AcDbArc
 50
181.52752544221292
 51
278.28817526085135
  0
ARC
  5
1A9
100
AcDbEntity
  8
0
  6
Continuous
 62
               7
100
AcDbCircle
 10
225.34599611284912
 20
334.70208297351513
 30
0.0
 40
0.5
100
AcDbArc
 50
91.527525442212905
 51
181.52752544221292
  0
ARC
  5
1AA
100
AcDbEntity
  8
0
  6
Continuous
 62
               7
100
AcDbCircle
 10
230.74407713624265
 20
334.84603180080575
 30
0.0
 40
0.5
100
AcDbArc
 50
1.5275254422129296
 51
91.527525442212948
  0
ARC
  5
1AB
100
AcDbEntity
  8
0
  6
Continuous
 62
               7
100
AcDbCircle
 10
231.08474505271582
 20
322.07098493306233
 30
0.0
 40
0.5
100
AcDbArc
 50
278.2881752608514
 51
1.5275254422128894
  0
ARC
  5
1AC
100
AcDbEntity
  8
0
  6
Continuous
 62
               7
100
AcDbCircle
 10
231.151854668814
 20
319.55437432938055
 30
0.0
 40
0.5
100
AcDbArc
 50
1.5275254422129296
 51
98.288175260851261
  0
ARC
  5
1AD
100
AcDbEntity
  8
0
  6
Continuous
 62
               7
100
AcDbCircle
 10
382.92198156238663
 20
305.40752516390484
 30
0.0
 40
1.8
100
AcDbArc
 50
88.090847567002285
 51
178.09084756700364
  0
ARC
  5
1AE
100
AcDbEntity
  8
0
  6
Continuous
 62
               7
100
AcDbCircle
 10
391.11742979961571
 20
305.13434355599719
 30
0.0
 40
1.8
100
AcDbArc
 50
358.09084756700355
 51
88.090847567002356
  0
ARC
  5
1AF
100
AcDbEntity
  8
0
  6
Continuous
 62
               7
100
AcDbCircle
 10
390.84011756146731
 20
290.81164400362371
 30
0.0
 40
1.6000000000000001
100
AcDbArc
 50
258.71019883628782
 51
358.09084756700361
  0
ARC
  5
1B0
100
AcDbEntity
  8
0
  6
Continuous
 62
               7
100
AcDbCircle
 10
382.91707243130958
 20
290.25192021178935
 30
0.0
 40
0.5
100
AcDbArc
 50
78.710198836287773
 51
178.09084756700364
  0
ARC
  5
1B1
100
AcDbEntity
  8
0
  6
Continuous
 62
               7
100
AcDbCircle
 10
383.00148837876719
 20
292.78439863551574
 30
0.0
 40
0.5
100
AcDbArc
 50
178.09084756700364
 51
258.71019883628884
  0
ARC
  5
1B2
100
AcDbEntity
  8
0
  6
Continuous
 62
               7
100
AcDbCircle
 10
390.15786525052818
 20
291.35573810317527
 30
0.0
 40
0.5
100
AcDbArc
 50
258.71019883628884
 51
358.09084756700355
  0
ARC
  5
1B3
100
AcDbEntity
  8
0
  6
Continuous
 62
               7
100
AcDbCircle
 10
390.60104993100981
 20
304.65127851762389
 30
0.0
 40
0.5
100
AcDbArc
 50
358.09084756700355
 51
88.090847567002299
  0
ARC
  5
1B4
100
AcDbEntity
  8
0
  6
Continuous
 62
               7
100
AcDbCircle
 10
383.40504660075993
 20
304.89114529529905
 30
0.0
 40
0.5
100
AcDbArc
 50
88.090847567002228
 51
178.09084756700364
  0
ARC
  5
1B5
100
AcDbEntity
  8
0
  6
Continuous
 62
               7
100
AcDbCircle
 10
373.17861585372475
 20
193.20652614169006
 30
0.0
 40
6.0
100
AcDbArc
 50
269.99999856622691
 51
358.09084756700355
  0
ARC
  5
1B6
100
AcDbEntity
  8
0
  6
Continuous
 62
               7
100
AcDbCircle
 10
373.17861585372475
 20
193.20652614169006
 30
0.0
 40
4.1999999999999993
100
AcDbArc
 50
269.99999856622691
 51
358.09084756700355
  0
ARC
  5
1B7
100
AcDbEntity
  8
0
  6
Continuous
 62
               7
100
AcDbCircle
 10
241.02344123269043
 20
193.20652944874922
 30
0.0
 40
4.1999999999999993
100
AcDbArc
 50
181.52752544221292
 51
269.99999856622691
  0
ARC
  5
1B8
100
AcDbEntity
  8
0
  6
Continuous
 62
               7
100
AcDbCircle
 10
241.02344123269043
 20
193.20652944874922
 30
0.0
 40
6.0
100
AcDbArc
 50
181.52752544221292
 51
269.99999856622691
  0
ARC
  5
1B9
100
AcDbEntity
  8
0
  6
Continuous
 62
               6
100
AcDbCircle
 10
232.60102839306325
 20
185.20652965951211
 30
0.0
 40
4.5
100
AcDbArc
 50
181.52752544221292
 51
269.99999856622691
  0
ARC
  5
1BA
100
AcDbEntity
  8
0
  6
Continuous
 62
               6
100
AcDbCircle
 10
233.57471721941445
 20
186.20652963514652
 30
0.0
 40
1.0
100
AcDbArc
 50
181.52752544221292
 51
269.99999856622691
  0
ARC
  5
1BB
100
AcDbEntity
  8
0
  6
Continuous
 62
               6
100
AcDbCircle
 10
380.63380632588309
 20
186.20652595513087
 30
0.0
 40
1.0
100
AcDbArc
 50
269.99999856622691
 51
358.09084756700361
  0
ARC
  5
1BC
100
AcDbEntity
  8
0
  6
Continuous
 62
               6
100
AcDbCircle
 10
381.60102839306325
 20
185.20652593092694
 30
0.0
 40
4.5
100
AcDbArc
 50
269.99999856622691
 51
358.09084756700361
  0
ARC
  5
1BD
100
AcDbEntity
  8
0
  6
Continuous
 62
               6
100
AcDbCircle
 10
224.7084227812075
 20
312.36925076697747
 30
0.0
 40
4.5
100
AcDbArc
 50
1.5275254422129296
 51
66.37062226934323
  0
ARC
  5
1BE
100
AcDbEntity
  8
0
  6
Continuous
 62
               6
100
AcDbCircle
 10
221.47126093060919
 20
318.69732916315041
 30
0.0
 40
4.5
100
AcDbArc
 50
181.52752544221292
 51
246.37062226934327
  0
ARC
  5
1BF
100
AcDbEntity
  8
0
  6
Continuous
 62
               6
100
AcDbCircle
 10
222.74299598112552
 20
311.04609384244162
 30
0.0
 40
2.0
100
AcDbArc
 50
1.5275254422129296
 51
66.370622269343286
  0
ARC
  5
1C0
100
AcDbEntity
  8
0
  6
Continuous
 62
               6
100
AcDbCircle
 10
223.43668773069118
 20
320.02048608768604
 30
0.0
 40
2.0
100
AcDbArc
 50
181.527525442213
 51
246.37062226934322
  0
ARC
  5
1C1
100
AcDbEntity
  8
0
  6
Continuous
 62
               6
100
AcDbCircle
 10
389.63619961751232
 20
276.17835246636292
 30
0.0
 40
5.0
100
AcDbArc
 50
90.000000000000028
 51
178.09084756700364
  0
ARC
  5
1C2
100
AcDbEntity
  8
0
  6
Continuous
 62
               6
100
AcDbCircle
 10
389.63619961751232
 20
276.17835246636292
 30
0.0
 40
0.500000000000015
100
AcDbArc
 50
90.000000000000028
 51
178.09084756700364
  0
ARC
  5
1C3
100
AcDbEntity
  8
0
  6
Continuous
 62
               4
100
AcDbCircle
 10
352.66384164765088
 20
349.69370675011533
 30
0.0
 40
0.749999999999998
100
AcDbArc
 50
106.69924423399353
 51
286.69924423399345
  0
ARC
  5
1C4
100
AcDbEntity
  8
0
  6
Continuous
 62
               4
100
AcDbCircle
 10
372.78587826624863
 20
304.72229474752646
 30
0.0
 40
0.75
100
AcDbArc
 50
180.0
 51
0.0
  0
ARC
  5
1C5
100
AcDbEntity
  8
0
  6
Continuous
 62
               4
100
AcDbCircle
 10
352.59200467625925
 20
349.93316332142069
 30
0.0
 40
2.5000000000000639
100
AcDbArc
 50
106.69924423399382
 51
286.69924423408338
  0
TEXT
  5
1C6
100
AcDbEntity
  8
0
 62
               7
100
AcDbText
 10
339.3261155097702
 20
408.07321653526196
 30
0.0
 40
11.999999999999968
  1
20
 50
16.69924471509843
 41
0.7695
  7
FontTableH_0
 72
               5
 11
350.82003090347013
 21
411.52139125857093
 31
0.0
100
AcDbText
  0
TEXT
  5
1C7
100
AcDbEntity
  8
0
 62
               7
100
AcDbText
 10
334.44120103164732
 20
434.79656979218311
 30
0.0
 40
11.99999999999992
  1
30～50
 50
16.699244715097855
 41
0.7695
  7
FontTableH_0
 72
               5
 11
368.92294721274732
 21
445.14109396210966
 31
0.0
100
AcDbText
  0
TEXT
  5
1C8
100
AcDbEntity
  8
0
 62
               7
100
AcDbText
 10
414.89860425524859
 20
458.93379149565567
 30
0.0
 40
11.999999999999968
  1
100
 50
16.699244715098317
 41
0.7695
  7
FontTableH_0
 72
               5
 11
432.13947734579864
 21
464.10605358061912
 31
0.0
100
AcDbText
  0
TEXT
  5
1C9
100
AcDbEntity
  8
0
 62
               7
100
AcDbText
 10
664.37575138842953
 20
468.00300706634511
 30
0.0
 40
11.999999999999968
  1
30
 50
286.69924471509847
 41
0.7695
  7
FontTableH_0
 72
               5
 11
667.8239261117385
 21
456.50909167264518
 31
0.0
100
AcDbText
  0
TEXT
  5
1CA
100
AcDbEntity
  8
0
 62
               7
100
AcDbText
 10
671.55944861667422
 20
444.05735036941059
 30
0.0
 40
11.999999999999968
  1
12
 50
286.69924471509847
 41
0.7695
  7
FontTableH_0
 72
               5
 11
675.00762333998318
 21
432.56343497571066
 31
0.0
100
AcDbText
  0
TEXT
  5
1CB
100
AcDbEntity
  8
0
 62
               7
100
AcDbText
 10
677.88110227607399
 20
422.985172147627
 30
0.0
 40
11.999999999999968
  1
30
 50
286.69924471509847
 41
0.7695
  7
FontTableH_0
 72
               5
 11
681.32927699938296
 21
411.49125675392708
 31
0.0
100
AcDbText
  0
TEXT
  5
1CC
100
AcDbEntity
  8
0
 62
               7
100
AcDbText
 10
294.51539381838973
 20
280.37664968382853
 30
0.0
 40
12.000000000000012
  1
軒先唐草
 41
0.7695
  7
FontTableH_0
 72
               5
 11
342.51539381838978
 21
280.37664968382853
 31
0.0
100
AcDbText
  0
TEXT
  5
1CD
100
AcDbEntity
  8
0
 62
               7
100
AcDbText
 10
291.39337134140499
 20
219.46502635624927
 30
0.0
 40
12.000000000000012
  1
軒樋
 41
0.7695
  7
FontTableH_0
 72
               5
 11
315.39337134140516
 21
219.46502635624927
 31
0.0
100
AcDbText
  0
TEXT
  5
1CE
100
AcDbEntity
  8
0
 62
               7
100
AcDbText
 10
327.03587826624857
 20
323.7222947475264
 30
0.0
 40
12.000000000000012
  1
50
 50
90.000000000000028
 41
0.7695
  7
FontTableH_0
 72
               5
 11
327.03587826624857
 21
335.7222947475264
 31
0.0
100
AcDbText
  0
TEXT
  5
1CF
100
AcDbEntity
  8
0
 62
               7
100
AcDbText
 10
372.85615994142802
 20
144.52141734999401
 30
0.0
 40
12.000000000000012
  1
既存外壁
 41
0.7695
  7
FontTableH_0
 72
               5
 11
420.85615994142807
 21
144.52141734999401
 31
0.0
100
AcDbText
  0
TEXT
  5
1D0
100
AcDbEntity
  8
0
 62
               7
100
AcDbText
 10
610.45131375579672
 20
211.0073415765072
 30
0.0
 40
12.000000000000012
  1
既存母屋
 41
0.7695
  7
FontTableH_0
 72
               5
 11
658.45131375579672
 21
211.0073415765072
 31
0.0
100
AcDbText
  0
TEXT
  5
1D1
100
AcDbEntity
  8
0
 62
               7
100
AcDbText
 10
627.59675264039242
 20
314.6547849046886
 30
0.0
 40
12.000000000000012
  1
断熱材
 41
0.7695
  7
FontTableH_0
 72
               5
 11
663.59675264039242
 21
314.6547849046886
 31
0.0
100
AcDbText
  0
TEXT
  5
1D2
100
AcDbEntity
  8
0
 62
               7
100
AcDbText
 10
510.19611517505137
 20
497.5145376282552
 30
0.0
 40
11.999999999999842
  1
遮音材
 41
0.7695
  7
FontTableH_0
 72
               5
 11
546.19611517505155
 21
497.5145376282552
 31
0.0
100
AcDbText
  0
TEXT
  5
1D3
100
AcDbEntity
  8
0
 62
               7
100
AcDbText
 10
416.16068053010872
 20
531.6318825499734
 30
0.0
 40
12.000000000000012
  1
ハーパーズストロングルーフ385
 41
0.7695
  7
FontTableH_0
 72
               5
 11
590.16068053010906
 21
531.6318825499734
 31
0.0
100
AcDbText
  0
TEXT
  5
1D4
100
AcDbEntity
  8
0
 62
               7
100
AcDbText
 10
627.59675264039242
 20
329.65478490468854
 30
0.0
 40
12.000000000000695
  1
既存瓦棒葺屋根
 41
0.7695
  7
FontTableH_0
 72
               5
 11
711.59675264039254
 21
329.65478490468854
 31
0.0
100
AcDbText
  0
TEXT
  5
1D5
100
AcDbEntity
  8
0
 62
               7
100
AcDbText
 10
57.642136458195907
 20
601.35786449547766
 30
0.0
 40
8.9999997615814422
  1
ジンクロン瓦棒
 41
0.7695
  7
FontTableH_0
 72
               5
 11
120.64213478926601
 21
601.35786449547766
 31
0.0
100
AcDbText
  0
TEXT
  5
1D6
100
AcDbEntity
  8
0
 62
               7
100
AcDbText
 10
744.7867977564963
 20
26.71320355480508
 30
0.0
 40
8.9999997615814422
  1
軒先詳細図 【S=1/3】
 41
0.7695
  7
FontTableH_0
 72
               5
 11
834.78679537231073
 21
26.71320355480508
 31
0.0
100
AcDbText
  0
ENDSEC
  0
SECTION
  2
OBJECTS
  0
DICTIONARY
  5
19
100
AcDbDictionary
  3
ACAD_GROUP
350
1A
  3
ACAD_MLINESTYLE
350
1B
  3
DWGPROPS
350
1D7
  0
DICTIONARY
  5
1A
102
{ACAD_REACTORS
330
19
102
}
100
AcDbDictionary
  0
DICTIONARY
  5
1B
102
{ACAD_REACTORS
330
19
102
}
100
AcDbDictionary
  3
STANDARD
350
1C
  0
MLINESTYLE
  5
1C
102
{ACAD_REACTORS
330
1B
102
}
100
AcDbMlineStyle
  2
Standard
 70
               0
  3

 62
               0
 51
90.0
 52
90.0
 71
               2
 49
0.5
 62
             256
  6
ByLayer
 49
-0.5
 62
             256
  6
ByLayer
  0
XRECORD
  5
1D7
100
AcDbXrecord
  1
DWGPROPS COOKIE
  2

  3

  4

  6

  7

  0
ENDSEC
  0
EOF
