  0
SECTION
  2
HEADER
  9
$ACADVER
  1
AC1014
  9
$ACADMAINTVER
 70
               0
  9
$DWGCODEPAGE
  3
ANSI_932
  9
$INSBASE
 10
0.0
 20
0.0
 30
0.0
  9
$EXTMIN
 10
0.0
 20
0.0
 30
0.0
  9
$EXTMAX
 10
891.00000000000091
 20
630.00000000000068
 30
0.0
  9
$LIMMIN
 10
0.0
 20
0.0
  9
$LIMMAX
 10
891.00000000000091
 20
630.00000000000068
  9
$ORTHOMODE
 70
               0
  9
$REGENMODE
 70
               1
  9
$FILLMODE
 70
               1
  9
$QTEXTMODE
 70
               0
  9
$MIRRTEXT
 70
               1
  9
$DRAGMODE
 70
               2
  9
$LTSCALE
 40
3.0000000000000031
  9
$OSMODE
 70
               0
  9
$ATTMODE
 70
               1
  9
$TEXTSIZE
 40
0.2
  9
$TRACEWID
 40
0.05
  9
$TEXTSTYLE
  7
Standard
  9
$CLAYER
  8
0
  9
$CELTYPE
  6
Continuous
  9
$CECOLOR
 62
             256
  9
$CELTSCALE
 40
1.0
  9
$DELOBJ
 70
               1
  9
$DISPSILH
 70
               0
  9
$DIMSCALE
 40
1.0
  9
$DIMASZ
 40
0.18
  9
$DIMEXO
 40
0.0625
  9
$DIMDLI
 40
0.38
  9
$DIMRND
 40
0.0
  9
$DIMDLE
 40
0.0
  9
$DIMEXE
 40
0.18
  9
$DIMTP
 40
0.0
  9
$DIMTM
 40
0.0
  9
$DIMTXT
 40
0.18
  9
$DIMCEN
 40
0.09
  9
$DIMTSZ
 40
0.0
  9
$DIMTOL
 70
               0
  9
$DIMLIM
 70
               0
  9
$DIMTIH
 70
               1
  9
$DIMTOH
 70
               1
  9
$DIMSE1
 70
               0
  9
$DIMSE2
 70
               0
  9
$DIMTAD
 70
               0
  9
$DIMZIN
 70
               0
  9
$DIMBLK
  1

  9
$DIMASO
 70
               1
  9
$DIMSHO
 70
               1
  9
$DIMPOST
  1

  9
$DIMAPOST
  1

  9
$DIMALT
 70
               0
  9
$DIMALTD
 70
               2
  9
$DIMALTF
 40
25.399999999999999
  9
$DIMLFAC
 40
1.0
  9
$DIMTOFL
 70
               0
  9
$DIMTVP
 40
0.0
  9
$DIMTIX
 70
               0
  9
$DIMSOXD
 70
               0
  9
$DIMSAH
 70
               0
  9
$DIMBLK1
  1

  9
$DIMBLK2
  1

  9
$DIMSTYLE
  2
Standard
  9
$DIMCLRD
 70
               0
  9
$DIMCLRE
 70
               0
  9
$DIMCLRT
 70
               0
  9
$DIMTFAC
 40
1.0
  9
$DIMGAP
 40
0.09
  9
$DIMJUST
 70
               0
  9
$DIMSD1
 70
               0
  9
$DIMSD2
 70
               0
  9
$DIMTOLJ
 70
               1
  9
$DIMTZIN
 70
               0
  9
$DIMALTZ
 70
               0
  9
$DIMALTTZ
 70
               0
  9
$DIMFIT
 70
               3
  9
$DIMUPT
 70
               0
  9
$DIMUNIT
 70
               2
  9
$DIMDEC
 70
               4
  9
$DIMTDEC
 70
               4
  9
$DIMALTU
 70
               2
  9
$DIMALTTD
 70
               2
  9
$DIMTXSTY
  7
Standard
  9
$DIMAUNIT
 70
               0
  9
$LUNITS
 70
               2
  9
$LUPREC
 70
               4
  9
$SKETCHINC
 40
0.1
  9
$FILLETRAD
 40
0.0
  9
$AUNITS
 70
               0
  9
$AUPREC
 70
               0
  9
$MENU
  1
acad
  9
$ELEVATION
 40
0.0
  9
$PELEVATION
 40
0.0
  9
$THICKNESS
 40
0.0
  9
$LIMCHECK
 70
               0
  9
$BLIPMODE
 70
               1
  9
$CHAMFERA
 40
0.0
  9
$CHAMFERB
 40
0.0
  9
$CHAMFERC
 40
0.0
  9
$CHAMFERD
 40
0.0
  9
$SKPOLY
 70
               0
  9
$TDCREATE
 40
0.000000000
  9
$TDUPDATE
 40
0.000000000
  9
$TDINDWG
 40
0.0000000000
  9
$TDUSRTIMER
 40
0.0000000000
  9
$USRTIMER
 70
               1
  9
$ANGBASE
 50
0.0
  9
$ANGDIR
 70
               0
  9
$PDMODE
 70
               0
  9
$PDSIZE
 40
0.0
  9
$PLINEWID
 40
0.0
  9
$COORDS
 70
               0
  9
$SPLFRAME
 70
               0
  9
$SPLINETYPE
 70
               6
  9
$SPLINESEGS
 70
               8
  9
$ATTDIA
 70
               0
  9
$ATTREQ
 70
               1
  9
$HANDLING
 70
               1
  9
$HANDSEED
  5
2C7
  9
$SURFTAB1
 70
               6
  9
$SURFTAB2
 70
               6
  9
$SURFTYPE
 70
               6
  9
$SURFU
 70
               6
  9
$SURFV
 70
               6
  9
$UCSNAME
  2

  9
$UCSORG
 10
0.0
 20
0.0
 30
0.0
  9
$UCSXDIR
 10
1.0
 20
0.0
 30
0.0
  9
$UCSYDIR
 10
0.0
 20
1.0
 30
0.0
  9
$PUCSNAME
  2

  9
$PUCSORG
 10
0.0
 20
0.0
 30
0.0
  9
$PUCSXDIR
 10
1.0
 20
0.0
 30
0.0
  9
$PUCSYDIR
 10
0.0
 20
1.0
 30
0.0
  9
$USERI1
 70
               0
  9
$USERI2
 70
               0
  9
$USERI3
 70
               0
  9
$USERI4
 70
               0
  9
$USERI5
 70
               0
  9
$USERR1
 40
0.0
  9
$USERR2
 40
0.0
  9
$USERR3
 40
0.0
  9
$USERR4
 40
0.0
  9
$USERR5
 40
0.0
  9
$WORLDVIEW
 70
               1
  9
$SHADEDGE
 70
               3
  9
$SHADEDIF
 70
              70
  9
$TILEMODE
 70
               1
  9
$MAXACTVP
 70
              16
  9
$PINSBASE
 10
0.0
 20
0.0
 30
0.0
  9
$PLIMCHECK
 70
               0
  9
$PEXTMIN
 10
1.0000000000000000E+20
 20
1.0000000000000000E+20
 30
1.0000000000000000E+20
  9
$PEXTMAX
 10
-1.0000000000000000E+20
 20
-1.0000000000000000E+20
 30
-1.0000000000000000E+20
  9
$PLIMMIN
 10
0.0
 20
0.0
  9
$PLIMMAX
 10
12.0
 20
9.0
  9
$UNITMODE
 70
               0
  9
$VISRETAIN
 70
               0
  9
$PLINEGEN
 70
               1
  9
$PSLTSCALE
 70
               0
  9
$TREEDEPTH
 70
            3020
  9
$PICKSTYLE
 70
               1
  9
$CMLSTYLE
  2
Standard
  9
$CMLJUST
 70
               0
  9
$CMLSCALE
 40
1.0
  9
$PROXYGRAPHICS
 70
               0
  9
$MEASUREMENT
 70
               0
  0
ENDSEC
  0
SECTION
  2
CLASSES
  0
CLASS
  1
LWPOLYLINE
  2
AcDbPolyline
  3
"AutoCAD"
 90
        0
280
               0
281
               1
  0
CLASS
  1
IMAGE
  2
AcDbRasterImage
  3
ISM
 90
      127
280
               0
281
               1
  0
CLASS
  1
OLE2FRAME
  2
AcDbOle2Frame
  3
""
 90
        0
280
               0
281
               1
  0
CLASS
  1
HATCH
  2
AcDbHatch
  3
"ACAD_SEDONA"
 90
        0
280
               0
281
               1
  0
CLASS
  1
DICTIONARYVAR
  2
AcDbDictionaryVar
  3
"AutoCAD"
 90
        0
280
               0
281
               0
  0
CLASS
  1
RASTERVARIABLES
  2
AcDbRasterVariables
  3
ISM
 90
        0
280
               0
281
               0
  0
CLASS
  1
IMAGEDEF
  2
AcDbRasterImageDef
  3
ISM
 90
        0
280
               0
281
               0
  0
CLASS
  1
IMAGEDEF_REACTOR
  2
AcDbRasterImageDefReactor
  3
ISM
 90
        1
280
               0
281
               0
  0
CLASS
  1
IDBUFFER
  2
AcDbIdBuffer
  3
"Acad"
 90
        0
280
               0
281
               0
  0
CLASS
  1
SPATIAL_FILTER
  2
AcDbSpatialFilter
  3
"Acad"
 90
        0
280
               0
281
               0
  0
CLASS
  1
XRECORD
  2
AcDbXrecord
  3
"<Built In>"
 90
        0
280
               0
281
               0
  0
CLASS
  1
SORTENTSTABLE
  2
AcDbSortentsTable
  3
"AutoCAD"
 90
        0
280
               0
281
               0
  0
CLASS
  1
LAYER_INDEX
  2
AcDbLayerIndex
  3
"Acad"
 90
        0
280
               0
281
               0
  0
CLASS
  1
SPATIAL_INDEX
  2
AcDbSpatialIndex
  3
"Acad"
 90
        0
280
               0
281
               0
  0
CLASS
  1
OBJECT_PTR
  2
CAseDLPNTableRecord
  3
"ASE-LPNTableRecord"
 90
        1
280
               0
281
               0
  0
CLASS
  1
LAYOUT
  2
AcDbLayout
  3
"AutoCAD 2000"
 90
        0
280
               0
281
               0
  0
CLASS
  1
PLOTSETTINGS
  2
AcDbPlotSettings
  3
"AutoCAD 2000"
 90
        0
280
               0
281
               0
  0
CLASS
  1
ACDBDICTIONARYWDFLT
  2
AcDbDictionaryWithDefault
  3
"AutoCAD 2000"
 90
        0
280
               0
281
               0
  0
CLASS
  1
ACDBPLACEHOLDER
  2
AcDbPlaceHolder
  3
"AutoCAD 2000"
 90
        0
280
               0
281
               0
  0
CLASS
  1
VBA_PROJECT
  2
AcDbVbaProject
  3
"acadvba"
 90
        0
280
               0
281
               0
  0
CLASS
  1
WIPEOUT
  2
AcDbWipeout
  3
WipeOut|AutoCAD Express Tool|expresstools@autodesk.com
 90
      127
280
               0
281
               1
  0
CLASS
  1
WIPEOUTVARIABLES
  2
AcDbWipeoutVariables
  3
WipeOut|AutoCAD Express Tool|expresstools@autodesk.com
 90
        0
280
               0
281
               0
  0
CLASS
  1
RTEXT
  2
RText
  3
RText|AutoCAD Express Tool|expresstools@autodesk.com
 90
        0
280
               0
281
               1
  0
CLASS
  1
ARCALIGNEDTEXT
  2
AcDbArcAlignedText
  3
ATEXT|AutoCAD Express Tool|expresstools@autodesk.com
 90
        0
280
               0
281
               1
  0
ENDSEC
  0
SECTION
  2
TABLES
  0
TABLE
  2
VPORT
  5
7
100
AcDbSymbolTable
 70
               1
  0
VPORT
  5
15
100
AcDbSymbolTableRecord
100
AcDbViewportTableRecord
  2
*ACTIVE
 70
               0
 10
0.0
 20
0.0
 11
1.0
 21
1.0
 12
445.50000000000045
 22
315.00000000000034
 13
0.0
 23
0.0
 14
10.0
 24
10.0
 15
10.0
 25
10.0
 16
0.0
 26
0.0
 36
1.0
 17
0.0
 27
0.0
 37
0.0
 40
630.00000000000068
 41
1.4142857142857141
 42
50.0
 43
0.0
 44
0.0
 50
0.0
 51
0.0
 71
               0
 72
             100
 73
               1
 74
               1
 75
               0
 76
               0
 77
               0
 78
               0
  0
ENDTAB
  0
TABLE
  2
LTYPE
  5
4
100
AcDbSymbolTable
 70
              24
  0
LTYPE
  5
11
100
AcDbSymbolTableRecord
100
AcDbLinetypeTableRecord
  2
ByBlock
 70
              64
  3

 72
              65
 73
               0
 40
0.0
  0
LTYPE
  5
12
100
AcDbSymbolTableRecord
100
AcDbLinetypeTableRecord
  2
ByLayer
 70
              64
  3

 72
              65
 73
               0
 40
0.0
  0
LTYPE
  5
13
100
AcDbSymbolTableRecord
100
AcDbLinetypeTableRecord
  2
Continuous
 70
              64
  3
Solid line
 72
              65
 73
               0
 40
0.0
  0
LTYPE
  5
1D
100
AcDbSymbolTableRecord
100
AcDbLinetypeTableRecord
  2
DOT
 70
              64
  3
Dot . . . . . . . . . . . . . . . . . . . . . .
 72
              65
 73
               2
 40
6.3499999999999996
 49
0.35
 74
               0
 49
-6.0
 74
               0
  0
LTYPE
  5
1E
100
AcDbSymbolTableRecord
100
AcDbLinetypeTableRecord
  2
DASHED
 70
              64
  3
Dashed __ __ __ __ __ __ __ __ __ __ __ __ __ _
 72
              65
 73
               2
 40
12.699999999999999
 49
6.3499999999999996
 74
               0
 49
-6.3499999999999996
 74
               0
  0
LTYPE
  5
1F
100
AcDbSymbolTableRecord
100
AcDbLinetypeTableRecord
  2
DASHDOT
 70
              64
  3
Dash dot __ . __ . __ . __ . __ . __ . __ . __
 72
              65
 73
               4
 40
25.399999999999999
 49
12.699999999999999
 74
               0
 49
-6.0
 74
               0
 49
0.7
 74
               0
 49
-6.0
 74
               0
  0
LTYPE
  5
20
100
AcDbSymbolTableRecord
100
AcDbLinetypeTableRecord
  2
DIVIDE
 70
              64
  3
Divide ____ . . ____ . . ____ . . ____ . . ____
 72
              65
 73
               6
 40
31.75
 49
12.699999999999999
 74
               0
 49
-6.0
 74
               0
 49
0.875
 74
               0
 49
-6.0
 74
               0
 49
0.875
 74
               0
 49
-6.0
 74
               0
  0
LTYPE
  5
21
100
AcDbSymbolTableRecord
100
AcDbLinetypeTableRecord
  2
HIDDEN
 70
              64
  3
Hidden __ __ __ __ __ __ __ __ __ __ __ __ __ _
 72
              65
 73
               2
 40
9.5250000000000004
 49
6.3499999999999996
 74
               0
 49
-3.1749999999999998
 74
               0
  0
LTYPE
  5
22
100
AcDbSymbolTableRecord
100
AcDbLinetypeTableRecord
  2
CENTER
 70
              64
  3
Center ____ _ ____ _ ____ _ ____ _ ____ _ ____
 72
              65
 73
               4
 40
50.799999999999997
 49
31.75
 74
               0
 49
-6.3499999999999996
 74
               0
 49
6.3499999999999996
 74
               0
 49
-6.3499999999999996
 74
               0
  0
LTYPE
  5
23
100
AcDbSymbolTableRecord
100
AcDbLinetypeTableRecord
  2
PHANTOM
 70
              64
  3
Phantom ______  __  __  ______  __  __  ______
 72
              65
 73
               6
 40
63.5
 49
31.75
 74
               0
 49
-6.3499999999999996
 74
               0
 49
6.3499999999999996
 74
               0
 49
-6.3499999999999996
 74
               0
 49
6.3499999999999996
 74
               0
 49
-6.3499999999999996
 74
               0
  0
LTYPE
  5
24
100
AcDbSymbolTableRecord
100
AcDbLinetypeTableRecord
  2
ACAD_ISO02W100
 70
              64
  3
ISO dash __ __ __ __ __ __ __ __ __ __ __ __ __
 72
              65
 73
               2
 40
15.0
 49
12.0
 74
               0
 49
-3.0
 74
               0
  0
LTYPE
  5
25
100
AcDbSymbolTableRecord
100
AcDbLinetypeTableRecord
  2
ACAD_ISO03W100
 70
              64
  3
ISO dash space __ __ __ __ __ __ __ __ __ __ __ __ __ __
 72
              65
 73
               2
 40
30.0
 49
12.0
 74
               0
 49
-18.0
 74
               0
  0
LTYPE
  5
26
100
AcDbSymbolTableRecord
100
AcDbLinetypeTableRecord
  2
ACAD_ISO04W100
 70
              64
  3
ISO long-dash dot ____ . ____ . ____ . ____ . _
 72
              65
 73
               4
 40
30.0
 49
24.0
 74
               0
 49
-3.0
 74
               0
 49
0.0
 74
               0
 49
-3.0
 74
               0
  0
LTYPE
  5
27
100
AcDbSymbolTableRecord
100
AcDbLinetypeTableRecord
  2
ACAD_ISO05W100
 70
              64
  3
ISO long-dash double-dot ____ .. ____ .. ____ .
 72
              65
 73
               6
 40
33.0
 49
24.0
 74
               0
 49
-3.0
 74
               0
 49
0.0
 74
               0
 49
-3.0
 74
               0
 49
0.0
 74
               0
 49
-3.0
 74
               0
  0
LTYPE
  5
28
100
AcDbSymbolTableRecord
100
AcDbLinetypeTableRecord
  2
ACAD_ISO06W100
 70
              64
  3
ISO long-dash triple-dot ____ ... ____ ... ____
 72
              65
 73
               8
 40
36.0
 49
24.0
 74
               0
 49
-3.0
 74
               0
 49
0.0
 74
               0
 49
-3.0
 74
               0
 49
0.0
 74
               0
 49
-3.0
 74
               0
 49
0.0
 74
               0
 49
-3.0
 74
               0
  0
LTYPE
  5
29
100
AcDbSymbolTableRecord
100
AcDbLinetypeTableRecord
  2
ACAD_ISO07W100
 70
              64
  3
ISO dot . . . . . . . . . . . . . . . . . . . .
 72
              65
 73
               2
 40
3.0
 49
0.0
 74
               0
 49
-3.0
 74
               0
  0
LTYPE
  5
2A
100
AcDbSymbolTableRecord
100
AcDbLinetypeTableRecord
  2
ACAD_ISO08W100
 70
              64
  3
ISO long-dash short-dash ____ __ ____ __ ____ _
 72
              65
 73
               4
 40
36.0
 49
24.0
 74
               0
 49
-3.0
 74
               0
 49
6.0
 74
               0
 49
-3.0
 74
               0
  0
LTYPE
  5
2B
100
AcDbSymbolTableRecord
100
AcDbLinetypeTableRecord
  2
ACAD_ISO09W100
 70
              64
  3
ISO long-dash double-short-dash ____ __ __ ____
 72
              65
 73
               6
 40
45.0
 49
24.0
 74
               0
 49
-3.0
 74
               0
 49
6.0
 74
               0
 49
-3.0
 74
               0
 49
6.0
 74
               0
 49
-3.0
 74
               0
  0
LTYPE
  5
2C
100
AcDbSymbolTableRecord
100
AcDbLinetypeTableRecord
  2
ACAD_ISO10W100
 70
              64
  3
ISO dash dot __ . __ . __ . __ . __ . __ . __ .
 72
              65
 73
               4
 40
18.0
 49
12.0
 74
               0
 49
-3.0
 74
               0
 49
0.0
 74
               0
 49
-3.0
 74
               0
  0
LTYPE
  5
2D
100
AcDbSymbolTableRecord
100
AcDbLinetypeTableRecord
  2
ACAD_ISO11W100
 70
              64
  3
ISO double-dash dot __ __ . __ __ . __ __ . __ 
 72
              65
 73
               6
 40
33.0
 49
12.0
 74
               0
 49
-3.0
 74
               0
 49
12.0
 74
               0
 49
-3.0
 74
               0
 49
0.0
 74
               0
 49
-3.0
 74
               0
  0
LTYPE
  5
2E
100
AcDbSymbolTableRecord
100
AcDbLinetypeTableRecord
  2
ACAD_ISO12W100
 70
              64
  3
ISO dash double-dot __ . . __ . . __ . . __ . .
 72
              65
 73
               6
 40
21.0
 49
12.0
 74
               0
 49
-3.0
 74
               0
 49
0.0
 74
               0
 49
-3.0
 74
               0
 49
0.0
 74
               0
 49
-3.0
 74
               0
  0
LTYPE
  5
2F
100
AcDbSymbolTableRecord
100
AcDbLinetypeTableRecord
  2
ACAD_ISO13W100
 70
              64
  3
ISO double-dash double-dot __ __ . . __ __ . . 
 72
              65
 73
               8
 40
36.0
 49
12.0
 74
               0
 49
-3.0
 74
               0
 49
12.0
 74
               0
 49
-3.0
 74
               0
 49
0.0
 74
               0
 49
-3.0
 74
               0
 49
0.0
 74
               0
 49
-3.0
 74
               0
  0
LTYPE
  5
30
100
AcDbSymbolTableRecord
100
AcDbLinetypeTableRecord
  2
ACAD_ISO14W100
 70
              64
  3
ISO dash triple-dot __ . . . __ . . . __ . . . 
 72
              65
 73
               8
 40
24.0
 49
12.0
 74
               0
 49
-3.0
 74
               0
 49
0.0
 74
               0
 49
-3.0
 74
               0
 49
0.0
 74
               0
 49
-3.0
 74
               0
 49
0.0
 74
               0
 49
-3.0
 74
               0
  0
LTYPE
  5
31
100
AcDbSymbolTableRecord
100
AcDbLinetypeTableRecord
  2
ACAD_ISO15W100
 70
              64
  3
ISO double-dash double-dot __ __ . . __ __ . . 
 72
              65
 73
              10
 40
39.0
 49
12.0
 74
               0
 49
-3.0
 74
               0
 49
12.0
 74
               0
 49
-3.0
 74
               0
 49
0.0
 74
               0
 49
-3.0
 74
               0
 49
0.0
 74
               0
 49
-3.0
 74
               0
 49
0.0
 74
               0
 49
-3.0
 74
               0
  0
ENDTAB
  0
TABLE
  2
LAYER
  5
2
100
AcDbSymbolTable
 70
             256
  0
LAYER
  5
14
100
AcDbSymbolTableRecord
100
AcDbLayerTableRecord
  2
0
 70
               0
 62
               7
  6
Continuous
  0
LAYER
  5
35
100
AcDbSymbolTableRecord
100
AcDbLayerTableRecord
  2
Layer00001
 70
               0
 62
              -7
  6
Continuous
  0
LAYER
  5
36
100
AcDbSymbolTableRecord
100
AcDbLayerTableRecord
  2
Layer00002
 70
               0
 62
              -7
  6
Continuous
  0
LAYER
  5
37
100
AcDbSymbolTableRecord
100
AcDbLayerTableRecord
  2
Layer00003
 70
               0
 62
              -7
  6
Continuous
  0
LAYER
  5
38
100
AcDbSymbolTableRecord
100
AcDbLayerTableRecord
  2
Layer00004
 70
               0
 62
              -7
  6
Continuous
  0
LAYER
  5
39
100
AcDbSymbolTableRecord
100
AcDbLayerTableRecord
  2
Layer00005
 70
               0
 62
              -7
  6
Continuous
  0
LAYER
  5
3A
100
AcDbSymbolTableRecord
100
AcDbLayerTableRecord
  2
Layer00006
 70
               0
 62
              -7
  6
Continuous
  0
LAYER
  5
3B
100
AcDbSymbolTableRecord
100
AcDbLayerTableRecord
  2
Layer00007
 70
               0
 62
              -7
  6
Continuous
  0
LAYER
  5
3C
100
AcDbSymbolTableRecord
100
AcDbLayerTableRecord
  2
Layer00008
 70
               0
 62
              -7
  6
Continuous
  0
LAYER
  5
3D
100
AcDbSymbolTableRecord
100
AcDbLayerTableRecord
  2
Layer00009
 70
               0
 62
              -7
  6
Continuous
  0
LAYER
  5
3E
100
AcDbSymbolTableRecord
100
AcDbLayerTableRecord
  2
Layer00010
 70
               0
 62
              -7
  6
Continuous
  0
LAYER
  5
3F
100
AcDbSymbolTableRecord
100
AcDbLayerTableRecord
  2
Layer00011
 70
               0
 62
              -7
  6
Continuous
  0
LAYER
  5
40
100
AcDbSymbolTableRecord
100
AcDbLayerTableRecord
  2
Layer00012
 70
               0
 62
              -7
  6
Continuous
  0
LAYER
  5
41
100
AcDbSymbolTableRecord
100
AcDbLayerTableRecord
  2
Layer00013
 70
               0
 62
              -7
  6
Continuous
  0
LAYER
  5
42
100
AcDbSymbolTableRecord
100
AcDbLayerTableRecord
  2
Layer00014
 70
               0
 62
              -7
  6
Continuous
  0
LAYER
  5
43
100
AcDbSymbolTableRecord
100
AcDbLayerTableRecord
  2
Layer00015
 70
               0
 62
              -7
  6
Continuous
  0
LAYER
  5
44
100
AcDbSymbolTableRecord
100
AcDbLayerTableRecord
  2
Layer00016
 70
               0
 62
               7
  6
Continuous
  0
LAYER
  5
45
100
AcDbSymbolTableRecord
100
AcDbLayerTableRecord
  2
Layer00017
 70
               0
 62
              -7
  6
Continuous
  0
LAYER
  5
46
100
AcDbSymbolTableRecord
100
AcDbLayerTableRecord
  2
Layer00018
 70
               0
 62
              -7
  6
Continuous
  0
LAYER
  5
47
100
AcDbSymbolTableRecord
100
AcDbLayerTableRecord
  2
Layer00019
 70
               0
 62
              -7
  6
Continuous
  0
LAYER
  5
48
100
AcDbSymbolTableRecord
100
AcDbLayerTableRecord
  2
Layer00020
 70
               0
 62
              -7
  6
Continuous
  0
LAYER
  5
49
100
AcDbSymbolTableRecord
100
AcDbLayerTableRecord
  2
Layer00021
 70
               0
 62
              -7
  6
Continuous
  0
LAYER
  5
4A
100
AcDbSymbolTableRecord
100
AcDbLayerTableRecord
  2
Layer00022
 70
               0
 62
              -7
  6
Continuous
  0
LAYER
  5
4B
100
AcDbSymbolTableRecord
100
AcDbLayerTableRecord
  2
Layer00023
 70
               0
 62
              -7
  6
Continuous
  0
LAYER
  5
4C
100
AcDbSymbolTableRecord
100
AcDbLayerTableRecord
  2
Layer00024
 70
               0
 62
              -7
  6
Continuous
  0
LAYER
  5
4D
100
AcDbSymbolTableRecord
100
AcDbLayerTableRecord
  2
Layer00025
 70
               0
 62
              -7
  6
Continuous
  0
LAYER
  5
4E
100
AcDbSymbolTableRecord
100
AcDbLayerTableRecord
  2
Layer00026
 70
               0
 62
              -7
  6
Continuous
  0
LAYER
  5
4F
100
AcDbSymbolTableRecord
100
AcDbLayerTableRecord
  2
Layer00027
 70
               0
 62
              -7
  6
Continuous
  0
LAYER
  5
50
100
AcDbSymbolTableRecord
100
AcDbLayerTableRecord
  2
Layer00028
 70
               0
 62
              -7
  6
Continuous
  0
LAYER
  5
51
100
AcDbSymbolTableRecord
100
AcDbLayerTableRecord
  2
Layer00029
 70
               0
 62
              -7
  6
Continuous
  0
LAYER
  5
52
100
AcDbSymbolTableRecord
100
AcDbLayerTableRecord
  2
Layer00030
 70
               0
 62
              -7
  6
Continuous
  0
LAYER
  5
53
100
AcDbSymbolTableRecord
100
AcDbLayerTableRecord
  2
Layer00031
 70
               0
 62
              -7
  6
Continuous
  0
LAYER
  5
54
100
AcDbSymbolTableRecord
100
AcDbLayerTableRecord
  2
Layer00032
 70
               0
 62
               7
  6
Continuous
  0
LAYER
  5
55
100
AcDbSymbolTableRecord
100
AcDbLayerTableRecord
  2
Layer00033
 70
               0
 62
              -7
  6
Continuous
  0
LAYER
  5
56
100
AcDbSymbolTableRecord
100
AcDbLayerTableRecord
  2
Layer00034
 70
               0
 62
              -7
  6
Continuous
  0
LAYER
  5
57
100
AcDbSymbolTableRecord
100
AcDbLayerTableRecord
  2
Layer00035
 70
               0
 62
              -7
  6
Continuous
  0
LAYER
  5
58
100
AcDbSymbolTableRecord
100
AcDbLayerTableRecord
  2
Layer00036
 70
               0
 62
              -7
  6
Continuous
  0
LAYER
  5
59
100
AcDbSymbolTableRecord
100
AcDbLayerTableRecord
  2
Layer00037
 70
               0
 62
              -7
  6
Continuous
  0
LAYER
  5
5A
100
AcDbSymbolTableRecord
100
AcDbLayerTableRecord
  2
Layer00038
 70
               0
 62
              -7
  6
Continuous
  0
LAYER
  5
5B
100
AcDbSymbolTableRecord
100
AcDbLayerTableRecord
  2
Layer00039
 70
               0
 62
              -7
  6
Continuous
  0
LAYER
  5
5C
100
AcDbSymbolTableRecord
100
AcDbLayerTableRecord
  2
Layer00040
 70
               0
 62
              -7
  6
Continuous
  0
LAYER
  5
5D
100
AcDbSymbolTableRecord
100
AcDbLayerTableRecord
  2
Layer00041
 70
               0
 62
              -7
  6
Continuous
  0
LAYER
  5
5E
100
AcDbSymbolTableRecord
100
AcDbLayerTableRecord
  2
Layer00042
 70
               0
 62
              -7
  6
Continuous
  0
LAYER
  5
5F
100
AcDbSymbolTableRecord
100
AcDbLayerTableRecord
  2
Layer00043
 70
               0
 62
              -7
  6
Continuous
  0
LAYER
  5
60
100
AcDbSymbolTableRecord
100
AcDbLayerTableRecord
  2
Layer00044
 70
               0
 62
              -7
  6
Continuous
  0
LAYER
  5
61
100
AcDbSymbolTableRecord
100
AcDbLayerTableRecord
  2
Layer00045
 70
               0
 62
              -7
  6
Continuous
  0
LAYER
  5
62
100
AcDbSymbolTableRecord
100
AcDbLayerTableRecord
  2
Layer00046
 70
               0
 62
              -7
  6
Continuous
  0
LAYER
  5
63
100
AcDbSymbolTableRecord
100
AcDbLayerTableRecord
  2
Layer00047
 70
               0
 62
              -7
  6
Continuous
  0
LAYER
  5
64
100
AcDbSymbolTableRecord
100
AcDbLayerTableRecord
  2
Layer00048
 70
               0
 62
               7
  6
Continuous
  0
LAYER
  5
65
100
AcDbSymbolTableRecord
100
AcDbLayerTableRecord
  2
Layer00049
 70
               0
 62
              -7
  6
Continuous
  0
LAYER
  5
66
100
AcDbSymbolTableRecord
100
AcDbLayerTableRecord
  2
Layer00050
 70
               0
 62
              -7
  6
Continuous
  0
LAYER
  5
67
100
AcDbSymbolTableRecord
100
AcDbLayerTableRecord
  2
Layer00051
 70
               0
 62
              -7
  6
Continuous
  0
LAYER
  5
68
100
AcDbSymbolTableRecord
100
AcDbLayerTableRecord
  2
Layer00052
 70
               0
 62
              -7
  6
Continuous
  0
LAYER
  5
69
100
AcDbSymbolTableRecord
100
AcDbLayerTableRecord
  2
Layer00053
 70
               0
 62
              -7
  6
Continuous
  0
LAYER
  5
6A
100
AcDbSymbolTableRecord
100
AcDbLayerTableRecord
  2
Layer00054
 70
               0
 62
              -7
  6
Continuous
  0
LAYER
  5
6B
100
AcDbSymbolTableRecord
100
AcDbLayerTableRecord
  2
Layer00055
 70
               0
 62
              -7
  6
Continuous
  0
LAYER
  5
6C
100
AcDbSymbolTableRecord
100
AcDbLayerTableRecord
  2
Layer00056
 70
               0
 62
              -7
  6
Continuous
  0
LAYER
  5
6D
100
AcDbSymbolTableRecord
100
AcDbLayerTableRecord
  2
Layer00057
 70
               0
 62
              -7
  6
Continuous
  0
LAYER
  5
6E
100
AcDbSymbolTableRecord
100
AcDbLayerTableRecord
  2
Layer00058
 70
               0
 62
              -7
  6
Continuous
  0
LAYER
  5
6F
100
AcDbSymbolTableRecord
100
AcDbLayerTableRecord
  2
Layer00059
 70
               0
 62
              -7
  6
Continuous
  0
LAYER
  5
70
100
AcDbSymbolTableRecord
100
AcDbLayerTableRecord
  2
Layer00060
 70
               0
 62
              -7
  6
Continuous
  0
LAYER
  5
71
100
AcDbSymbolTableRecord
100
AcDbLayerTableRecord
  2
Layer00061
 70
               0
 62
              -7
  6
Continuous
  0
LAYER
  5
72
100
AcDbSymbolTableRecord
100
AcDbLayerTableRecord
  2
Layer00062
 70
               0
 62
              -7
  6
Continuous
  0
LAYER
  5
73
100
AcDbSymbolTableRecord
100
AcDbLayerTableRecord
  2
Layer00063
 70
               0
 62
              -7
  6
Continuous
  0
LAYER
  5
74
100
AcDbSymbolTableRecord
100
AcDbLayerTableRecord
  2
Layer00064
 70
               0
 62
               7
  6
Continuous
  0
LAYER
  5
75
100
AcDbSymbolTableRecord
100
AcDbLayerTableRecord
  2
Layer00065
 70
               0
 62
              -7
  6
Continuous
  0
LAYER
  5
76
100
AcDbSymbolTableRecord
100
AcDbLayerTableRecord
  2
Layer00066
 70
               0
 62
              -7
  6
Continuous
  0
LAYER
  5
77
100
AcDbSymbolTableRecord
100
AcDbLayerTableRecord
  2
Layer00067
 70
               0
 62
              -7
  6
Continuous
  0
LAYER
  5
78
100
AcDbSymbolTableRecord
100
AcDbLayerTableRecord
  2
Layer00068
 70
               0
 62
              -7
  6
Continuous
  0
LAYER
  5
79
100
AcDbSymbolTableRecord
100
AcDbLayerTableRecord
  2
Layer00069
 70
               0
 62
              -7
  6
Continuous
  0
LAYER
  5
7A
100
AcDbSymbolTableRecord
100
AcDbLayerTableRecord
  2
Layer00070
 70
               0
 62
              -7
  6
Continuous
  0
LAYER
  5
7B
100
AcDbSymbolTableRecord
100
AcDbLayerTableRecord
  2
Layer00071
 70
               0
 62
              -7
  6
Continuous
  0
LAYER
  5
7C
100
AcDbSymbolTableRecord
100
AcDbLayerTableRecord
  2
Layer00072
 70
               0
 62
              -7
  6
Continuous
  0
LAYER
  5
7D
100
AcDbSymbolTableRecord
100
AcDbLayerTableRecord
  2
Layer00073
 70
               0
 62
              -7
  6
Continuous
  0
LAYER
  5
7E
100
AcDbSymbolTableRecord
100
AcDbLayerTableRecord
  2
Layer00074
 70
               0
 62
              -7
  6
Continuous
  0
LAYER
  5
7F
100
AcDbSymbolTableRecord
100
AcDbLayerTableRecord
  2
Layer00075
 70
               0
 62
              -7
  6
Continuous
  0
LAYER
  5
80
100
AcDbSymbolTableRecord
100
AcDbLayerTableRecord
  2
Layer00076
 70
               0
 62
              -7
  6
Continuous
  0
LAYER
  5
81
100
AcDbSymbolTableRecord
100
AcDbLayerTableRecord
  2
Layer00077
 70
               0
 62
              -7
  6
Continuous
  0
LAYER
  5
82
100
AcDbSymbolTableRecord
100
AcDbLayerTableRecord
  2
Layer00078
 70
               0
 62
              -7
  6
Continuous
  0
LAYER
  5
83
100
AcDbSymbolTableRecord
100
AcDbLayerTableRecord
  2
Layer00079
 70
               0
 62
              -7
  6
Continuous
  0
LAYER
  5
84
100
AcDbSymbolTableRecord
100
AcDbLayerTableRecord
  2
Layer00080
 70
               0
 62
               7
  6
Continuous
  0
LAYER
  5
85
100
AcDbSymbolTableRecord
100
AcDbLayerTableRecord
  2
Layer00081
 70
               0
 62
              -7
  6
Continuous
  0
LAYER
  5
86
100
AcDbSymbolTableRecord
100
AcDbLayerTableRecord
  2
Layer00082
 70
               0
 62
              -7
  6
Continuous
  0
LAYER
  5
87
100
AcDbSymbolTableRecord
100
AcDbLayerTableRecord
  2
Layer00083
 70
               0
 62
              -7
  6
Continuous
  0
LAYER
  5
88
100
AcDbSymbolTableRecord
100
AcDbLayerTableRecord
  2
Layer00084
 70
               0
 62
              -7
  6
Continuous
  0
LAYER
  5
89
100
AcDbSymbolTableRecord
100
AcDbLayerTableRecord
  2
Layer00085
 70
               0
 62
              -7
  6
Continuous
  0
LAYER
  5
8A
100
AcDbSymbolTableRecord
100
AcDbLayerTableRecord
  2
Layer00086
 70
               0
 62
              -7
  6
Continuous
  0
LAYER
  5
8B
100
AcDbSymbolTableRecord
100
AcDbLayerTableRecord
  2
Layer00087
 70
               0
 62
              -7
  6
Continuous
  0
LAYER
  5
8C
100
AcDbSymbolTableRecord
100
AcDbLayerTableRecord
  2
Layer00088
 70
               0
 62
              -7
  6
Continuous
  0
LAYER
  5
8D
100
AcDbSymbolTableRecord
100
AcDbLayerTableRecord
  2
Layer00089
 70
               0
 62
              -7
  6
Continuous
  0
LAYER
  5
8E
100
AcDbSymbolTableRecord
100
AcDbLayerTableRecord
  2
Layer00090
 70
               0
 62
              -7
  6
Continuous
  0
LAYER
  5
8F
100
AcDbSymbolTableRecord
100
AcDbLayerTableRecord
  2
Layer00091
 70
               0
 62
              -7
  6
Continuous
  0
LAYER
  5
90
100
AcDbSymbolTableRecord
100
AcDbLayerTableRecord
  2
Layer00092
 70
               0
 62
              -7
  6
Continuous
  0
LAYER
  5
91
100
AcDbSymbolTableRecord
100
AcDbLayerTableRecord
  2
Layer00093
 70
               0
 62
              -7
  6
Continuous
  0
LAYER
  5
92
100
AcDbSymbolTableRecord
100
AcDbLayerTableRecord
  2
Layer00094
 70
               0
 62
              -7
  6
Continuous
  0
LAYER
  5
93
100
AcDbSymbolTableRecord
100
AcDbLayerTableRecord
  2
Layer00095
 70
               0
 62
              -7
  6
Continuous
  0
LAYER
  5
94
100
AcDbSymbolTableRecord
100
AcDbLayerTableRecord
  2
Layer00096
 70
               0
 62
               7
  6
Continuous
  0
LAYER
  5
95
100
AcDbSymbolTableRecord
100
AcDbLayerTableRecord
  2
Layer00097
 70
               0
 62
              -7
  6
Continuous
  0
LAYER
  5
96
100
AcDbSymbolTableRecord
100
AcDbLayerTableRecord
  2
Layer00098
 70
               0
 62
              -7
  6
Continuous
  0
LAYER
  5
97
100
AcDbSymbolTableRecord
100
AcDbLayerTableRecord
  2
Layer00099
 70
               0
 62
              -7
  6
Continuous
  0
LAYER
  5
98
100
AcDbSymbolTableRecord
100
AcDbLayerTableRecord
  2
Layer00100
 70
               0
 62
              -7
  6
Continuous
  0
LAYER
  5
99
100
AcDbSymbolTableRecord
100
AcDbLayerTableRecord
  2
Layer00101
 70
               0
 62
              -7
  6
Continuous
  0
LAYER
  5
9A
100
AcDbSymbolTableRecord
100
AcDbLayerTableRecord
  2
Layer00102
 70
               0
 62
              -7
  6
Continuous
  0
LAYER
  5
9B
100
AcDbSymbolTableRecord
100
AcDbLayerTableRecord
  2
Layer00103
 70
               0
 62
              -7
  6
Continuous
  0
LAYER
  5
9C
100
AcDbSymbolTableRecord
100
AcDbLayerTableRecord
  2
Layer00104
 70
               0
 62
              -7
  6
Continuous
  0
LAYER
  5
9D
100
AcDbSymbolTableRecord
100
AcDbLayerTableRecord
  2
Layer00105
 70
               0
 62
              -7
  6
Continuous
  0
LAYER
  5
9E
100
AcDbSymbolTableRecord
100
AcDbLayerTableRecord
  2
Layer00106
 70
               0
 62
              -7
  6
Continuous
  0
LAYER
  5
9F
100
AcDbSymbolTableRecord
100
AcDbLayerTableRecord
  2
Layer00107
 70
               0
 62
              -7
  6
Continuous
  0
LAYER
  5
A0
100
AcDbSymbolTableRecord
100
AcDbLayerTableRecord
  2
Layer00108
 70
               0
 62
              -7
  6
Continuous
  0
LAYER
  5
A1
100
AcDbSymbolTableRecord
100
AcDbLayerTableRecord
  2
Layer00109
 70
               0
 62
              -7
  6
Continuous
  0
LAYER
  5
A2
100
AcDbSymbolTableRecord
100
AcDbLayerTableRecord
  2
Layer00110
 70
               0
 62
              -7
  6
Continuous
  0
LAYER
  5
A3
100
AcDbSymbolTableRecord
100
AcDbLayerTableRecord
  2
Layer00111
 70
               0
 62
              -7
  6
Continuous
  0
LAYER
  5
A4
100
AcDbSymbolTableRecord
100
AcDbLayerTableRecord
  2
Layer00112
 70
               0
 62
               7
  6
Continuous
  0
LAYER
  5
A5
100
AcDbSymbolTableRecord
100
AcDbLayerTableRecord
  2
Layer00113
 70
               0
 62
              -7
  6
Continuous
  0
LAYER
  5
A6
100
AcDbSymbolTableRecord
100
AcDbLayerTableRecord
  2
Layer00114
 70
               0
 62
              -7
  6
Continuous
  0
LAYER
  5
A7
100
AcDbSymbolTableRecord
100
AcDbLayerTableRecord
  2
Layer00115
 70
               0
 62
              -7
  6
Continuous
  0
LAYER
  5
A8
100
AcDbSymbolTableRecord
100
AcDbLayerTableRecord
  2
Layer00116
 70
               0
 62
              -7
  6
Continuous
  0
LAYER
  5
A9
100
AcDbSymbolTableRecord
100
AcDbLayerTableRecord
  2
Layer00117
 70
               0
 62
              -7
  6
Continuous
  0
LAYER
  5
AA
100
AcDbSymbolTableRecord
100
AcDbLayerTableRecord
  2
Layer00118
 70
               0
 62
              -7
  6
Continuous
  0
LAYER
  5
AB
100
AcDbSymbolTableRecord
100
AcDbLayerTableRecord
  2
Layer00119
 70
               0
 62
              -7
  6
Continuous
  0
LAYER
  5
AC
100
AcDbSymbolTableRecord
100
AcDbLayerTableRecord
  2
Layer00120
 70
               0
 62
              -7
  6
Continuous
  0
LAYER
  5
AD
100
AcDbSymbolTableRecord
100
AcDbLayerTableRecord
  2
Layer00121
 70
               0
 62
              -7
  6
Continuous
  0
LAYER
  5
AE
100
AcDbSymbolTableRecord
100
AcDbLayerTableRecord
  2
Layer00122
 70
               0
 62
              -7
  6
Continuous
  0
LAYER
  5
AF
100
AcDbSymbolTableRecord
100
AcDbLayerTableRecord
  2
Layer00123
 70
               0
 62
              -7
  6
Continuous
  0
LAYER
  5
B0
100
AcDbSymbolTableRecord
100
AcDbLayerTableRecord
  2
Layer00124
 70
               0
 62
              -7
  6
Continuous
  0
LAYER
  5
B1
100
AcDbSymbolTableRecord
100
AcDbLayerTableRecord
  2
Layer00125
 70
               0
 62
              -7
  6
Continuous
  0
LAYER
  5
B2
100
AcDbSymbolTableRecord
100
AcDbLayerTableRecord
  2
Layer00126
 70
               0
 62
              -7
  6
Continuous
  0
LAYER
  5
B3
100
AcDbSymbolTableRecord
100
AcDbLayerTableRecord
  2
Layer00127
 70
               0
 62
              -7
  6
Continuous
  0
LAYER
  5
B4
100
AcDbSymbolTableRecord
100
AcDbLayerTableRecord
  2
Layer00128
 70
               0
 62
               7
  6
Continuous
  0
LAYER
  5
B5
100
AcDbSymbolTableRecord
100
AcDbLayerTableRecord
  2
Layer00129
 70
               0
 62
              -7
  6
Continuous
  0
LAYER
  5
B6
100
AcDbSymbolTableRecord
100
AcDbLayerTableRecord
  2
Layer00130
 70
               0
 62
              -7
  6
Continuous
  0
LAYER
  5
B7
100
AcDbSymbolTableRecord
100
AcDbLayerTableRecord
  2
Layer00131
 70
               0
 62
              -7
  6
Continuous
  0
LAYER
  5
B8
100
AcDbSymbolTableRecord
100
AcDbLayerTableRecord
  2
Layer00132
 70
               0
 62
              -7
  6
Continuous
  0
LAYER
  5
B9
100
AcDbSymbolTableRecord
100
AcDbLayerTableRecord
  2
Layer00133
 70
               0
 62
              -7
  6
Continuous
  0
LAYER
  5
BA
100
AcDbSymbolTableRecord
100
AcDbLayerTableRecord
  2
Layer00134
 70
               0
 62
              -7
  6
Continuous
  0
LAYER
  5
BB
100
AcDbSymbolTableRecord
100
AcDbLayerTableRecord
  2
Layer00135
 70
               0
 62
              -7
  6
Continuous
  0
LAYER
  5
BC
100
AcDbSymbolTableRecord
100
AcDbLayerTableRecord
  2
Layer00136
 70
               0
 62
              -7
  6
Continuous
  0
LAYER
  5
BD
100
AcDbSymbolTableRecord
100
AcDbLayerTableRecord
  2
Layer00137
 70
               0
 62
              -7
  6
Continuous
  0
LAYER
  5
BE
100
AcDbSymbolTableRecord
100
AcDbLayerTableRecord
  2
Layer00138
 70
               0
 62
              -7
  6
Continuous
  0
LAYER
  5
BF
100
AcDbSymbolTableRecord
100
AcDbLayerTableRecord
  2
Layer00139
 70
               0
 62
              -7
  6
Continuous
  0
LAYER
  5
C0
100
AcDbSymbolTableRecord
100
AcDbLayerTableRecord
  2
Layer00140
 70
               0
 62
              -7
  6
Continuous
  0
LAYER
  5
C1
100
AcDbSymbolTableRecord
100
AcDbLayerTableRecord
  2
Layer00141
 70
               0
 62
              -7
  6
Continuous
  0
LAYER
  5
C2
100
AcDbSymbolTableRecord
100
AcDbLayerTableRecord
  2
Layer00142
 70
               0
 62
              -7
  6
Continuous
  0
LAYER
  5
C3
100
AcDbSymbolTableRecord
100
AcDbLayerTableRecord
  2
Layer00143
 70
               0
 62
              -7
  6
Continuous
  0
LAYER
  5
C4
100
AcDbSymbolTableRecord
100
AcDbLayerTableRecord
  2
Layer00144
 70
               0
 62
               7
  6
Continuous
  0
LAYER
  5
C5
100
AcDbSymbolTableRecord
100
AcDbLayerTableRecord
  2
Layer00145
 70
               0
 62
              -7
  6
Continuous
  0
LAYER
  5
C6
100
AcDbSymbolTableRecord
100
AcDbLayerTableRecord
  2
Layer00146
 70
               0
 62
              -7
  6
Continuous
  0
LAYER
  5
C7
100
AcDbSymbolTableRecord
100
AcDbLayerTableRecord
  2
Layer00147
 70
               0
 62
              -7
  6
Continuous
  0
LAYER
  5
C8
100
AcDbSymbolTableRecord
100
AcDbLayerTableRecord
  2
Layer00148
 70
               0
 62
              -7
  6
Continuous
  0
LAYER
  5
C9
100
AcDbSymbolTableRecord
100
AcDbLayerTableRecord
  2
Layer00149
 70
               0
 62
              -7
  6
Continuous
  0
LAYER
  5
CA
100
AcDbSymbolTableRecord
100
AcDbLayerTableRecord
  2
Layer00150
 70
               0
 62
              -7
  6
Continuous
  0
LAYER
  5
CB
100
AcDbSymbolTableRecord
100
AcDbLayerTableRecord
  2
Layer00151
 70
               0
 62
              -7
  6
Continuous
  0
LAYER
  5
CC
100
AcDbSymbolTableRecord
100
AcDbLayerTableRecord
  2
Layer00152
 70
               0
 62
              -7
  6
Continuous
  0
LAYER
  5
CD
100
AcDbSymbolTableRecord
100
AcDbLayerTableRecord
  2
Layer00153
 70
               0
 62
              -7
  6
Continuous
  0
LAYER
  5
CE
100
AcDbSymbolTableRecord
100
AcDbLayerTableRecord
  2
Layer00154
 70
               0
 62
              -7
  6
Continuous
  0
LAYER
  5
CF
100
AcDbSymbolTableRecord
100
AcDbLayerTableRecord
  2
Layer00155
 70
               0
 62
              -7
  6
Continuous
  0
LAYER
  5
D0
100
AcDbSymbolTableRecord
100
AcDbLayerTableRecord
  2
Layer00156
 70
               0
 62
              -7
  6
Continuous
  0
LAYER
  5
D1
100
AcDbSymbolTableRecord
100
AcDbLayerTableRecord
  2
Layer00157
 70
               0
 62
              -7
  6
Continuous
  0
LAYER
  5
D2
100
AcDbSymbolTableRecord
100
AcDbLayerTableRecord
  2
Layer00158
 70
               0
 62
              -7
  6
Continuous
  0
LAYER
  5
D3
100
AcDbSymbolTableRecord
100
AcDbLayerTableRecord
  2
Layer00159
 70
               0
 62
              -7
  6
Continuous
  0
LAYER
  5
D4
100
AcDbSymbolTableRecord
100
AcDbLayerTableRecord
  2
Layer00160
 70
               0
 62
               7
  6
Continuous
  0
LAYER
  5
D5
100
AcDbSymbolTableRecord
100
AcDbLayerTableRecord
  2
Layer00161
 70
               0
 62
              -7
  6
Continuous
  0
LAYER
  5
D6
100
AcDbSymbolTableRecord
100
AcDbLayerTableRecord
  2
Layer00162
 70
               0
 62
              -7
  6
Continuous
  0
LAYER
  5
D7
100
AcDbSymbolTableRecord
100
AcDbLayerTableRecord
  2
Layer00163
 70
               0
 62
              -7
  6
Continuous
  0
LAYER
  5
D8
100
AcDbSymbolTableRecord
100
AcDbLayerTableRecord
  2
Layer00164
 70
               0
 62
              -7
  6
Continuous
  0
LAYER
  5
D9
100
AcDbSymbolTableRecord
100
AcDbLayerTableRecord
  2
Layer00165
 70
               0
 62
              -7
  6
Continuous
  0
LAYER
  5
DA
100
AcDbSymbolTableRecord
100
AcDbLayerTableRecord
  2
Layer00166
 70
               0
 62
              -7
  6
Continuous
  0
LAYER
  5
DB
100
AcDbSymbolTableRecord
100
AcDbLayerTableRecord
  2
Layer00167
 70
               0
 62
              -7
  6
Continuous
  0
LAYER
  5
DC
100
AcDbSymbolTableRecord
100
AcDbLayerTableRecord
  2
Layer00168
 70
               0
 62
              -7
  6
Continuous
  0
LAYER
  5
DD
100
AcDbSymbolTableRecord
100
AcDbLayerTableRecord
  2
Layer00169
 70
               0
 62
              -7
  6
Continuous
  0
LAYER
  5
DE
100
AcDbSymbolTableRecord
100
AcDbLayerTableRecord
  2
Layer00170
 70
               0
 62
              -7
  6
Continuous
  0
LAYER
  5
DF
100
AcDbSymbolTableRecord
100
AcDbLayerTableRecord
  2
Layer00171
 70
               0
 62
              -7
  6
Continuous
  0
LAYER
  5
E0
100
AcDbSymbolTableRecord
100
AcDbLayerTableRecord
  2
Layer00172
 70
               0
 62
              -7
  6
Continuous
  0
LAYER
  5
E1
100
AcDbSymbolTableRecord
100
AcDbLayerTableRecord
  2
Layer00173
 70
               0
 62
              -7
  6
Continuous
  0
LAYER
  5
E2
100
AcDbSymbolTableRecord
100
AcDbLayerTableRecord
  2
Layer00174
 70
               0
 62
              -7
  6
Continuous
  0
LAYER
  5
E3
100
AcDbSymbolTableRecord
100
AcDbLayerTableRecord
  2
Layer00175
 70
               0
 62
              -7
  6
Continuous
  0
LAYER
  5
E4
100
AcDbSymbolTableRecord
100
AcDbLayerTableRecord
  2
Layer00176
 70
               0
 62
               7
  6
Continuous
  0
LAYER
  5
E5
100
AcDbSymbolTableRecord
100
AcDbLayerTableRecord
  2
Layer00177
 70
               0
 62
              -7
  6
Continuous
  0
LAYER
  5
E6
100
AcDbSymbolTableRecord
100
AcDbLayerTableRecord
  2
Layer00178
 70
               0
 62
              -7
  6
Continuous
  0
LAYER
  5
E7
100
AcDbSymbolTableRecord
100
AcDbLayerTableRecord
  2
Layer00179
 70
               0
 62
              -7
  6
Continuous
  0
LAYER
  5
E8
100
AcDbSymbolTableRecord
100
AcDbLayerTableRecord
  2
Layer00180
 70
               0
 62
              -7
  6
Continuous
  0
LAYER
  5
E9
100
AcDbSymbolTableRecord
100
AcDbLayerTableRecord
  2
Layer00181
 70
               0
 62
              -7
  6
Continuous
  0
LAYER
  5
EA
100
AcDbSymbolTableRecord
100
AcDbLayerTableRecord
  2
Layer00182
 70
               0
 62
              -7
  6
Continuous
  0
LAYER
  5
EB
100
AcDbSymbolTableRecord
100
AcDbLayerTableRecord
  2
Layer00183
 70
               0
 62
              -7
  6
Continuous
  0
LAYER
  5
EC
100
AcDbSymbolTableRecord
100
AcDbLayerTableRecord
  2
Layer00184
 70
               0
 62
              -7
  6
Continuous
  0
LAYER
  5
ED
100
AcDbSymbolTableRecord
100
AcDbLayerTableRecord
  2
Layer00185
 70
               0
 62
              -7
  6
Continuous
  0
LAYER
  5
EE
100
AcDbSymbolTableRecord
100
AcDbLayerTableRecord
  2
Layer00186
 70
               0
 62
              -7
  6
Continuous
  0
LAYER
  5
EF
100
AcDbSymbolTableRecord
100
AcDbLayerTableRecord
  2
Layer00187
 70
               0
 62
              -7
  6
Continuous
  0
LAYER
  5
F0
100
AcDbSymbolTableRecord
100
AcDbLayerTableRecord
  2
Layer00188
 70
               0
 62
              -7
  6
Continuous
  0
LAYER
  5
F1
100
AcDbSymbolTableRecord
100
AcDbLayerTableRecord
  2
Layer00189
 70
               0
 62
              -7
  6
Continuous
  0
LAYER
  5
F2
100
AcDbSymbolTableRecord
100
AcDbLayerTableRecord
  2
Layer00190
 70
               0
 62
              -7
  6
Continuous
  0
LAYER
  5
F3
100
AcDbSymbolTableRecord
100
AcDbLayerTableRecord
  2
Layer00191
 70
               0
 62
              -7
  6
Continuous
  0
LAYER
  5
F4
100
AcDbSymbolTableRecord
100
AcDbLayerTableRecord
  2
Layer00192
 70
               0
 62
               7
  6
Continuous
  0
LAYER
  5
F5
100
AcDbSymbolTableRecord
100
AcDbLayerTableRecord
  2
Layer00193
 70
               0
 62
              -7
  6
Continuous
  0
LAYER
  5
F6
100
AcDbSymbolTableRecord
100
AcDbLayerTableRecord
  2
Layer00194
 70
               0
 62
              -7
  6
Continuous
  0
LAYER
  5
F7
100
AcDbSymbolTableRecord
100
AcDbLayerTableRecord
  2
Layer00195
 70
               0
 62
              -7
  6
Continuous
  0
LAYER
  5
F8
100
AcDbSymbolTableRecord
100
AcDbLayerTableRecord
  2
Layer00196
 70
               0
 62
              -7
  6
Continuous
  0
LAYER
  5
F9
100
AcDbSymbolTableRecord
100
AcDbLayerTableRecord
  2
Layer00197
 70
               0
 62
              -7
  6
Continuous
  0
LAYER
  5
FA
100
AcDbSymbolTableRecord
100
AcDbLayerTableRecord
  2
Layer00198
 70
               0
 62
              -7
  6
Continuous
  0
LAYER
  5
FB
100
AcDbSymbolTableRecord
100
AcDbLayerTableRecord
  2
Layer00199
 70
               0
 62
              -7
  6
Continuous
  0
LAYER
  5
FC
100
AcDbSymbolTableRecord
100
AcDbLayerTableRecord
  2
Layer00200
 70
               0
 62
              -7
  6
Continuous
  0
LAYER
  5
FD
100
AcDbSymbolTableRecord
100
AcDbLayerTableRecord
  2
Layer00201
 70
               0
 62
              -7
  6
Continuous
  0
LAYER
  5
FE
100
AcDbSymbolTableRecord
100
AcDbLayerTableRecord
  2
Layer00202
 70
               0
 62
              -7
  6
Continuous
  0
LAYER
  5
FF
100
AcDbSymbolTableRecord
100
AcDbLayerTableRecord
  2
Layer00203
 70
               0
 62
              -7
  6
Continuous
  0
LAYER
  5
100
100
AcDbSymbolTableRecord
100
AcDbLayerTableRecord
  2
Layer00204
 70
               0
 62
              -7
  6
Continuous
  0
LAYER
  5
101
100
AcDbSymbolTableRecord
100
AcDbLayerTableRecord
  2
Layer00205
 70
               0
 62
              -7
  6
Continuous
  0
LAYER
  5
102
100
AcDbSymbolTableRecord
100
AcDbLayerTableRecord
  2
Layer00206
 70
               0
 62
              -7
  6
Continuous
  0
LAYER
  5
103
100
AcDbSymbolTableRecord
100
AcDbLayerTableRecord
  2
Layer00207
 70
               0
 62
              -7
  6
Continuous
  0
LAYER
  5
104
100
AcDbSymbolTableRecord
100
AcDbLayerTableRecord
  2
Layer00208
 70
               0
 62
               7
  6
Continuous
  0
LAYER
  5
105
100
AcDbSymbolTableRecord
100
AcDbLayerTableRecord
  2
Layer00209
 70
               0
 62
              -7
  6
Continuous
  0
LAYER
  5
106
100
AcDbSymbolTableRecord
100
AcDbLayerTableRecord
  2
Layer00210
 70
               0
 62
              -7
  6
Continuous
  0
LAYER
  5
107
100
AcDbSymbolTableRecord
100
AcDbLayerTableRecord
  2
Layer00211
 70
               0
 62
              -7
  6
Continuous
  0
LAYER
  5
108
100
AcDbSymbolTableRecord
100
AcDbLayerTableRecord
  2
Layer00212
 70
               0
 62
              -7
  6
Continuous
  0
LAYER
  5
109
100
AcDbSymbolTableRecord
100
AcDbLayerTableRecord
  2
Layer00213
 70
               0
 62
              -7
  6
Continuous
  0
LAYER
  5
10A
100
AcDbSymbolTableRecord
100
AcDbLayerTableRecord
  2
Layer00214
 70
               0
 62
              -7
  6
Continuous
  0
LAYER
  5
10B
100
AcDbSymbolTableRecord
100
AcDbLayerTableRecord
  2
Layer00215
 70
               0
 62
              -7
  6
Continuous
  0
LAYER
  5
10C
100
AcDbSymbolTableRecord
100
AcDbLayerTableRecord
  2
Layer00216
 70
               0
 62
              -7
  6
Continuous
  0
LAYER
  5
10D
100
AcDbSymbolTableRecord
100
AcDbLayerTableRecord
  2
Layer00217
 70
               0
 62
              -7
  6
Continuous
  0
LAYER
  5
10E
100
AcDbSymbolTableRecord
100
AcDbLayerTableRecord
  2
Layer00218
 70
               0
 62
              -7
  6
Continuous
  0
LAYER
  5
10F
100
AcDbSymbolTableRecord
100
AcDbLayerTableRecord
  2
Layer00219
 70
               0
 62
              -7
  6
Continuous
  0
LAYER
  5
110
100
AcDbSymbolTableRecord
100
AcDbLayerTableRecord
  2
Layer00220
 70
               0
 62
              -7
  6
Continuous
  0
LAYER
  5
111
100
AcDbSymbolTableRecord
100
AcDbLayerTableRecord
  2
Layer00221
 70
               0
 62
              -7
  6
Continuous
  0
LAYER
  5
112
100
AcDbSymbolTableRecord
100
AcDbLayerTableRecord
  2
Layer00222
 70
               0
 62
              -7
  6
Continuous
  0
LAYER
  5
113
100
AcDbSymbolTableRecord
100
AcDbLayerTableRecord
  2
Layer00223
 70
               0
 62
              -7
  6
Continuous
  0
LAYER
  5
114
100
AcDbSymbolTableRecord
100
AcDbLayerTableRecord
  2
Layer00224
 70
               0
 62
               7
  6
Continuous
  0
LAYER
  5
115
100
AcDbSymbolTableRecord
100
AcDbLayerTableRecord
  2
Layer00225
 70
               0
 62
              -7
  6
Continuous
  0
LAYER
  5
116
100
AcDbSymbolTableRecord
100
AcDbLayerTableRecord
  2
Layer00226
 70
               0
 62
              -7
  6
Continuous
  0
LAYER
  5
117
100
AcDbSymbolTableRecord
100
AcDbLayerTableRecord
  2
Layer00227
 70
               0
 62
              -7
  6
Continuous
  0
LAYER
  5
118
100
AcDbSymbolTableRecord
100
AcDbLayerTableRecord
  2
Layer00228
 70
               0
 62
              -7
  6
Continuous
  0
LAYER
  5
119
100
AcDbSymbolTableRecord
100
AcDbLayerTableRecord
  2
Layer00229
 70
               0
 62
              -7
  6
Continuous
  0
LAYER
  5
11A
100
AcDbSymbolTableRecord
100
AcDbLayerTableRecord
  2
Layer00230
 70
               0
 62
              -7
  6
Continuous
  0
LAYER
  5
11B
100
AcDbSymbolTableRecord
100
AcDbLayerTableRecord
  2
Layer00231
 70
               0
 62
              -7
  6
Continuous
  0
LAYER
  5
11C
100
AcDbSymbolTableRecord
100
AcDbLayerTableRecord
  2
Layer00232
 70
               0
 62
              -7
  6
Continuous
  0
LAYER
  5
11D
100
AcDbSymbolTableRecord
100
AcDbLayerTableRecord
  2
Layer00233
 70
               0
 62
              -7
  6
Continuous
  0
LAYER
  5
11E
100
AcDbSymbolTableRecord
100
AcDbLayerTableRecord
  2
Layer00234
 70
               0
 62
              -7
  6
Continuous
  0
LAYER
  5
11F
100
AcDbSymbolTableRecord
100
AcDbLayerTableRecord
  2
Layer00235
 70
               0
 62
              -7
  6
Continuous
  0
LAYER
  5
120
100
AcDbSymbolTableRecord
100
AcDbLayerTableRecord
  2
Layer00236
 70
               0
 62
              -7
  6
Continuous
  0
LAYER
  5
121
100
AcDbSymbolTableRecord
100
AcDbLayerTableRecord
  2
Layer00237
 70
               0
 62
              -7
  6
Continuous
  0
LAYER
  5
122
100
AcDbSymbolTableRecord
100
AcDbLayerTableRecord
  2
Layer00238
 70
               0
 62
              -7
  6
Continuous
  0
LAYER
  5
123
100
AcDbSymbolTableRecord
100
AcDbLayerTableRecord
  2
Layer00239
 70
               0
 62
              -7
  6
Continuous
  0
LAYER
  5
124
100
AcDbSymbolTableRecord
100
AcDbLayerTableRecord
  2
Layer00240
 70
               0
 62
               7
  6
Continuous
  0
LAYER
  5
125
100
AcDbSymbolTableRecord
100
AcDbLayerTableRecord
  2
Layer00241
 70
               0
 62
              -7
  6
Continuous
  0
LAYER
  5
126
100
AcDbSymbolTableRecord
100
AcDbLayerTableRecord
  2
Layer00242
 70
               0
 62
              -7
  6
Continuous
  0
LAYER
  5
127
100
AcDbSymbolTableRecord
100
AcDbLayerTableRecord
  2
Layer00243
 70
               0
 62
              -7
  6
Continuous
  0
LAYER
  5
128
100
AcDbSymbolTableRecord
100
AcDbLayerTableRecord
  2
Layer00244
 70
               0
 62
              -7
  6
Continuous
  0
LAYER
  5
129
100
AcDbSymbolTableRecord
100
AcDbLayerTableRecord
  2
Layer00245
 70
               0
 62
              -7
  6
Continuous
  0
LAYER
  5
12A
100
AcDbSymbolTableRecord
100
AcDbLayerTableRecord
  2
Layer00246
 70
               0
 62
              -7
  6
Continuous
  0
LAYER
  5
12B
100
AcDbSymbolTableRecord
100
AcDbLayerTableRecord
  2
Layer00247
 70
               0
 62
              -7
  6
Continuous
  0
LAYER
  5
12C
100
AcDbSymbolTableRecord
100
AcDbLayerTableRecord
  2
Layer00248
 70
               0
 62
              -7
  6
Continuous
  0
LAYER
  5
12D
100
AcDbSymbolTableRecord
100
AcDbLayerTableRecord
  2
Layer00249
 70
               0
 62
              -7
  6
Continuous
  0
LAYER
  5
12E
100
AcDbSymbolTableRecord
100
AcDbLayerTableRecord
  2
Layer00250
 70
               0
 62
              -7
  6
Continuous
  0
LAYER
  5
12F
100
AcDbSymbolTableRecord
100
AcDbLayerTableRecord
  2
Layer00251
 70
               0
 62
              -7
  6
Continuous
  0
LAYER
  5
130
100
AcDbSymbolTableRecord
100
AcDbLayerTableRecord
  2
Layer00252
 70
               0
 62
              -7
  6
Continuous
  0
LAYER
  5
131
100
AcDbSymbolTableRecord
100
AcDbLayerTableRecord
  2
Layer00253
 70
               0
 62
              -7
  6
Continuous
  0
LAYER
  5
132
100
AcDbSymbolTableRecord
100
AcDbLayerTableRecord
  2
Layer00254
 70
               0
 62
              -7
  6
Continuous
  0
LAYER
  5
133
100
AcDbSymbolTableRecord
100
AcDbLayerTableRecord
  2
Layer00255
 70
               0
 62
              -7
  6
Continuous
  0
ENDTAB
  0
TABLE
  2
STYLE
  5
3
100
AcDbSymbolTable
 70
               4
  0
STYLE
  5
17
100
AcDbSymbolTableRecord
100
AcDbTextStyleTableRecord
  2
Standard
 70
               0
 40
0.0
 41
1.0
 50
0.0
 71
               0
 42
0.0
  3
txt.shx
  4
bigfont.shx
  0
STYLE
  5
32
100
AcDbSymbolTableRecord
100
AcDbTextStyleTableRecord
  2
STANDARD_T
 70
               4
 40
0.0
 41
1.0
 50
0.0
 71
               0
 42
0.0
  3
txt.shx
  4
bigfont.shx
  0
STYLE
  5
33
100
AcDbSymbolTableRecord
100
AcDbTextStyleTableRecord
  2
FontTableH_0
 70
               0
 40
0.0
 41
1.0
 50
0.0
 71
               0
 42
0.0
  3
MS Gothic.ttf
  4

1001
ACAD
1000
MS Gothic
1071
    32817
  0
STYLE
  5
34
100
AcDbSymbolTableRecord
100
AcDbTextStyleTableRecord
  2
FontTableV_0
 70
               0
 40
0.0
 41
1.0
 50
0.0
 71
               0
 42
0.0
  3
@MS Gothic.ttf
  4

1001
ACAD
1000
@MS Gothic
1071
    32817
  0
ENDTAB
  0
TABLE
  2
VIEW
  5
5
100
AcDbSymbolTable
 70
               0
  0
ENDTAB
  0
TABLE
  2
UCS
  5
6
100
AcDbSymbolTable
 70
               0
  0
ENDTAB
  0
TABLE
  2
APPID
  5
8
100
AcDbSymbolTable
 70
               1
  0
APPID
  5
16
100
AcDbSymbolTableRecord
100
AcDbRegAppTableRecord
  2
ACAD
 70
               0
  0
ENDTAB
  0
TABLE
  2
DIMSTYLE
  5
9
100
AcDbSymbolTable
 70
               1
  0
DIMSTYLE
105
18
100
AcDbSymbolTableRecord
100
AcDbDimStyleTableRecord
  2
Standard
 70
               0
  3

  4

  5

  6

  7

 40
1.0
 41
0.18
 42
0.0625
 43
0.38
 44
0.18
 45
0.0
 46
0.0
 47
0.0
 48
0.0
 71
               0
 72
               0
 73
               1
 74
               1
 75
               0
 76
               0
 77
               0
 78
               0
140
0.18
141
0.09
142
0.0
143
25.399999999999999
144
1.0
145
0.0
146
1.0
147
0.09
170
               0
171
               2
172
               0
173
               0
174
               0
175
               0
176
               0
177
               0
178
               0
270
               2
271
               4
272
               4
273
               2
274
               2
275
               0
280
               0
281
               0
282
               0
283
               1
284
               0
285
               0
286
               0
287
               0
288
               0
340
17
  0
ENDTAB
  0
TABLE
  2
BLOCK_RECORD
  5
1
100
AcDbSymbolTable
 70
               0
  0
BLOCK_RECORD
  5
A
100
AcDbSymbolTableRecord
100
AcDbBlockTableRecord
  2
*MODEL_SPACE
  0
BLOCK_RECORD
  5
B
100
AcDbSymbolTableRecord
100
AcDbBlockTableRecord
  2
*PAPER_SPACE
  0
ENDTAB
  0
ENDSEC
  0
SECTION
  2
BLOCKS
  0
BLOCK
  5
D
100
AcDbEntity
  8
0
100
AcDbBlockBegin
  2
*MODEL_SPACE
 70
               0
 10
0.0
 20
0.0
 30
0.0
  3
*MODEL_SPACE
  1

  0
ENDBLK
  5
E
100
AcDbEntity
  8
0
100
AcDbBlockEnd
  0
BLOCK
  5
F
100
AcDbEntity
 67
               1
  8
0
100
AcDbBlockBegin
  2
*PAPER_SPACE
 70
               0
 10
0.0
 20
0.0
 30
0.0
  3
*PAPER_SPACE
  1

  0
ENDBLK
  5
10
100
AcDbEntity
 67
               1
  8
0
100
AcDbBlockEnd
  0
ENDSEC
  0
SECTION
  2
ENTITIES
  0
LINE
  5
134
100
AcDbEntity
  8
0
  6
Continuous
 62
               4
100
AcDbLine
 10
264.95378666019957
 20
433.91781994732418
 30
0.0
 11
222.95378666019923
 21
433.91781994732418
 31
0.0
  0
LINE
  5
135
100
AcDbEntity
  8
0
  6
Continuous
 62
               4
100
AcDbLine
 10
225.95378666019923
 20
378.9178199473244
 30
0.0
 11
225.95378666019923
 21
433.91781994732418
 31
0.0
  0
LINE
  5
136
100
AcDbEntity
  8
0
  6
Continuous
 62
               4
100
AcDbLine
 10
225.95378666019923
 20
373.9178199473244
 30
0.0
 11
225.95378666019923
 21
343.91781994732463
 31
0.0
  0
LINE
  5
137
100
AcDbEntity
  8
0
  6
Continuous
 62
               4
100
AcDbLine
 10
225.95378666019923
 20
342.91781994732486
 30
0.0
 11
225.95378666019923
 21
287.91781994732463
 31
0.0
  0
LINE
  5
138
100
AcDbEntity
  8
0
  6
Continuous
 62
               4
100
AcDbLine
 10
326.45378666019889
 20
281.91781994732463
 30
0.0
 11
326.45378666019889
 21
155.91781994732463
 31
0.0
  0
LINE
  5
139
100
AcDbEntity
  8
0
  6
Continuous
 62
               4
100
AcDbLine
 10
626.45378666019883
 20
291.91781994732457
 30
0.0
 11
626.45378666019883
 21
155.91781994732463
 31
0.0
  0
LINE
  5
13A
100
AcDbEntity
  8
0
  6
Continuous
 62
               4
100
AcDbLine
 10
326.45378666019889
 20
158.91781994732463
 30
0.0
 11
626.45378666019883
 21
158.91781994732463
 31
0.0
  0
LINE
  5
13B
100
AcDbEntity
  8
0
  6
Continuous
 62
               4
100
AcDbLine
 10
326.45378666019889
 20
158.91781994732463
 30
0.0
 11
189.95378666019911
 21
158.91781994732463
 31
0.0
  0
LINE
  5
13C
100
AcDbEntity
  8
0
  6
Continuous
 62
               4
100
AcDbLine
 10
342.60518206988257
 20
287.91781994732463
 30
0.0
 11
370.8855097487679
 21
182.37420019502861
 31
0.0
  0
LINE
  5
13D
100
AcDbEntity
  8
0
  6
Continuous
 62
               4
100
AcDbLine
 10
370.8855097487679
 20
182.37420019502861
 30
0.0
 11
578.53881911420262
 21
182.37420019502861
 31
0.0
  0
LINE
  5
13E
100
AcDbEntity
  8
0
  6
Continuous
 62
               4
100
AcDbLine
 10
342.60518206988257
 20
287.91781994732463
 30
0.0
 11
346.40874642554894
 21
279.7610498639948
 31
0.0
  0
LINE
  5
13F
100
AcDbEntity
  8
0
  6
Continuous
 62
               4
100
AcDbLine
 10
342.60518206988257
 20
287.91781994732463
 30
0.0
 11
343.38958375461146
 21
278.95206766449894
 31
0.0
  0
LINE
  5
140
100
AcDbEntity
  8
0
  6
Continuous
 62
               4
100
AcDbLine
 10
363.84582590122528
 20
374.91781994732463
 30
0.0
 11
411.26905719133532
 21
457.05726600088559
 31
0.0
  0
LINE
  5
141
100
AcDbEntity
  8
0
  6
Continuous
 62
               4
100
AcDbLine
 10
411.26905719133532
 20
457.05726600088559
 30
0.0
 11
486.2115518836801
 21
457.05726600088559
 31
0.0
  0
LINE
  5
142
100
AcDbEntity
  8
0
  6
Continuous
 62
               4
100
AcDbLine
 10
363.84582590122528
 20
374.91781994732463
 30
0.0
 11
366.92400719115625
 21
383.37505353439764
 31
0.0
  0
LINE
  5
143
100
AcDbEntity
  8
0
  6
Continuous
 62
               4
100
AcDbLine
 10
363.84582590122528
 20
374.91781994732463
 30
0.0
 11
369.63091438840405
 21
381.81221993539538
 31
0.0
  0
LINE
  5
144
100
AcDbEntity
  8
0
  6
Continuous
 62
               4
100
AcDbLine
 10
475.25028941878617
 20
408.00441255334971
 30
0.0
 11
512.93426783765563
 21
408.00441255334971
 31
0.0
  0
LINE
  5
145
100
AcDbEntity
  8
0
  6
Continuous
 62
               4
100
AcDbLine
 10
443.91179883970841
 20
434.75380612195721
 30
0.0
 11
481.57290986066795
 21
434.75380612195721
 31
0.0
  0
LINE
  5
146
100
AcDbEntity
  8
0
  6
Continuous
 62
               4
100
AcDbLine
 10
289.95378666019923
 20
382.62579729501107
 30
0.0
 11
317.32061972376749
 21
430.02654260336698
 31
0.0
  0
LINE
  5
147
100
AcDbEntity
  8
0
  6
Continuous
 62
               4
100
AcDbLine
 10
317.32061972376749
 20
430.02654260336698
 30
0.0
 11
343.48692734044124
 21
430.02654260336698
 31
0.0
  0
LINE
  5
148
100
AcDbEntity
  8
0
  6
Continuous
 62
               4
100
AcDbLine
 10
289.95378666019923
 20
382.62579729501107
 30
0.0
 11
293.03196795013031
 21
391.0830308820843
 31
0.0
  0
LINE
  5
149
100
AcDbEntity
  8
0
  6
Continuous
 62
               4
100
AcDbLine
 10
289.95378666019923
 20
382.62579729501107
 30
0.0
 11
295.73887514737811
 21
389.52019728308181
 31
0.0
  0
LINE
  5
14A
100
AcDbEntity
  8
0
  6
Continuous
 62
               4
100
AcDbLine
 10
689.95378666019883
 20
384.91781994732418
 30
0.0
 11
689.95378666019883
 21
489.91781994732418
 31
0.0
  0
LINE
  5
14B
100
AcDbEntity
  8
0
  6
Continuous
 62
               4
100
AcDbLine
 10
589.95378666019883
 20
438.91781994732418
 30
0.0
 11
589.95378666019883
 21
489.91781994732418
 31
0.0
  0
LINE
  5
14C
100
AcDbEntity
  8
0
  6
Continuous
 62
               4
100
AcDbLine
 10
689.95378666019883
 20
486.91781994732418
 30
0.0
 11
589.95378666019883
 21
486.91781994732418
 31
0.0
  0
LINE
  5
14D
100
AcDbEntity
  8
0
  6
Continuous
 62
               4
100
AcDbLine
 10
289.95378666019923
 20
438.91781994732418
 30
0.0
 11
289.95378666019923
 21
489.91781994732418
 31
0.0
  0
LINE
  5
14E
100
AcDbEntity
  8
0
  6
Continuous
 62
               4
100
AcDbLine
 10
589.95378666019883
 20
486.91781994732418
 30
0.0
 11
289.95378666019923
 21
486.91781994732418
 31
0.0
  0
LINE
  5
14F
100
AcDbEntity
  8
0
  6
Continuous
 62
               4
100
AcDbLine
 10
289.95378666019923
 20
486.91781994732418
 30
0.0
 11
189.95378666019911
 21
486.91781994732418
 31
0.0
  0
LINE
  5
150
100
AcDbEntity
  8
0
  6
Continuous
 62
               4
100
AcDbLine
 10
659.95378666019906
 20
381.91781994732486
 30
0.0
 11
659.95378666019906
 21
435.9178199473244
 31
0.0
  0
LINE
  5
151
100
AcDbEntity
  8
0
  6
Continuous
 62
               4
100
AcDbLine
 10
689.95378666019883
 20
432.9178199473244
 30
0.0
 11
659.95378666019906
 21
432.9178199473244
 31
0.0
  0
LINE
  5
152
100
AcDbEntity
  8
0
  6
Continuous
 62
               4
100
AcDbLine
 10
290.95378666019911
 20
410.91781994732418
 30
0.0
 11
354.5820810001523
 21
521.12525854306978
 31
0.0
  0
LINE
  5
153
100
AcDbEntity
  8
0
  6
Continuous
 62
               4
100
AcDbLine
 10
354.5820810001523
 20
521.12525854306978
 30
0.0
 11
532.22178215696022
 21
521.12525854306978
 31
0.0
  0
LINE
  5
154
100
AcDbEntity
  8
0
  6
Continuous
 62
               4
100
AcDbLine
 10
290.95378666019911
 20
410.91781994732418
 30
0.0
 11
294.03196795013019
 21
419.37505353439741
 31
0.0
  0
LINE
  5
155
100
AcDbEntity
  8
0
  6
Continuous
 62
               4
100
AcDbLine
 10
290.95378666019911
 20
410.91781994732418
 30
0.0
 11
296.738875147378
 21
417.81221993539492
 31
0.0
  0
LINE
  5
156
100
AcDbEntity
  8
0
  6
Continuous
 62
               4
100
AcDbLine
 10
695.95378666019883
 20
375.91781994732509
 30
0.0
 11
719.95378666020565
 21
375.91781994732486
 31
0.0
  0
LINE
  5
157
100
AcDbEntity
  8
0
  6
Continuous
 62
               4
100
AcDbLine
 10
675.95378666019656
 20
325.91781994732486
 30
0.0
 11
719.95378666020497
 21
325.91781994732418
 31
0.0
  0
LINE
  5
158
100
AcDbEntity
  8
0
  6
Continuous
 62
               4
100
AcDbLine
 10
716.95378666020565
 20
375.91781994732486
 30
0.0
 11
716.95378666020497
 21
325.91781994732429
 31
0.0
  0
LINE
  5
159
100
AcDbEntity
  8
0
  6
Continuous
 62
               4
100
AcDbLine
 10
669.95378666019701
 20
350.91781994732509
 30
0.0
 11
707.23541279706069
 21
286.34414928948894
 31
0.0
  0
LINE
  5
15A
100
AcDbEntity
  8
0
  6
Continuous
 62
               4
100
AcDbLine
 10
707.23541279706069
 20
286.34414928948894
 30
0.0
 11
732.542684938717
 21
286.34414928948894
 31
0.0
  0
LINE
  5
15B
100
AcDbEntity
  8
0
  6
Continuous
 62
               4
100
AcDbLine
 10
669.95378666019701
 20
350.91781994732509
 30
0.0
 11
675.73887514737567
 21
344.02341995925434
 31
0.0
  0
LINE
  5
15C
100
AcDbEntity
  8
0
  6
Continuous
 62
               4
100
AcDbLine
 10
669.95378666019701
 20
350.91781994732509
 30
0.0
 11
673.03196795012786
 21
342.46058636025185
 31
0.0
  0
LINE
  5
15D
100
AcDbEntity
  8
0
  6
Continuous
 62
               4
100
AcDbLine
 10
659.95378666019906
 20
299.41138177990069
 30
0.0
 11
684.58393641741031
 21
256.75071100238051
 31
0.0
  0
LINE
  5
15E
100
AcDbEntity
  8
0
  6
Continuous
 62
               4
100
AcDbLine
 10
684.58393641741031
 20
256.75071100238051
 30
0.0
 11
710.6358539989094
 21
256.75071100238051
 31
0.0
  0
LINE
  5
15F
100
AcDbEntity
  8
0
  6
Continuous
 62
               4
100
AcDbLine
 10
659.95378666019906
 20
299.41138177990069
 30
0.0
 11
665.73887514737794
 21
292.51698179182983
 31
0.0
  0
LINE
  5
160
100
AcDbEntity
  8
0
  6
Continuous
 62
               4
100
AcDbLine
 10
659.95378666019906
 20
299.41138177990069
 30
0.0
 11
663.03196795013014
 21
290.95414819282752
 31
0.0
  0
LINE
  5
161
100
AcDbEntity
  8
0
  6
Continuous
 62
               4
100
AcDbLine
 10
652.36895844464152
 20
241.53122845472456
 30
0.0
 11
678.25058608140853
 21
196.70293440526552
 31
0.0
  0
LINE
  5
162
100
AcDbEntity
  8
0
  6
Continuous
 62
               4
100
AcDbLine
 10
678.25058608140853
 20
196.70293440526552
 30
0.0
 11
716.04074489492496
 21
196.70293440526552
 31
0.0
  0
LINE
  5
163
100
AcDbEntity
  8
0
  6
Continuous
 62
               4
100
AcDbLine
 10
652.36895844464152
 20
241.53122845472456
 30
0.0
 11
658.1540469318204
 21
234.6368284666537
 31
0.0
  0
LINE
  5
164
100
AcDbEntity
  8
0
  6
Continuous
 62
               4
100
AcDbLine
 10
652.36895844464152
 20
241.53122845472456
 30
0.0
 11
655.4471397345726
 21
233.07399486765138
 31
0.0
  0
LINE
  5
165
100
AcDbEntity
  8
0
  6
Continuous
 62
               3
100
AcDbLine
 10
658.45378666019883
 20
373.91781994732463
 30
0.0
 11
658.45378666019883
 21
343.91781994732463
 31
0.0
  0
LINE
  5
166
100
AcDbEntity
  8
0
  6
Continuous
 62
               2
100
AcDbLine
 10
646.45378666019883
 20
342.91781994732463
 30
0.0
 11
626.45378666019883
 21
342.91781994732463
 31
0.0
  0
LINE
  5
167
100
AcDbEntity
  8
0
  6
Continuous
 62
               2
100
AcDbLine
 10
616.45378666019883
 20
287.91781994732463
 30
0.0
 11
337.45378666019889
 21
287.91781994732463
 31
0.0
  0
LINE
  5
168
100
AcDbEntity
  8
0
  6
Continuous
 62
               2
100
AcDbLine
 10
646.45378666019883
 20
342.91781994732463
 30
0.0
 11
646.45378666019883
 21
332.91781994732463
 31
0.0
  0
LINE
  5
169
100
AcDbEntity
  8
0
  6
Continuous
 62
               4
100
AcDbLine
 10
646.45378666019883
 20
212.91781994732463
 30
0.0
 11
601.45378666019792
 21
212.91781994732463
 31
0.0
  0
LINE
  5
16A
100
AcDbEntity
  8
0
  6
Continuous
 62
               4
100
AcDbLine
 10
601.45378666019792
 20
217.5178198519572
 30
0.0
 11
601.45378666019792
 21
227.91781994732463
 31
0.0
  0
LINE
  5
16B
100
AcDbEntity
  8
0
  6
Continuous
 62
               4
100
AcDbLine
 10
601.45378666019792
 20
227.91781994732463
 30
0.0
 11
603.7537866125142
 21
227.91781994732463
 31
0.0
  0
LINE
  5
16C
100
AcDbEntity
  8
0
  6
Continuous
 62
               4
100
AcDbLine
 10
603.7537866125142
 20
227.91781994732463
 30
0.0
 11
603.7537866125142
 21
217.5178198519572
 31
0.0
  0
LINE
  5
16D
100
AcDbEntity
  8
0
  6
Continuous
 62
               4
100
AcDbLine
 10
606.05378656483049
 20
215.21781989964092
 30
0.0
 11
641.85378675556626
 21
215.21781989964092
 31
0.0
  0
LINE
  5
16E
100
AcDbEntity
  8
0
  6
Continuous
 62
               4
100
AcDbLine
 10
644.15378670788255
 20
217.5178198519572
 30
0.0
 11
644.15378670788255
 21
283.31782004269206
 31
0.0
  0
LINE
  5
16F
100
AcDbEntity
  8
0
  6
Continuous
 62
               4
100
AcDbLine
 10
641.85378675556626
 20
285.61781999500835
 30
0.0
 11
606.05378656483049
 21
285.61781999500835
 31
0.0
  0
LINE
  5
170
100
AcDbEntity
  8
0
  6
Continuous
 62
               4
100
AcDbLine
 10
603.7537866125142
 20
283.31782004269206
 30
0.0
 11
603.7537866125142
 21
272.91781994732463
 31
0.0
  0
LINE
  5
171
100
AcDbEntity
  8
0
  6
Continuous
 62
               4
100
AcDbLine
 10
603.7537866125142
 20
272.91781994732463
 30
0.0
 11
601.45378666019792
 21
272.91781994732463
 31
0.0
  0
LINE
  5
172
100
AcDbEntity
  8
0
  6
Continuous
 62
               4
100
AcDbLine
 10
601.45378666019792
 20
272.91781994732463
 30
0.0
 11
601.45378666019792
 21
283.31782004269206
 31
0.0
  0
LINE
  5
173
100
AcDbEntity
  8
0
  6
Continuous
 62
               4
100
AcDbLine
 10
606.05378656483049
 20
287.91781994732463
 30
0.0
 11
641.85378675556626
 21
287.91781994732463
 31
0.0
  0
LINE
  5
174
100
AcDbEntity
  8
0
  6
Continuous
 62
               4
100
AcDbLine
 10
599.45378666019792
 20
212.91781994732463
 30
0.0
 11
599.45378666019792
 21
287.91781994732463
 31
0.0
  0
LINE
  5
175
100
AcDbEntity
  8
0
  6
Continuous
 62
               3
100
AcDbLine
 10
658.45378666019883
 20
286.91781994732463
 30
0.0
 11
646.45378666019883
 21
286.91781994732463
 31
0.0
  0
LINE
  5
176
100
AcDbEntity
  8
0
  6
Continuous
 62
               2
100
AcDbLine
 10
626.45378666019883
 20
342.91781994732463
 30
0.0
 11
626.45378666019883
 21
297.91781994732463
 31
0.0
  0
LINE
  5
177
100
AcDbEntity
  8
0
  6
Continuous
 62
               2
100
AcDbLine
 10
626.45378666019883
 20
297.91781994732463
 30
0.0
 11
616.45378666019883
 21
287.91781994732463
 31
0.0
  0
LINE
  5
178
100
AcDbEntity
  8
0
  6
Continuous
 62
               2
100
AcDbLine
 10
327.45378666019889
 20
341.91781994732463
 30
0.0
 11
327.45378666019889
 21
297.91781994732463
 31
0.0
  0
LINE
  5
179
100
AcDbEntity
  8
0
  6
Continuous
 62
               2
100
AcDbLine
 10
325.45378666019889
 20
342.91781994732463
 30
0.0
 11
325.45378666019889
 21
297.91781994732463
 31
0.0
  0
LINE
  5
17A
100
AcDbEntity
  8
0
  6
Continuous
 62
               2
100
AcDbLine
 10
337.45378666019889
 20
287.91781994732463
 30
0.0
 11
327.45378666019889
 21
297.91781994732463
 31
0.0
  0
LINE
  5
17B
100
AcDbEntity
  8
0
  6
Continuous
 62
               2
100
AcDbLine
 10
325.45378666019889
 20
297.91781994732463
 30
0.0
 11
315.45378666019889
 21
287.91781994732463
 31
0.0
  0
LINE
  5
17C
100
AcDbEntity
  8
0
  6
Continuous
 62
               4
100
AcDbLine
 10
337.45378666019889
 20
287.91781994732463
 30
0.0
 11
315.45378666019889
 21
287.91781994732463
 31
0.0
  0
LINE
  5
17D
100
AcDbEntity
  8
0
  6
Continuous
 62
               2
100
AcDbLine
 10
345.45378666019889
 20
342.91781994732463
 30
0.0
 11
325.45378666019889
 21
342.91781994732463
 31
0.0
  0
LINE
  5
17E
100
AcDbEntity
  8
0
  6
Continuous
 62
               2
100
AcDbLine
 10
345.45378666019889
 20
342.91781994732463
 30
0.0
 11
345.45378666019889
 21
332.91781994732463
 31
0.0
  0
LINE
  5
17F
100
AcDbEntity
  8
0
  6
Continuous
 62
               2
100
AcDbLine
 10
342.45378666019889
 20
341.91781994732463
 30
0.0
 11
327.45378666019889
 21
341.91781994732463
 31
0.0
  0
LINE
  5
180
100
AcDbEntity
  8
0
  6
Continuous
 62
               3
100
AcDbLine
 10
616.45378666019883
 20
288.41781994732463
 30
0.0
 11
337.45378666019889
 21
288.41781994732463
 31
0.0
  0
LINE
  5
181
100
AcDbEntity
  8
0
  6
Continuous
 62
               3
100
AcDbLine
 10
616.45378666019883
 20
288.41781994732463
 30
0.0
 11
616.45378666019883
 21
313.41781994732463
 31
0.0
  0
LINE
  5
182
100
AcDbEntity
  8
0
  6
Continuous
 62
               3
100
AcDbLine
 10
337.45378666019889
 20
288.41781994732463
 30
0.0
 11
337.45378666019889
 21
313.41781994732463
 31
0.0
  0
LINE
  5
183
100
AcDbEntity
  8
0
  6
Continuous
 62
               4
100
AcDbLine
 10
609.72870104376057
 20
265.84273433088464
 30
0.0
 11
611.72870104376057
 21
267.84273433088464
 31
0.0
  0
LINE
  5
184
100
AcDbEntity
  8
0
  6
Continuous
 62
               4
100
AcDbLine
 10
609.72870104376057
 20
265.84273433088464
 30
0.0
 11
607.72870104376057
 21
267.84273433088464
 31
0.0
  0
LINE
  5
185
100
AcDbEntity
  8
0
  6
Continuous
 62
               4
100
AcDbLine
 10
611.72870104376057
 20
283.78830310312759
 30
0.0
 11
607.72870104376057
 21
281.47890202636898
 31
0.0
  0
LINE
  5
186
100
AcDbEntity
  8
0
  6
Continuous
 62
               4
100
AcDbLine
 10
611.72870104376057
 20
281.69070945576431
 30
0.0
 11
607.72870104376057
 21
279.3813083790057
 31
0.0
  0
LINE
  5
187
100
AcDbEntity
  8
0
  6
Continuous
 62
               4
100
AcDbLine
 10
611.72870104376057
 20
279.59311580840102
 30
0.0
 11
607.72870104376057
 21
277.28371473164242
 31
0.0
  0
LINE
  5
188
100
AcDbEntity
  8
0
  6
Continuous
 62
               4
100
AcDbLine
 10
611.72870104376057
 20
277.49552216103729
 30
0.0
 11
607.72870104376057
 21
275.18612108427914
 31
0.0
  0
LINE
  5
189
100
AcDbEntity
  8
0
  6
Continuous
 62
               4
100
AcDbLine
 10
611.72870104376057
 20
275.397928513674
 30
0.0
 11
607.72870104376057
 21
273.08852743691585
 31
0.0
  0
LINE
  5
18A
100
AcDbEntity
  8
0
  6
Continuous
 62
               4
100
AcDbLine
 10
611.72870104376057
 20
273.30033486631072
 30
0.0
 11
607.72870104376057
 21
270.99093378955212
 31
0.0
  0
LINE
  5
18B
100
AcDbEntity
  8
0
  6
Continuous
 62
               4
100
AcDbLine
 10
611.72870104376057
 20
271.20274121894744
 30
0.0
 11
607.72870104376057
 21
268.89334014218883
 31
0.0
  0
LINE
  5
18C
100
AcDbEntity
  8
0
  6
Continuous
 62
               4
100
AcDbLine
 10
611.72870104376057
 20
269.10514757158415
 30
0.0
 11
608.39246473436856
 21
267.17897064027619
 31
0.0
  0
LINE
  5
18D
100
AcDbEntity
  8
0
  6
Continuous
 62
               4
100
AcDbLine
 10
605.69757216961102
 20
288.87015114931518
 30
0.0
 11
613.75982991791011
 21
288.87015114931518
 31
0.0
  0
LINE
  5
18E
100
AcDbEntity
  8
0
  6
Continuous
 62
               4
100
AcDbLine
 10
613.75982991791011
 20
288.87015114931518
 30
0.0
 11
611.72870104376057
 21
286.83902227516563
 31
0.0
  0
LINE
  5
18F
100
AcDbEntity
  8
0
  6
Continuous
 62
               4
100
AcDbLine
 10
605.69757216961102
 20
288.87015114931518
 30
0.0
 11
607.72870104376057
 21
286.83902227516563
 31
0.0
  0
LINE
  5
190
100
AcDbEntity
  8
0
  6
Continuous
 62
               4
100
AcDbLine
 10
607.72870104376057
 20
286.83902227516563
 30
0.0
 11
607.72870104376057
 21
267.84273433088464
 31
0.0
  0
LINE
  5
191
100
AcDbEntity
  8
0
  6
Continuous
 62
               4
100
AcDbLine
 10
611.72870104376057
 20
286.83902227516563
 30
0.0
 11
611.72870104376057
 21
267.84273433088464
 31
0.0
  0
LINE
  5
192
100
AcDbEntity
  8
0
  6
Continuous
 62
               4
100
AcDbLine
 10
358.7916719341718
 20
265.11803398841874
 30
0.0
 11
360.79167193417157
 21
267.11803398841874
 31
0.0
  0
LINE
  5
193
100
AcDbEntity
  8
0
  6
Continuous
 62
               4
100
AcDbLine
 10
358.7916719341718
 20
265.11803398841874
 30
0.0
 11
356.79167193417157
 21
267.1180339884192
 31
0.0
  0
LINE
  5
194
100
AcDbEntity
  8
0
  6
Continuous
 62
               4
100
AcDbLine
 10
360.79167193417157
 20
283.06360276066169
 30
0.0
 11
356.79167193417157
 21
280.75420168390355
 31
0.0
  0
LINE
  5
195
100
AcDbEntity
  8
0
  6
Continuous
 62
               4
100
AcDbLine
 10
360.79167193417157
 20
280.96600911329841
 30
0.0
 11
356.79167193417157
 21
278.65660803654026
 31
0.0
  0
LINE
  5
196
100
AcDbEntity
  8
0
  6
Continuous
 62
               4
100
AcDbLine
 10
360.79167193417157
 20
278.86841546593513
 30
0.0
 11
356.79167193417157
 21
276.55901438917653
 31
0.0
  0
LINE
  5
197
100
AcDbEntity
  8
0
  6
Continuous
 62
               4
100
AcDbLine
 10
360.79167193417157
 20
276.77082181857185
 30
0.0
 11
356.79167193417157
 21
274.46142074181324
 31
0.0
  0
LINE
  5
198
100
AcDbEntity
  8
0
  6
Continuous
 62
               4
100
AcDbLine
 10
360.79167193417157
 20
274.67322817120856
 30
0.0
 11
356.79167193417157
 21
272.36382709444996
 31
0.0
  0
LINE
  5
199
100
AcDbEntity
  8
0
  6
Continuous
 62
               4
100
AcDbLine
 10
360.79167193417157
 20
272.57563452384528
 30
0.0
 11
356.79167193417157
 21
270.26623344708668
 31
0.0
  0
LINE
  5
19A
100
AcDbEntity
  8
0
  6
Continuous
 62
               4
100
AcDbLine
 10
360.79167193417157
 20
270.47804087648154
 30
0.0
 11
356.79167193417157
 21
268.16863979972294
 31
0.0
  0
LINE
  5
19B
100
AcDbEntity
  8
0
  6
Continuous
 62
               4
100
AcDbLine
 10
360.79167193417157
 20
268.38044722911826
 30
0.0
 11
357.45543562478002
 21
266.45427029781075
 31
0.0
  0
LINE
  5
19C
100
AcDbEntity
  8
0
  6
Continuous
 62
               4
100
AcDbLine
 10
354.76054306002248
 20
288.14545080684928
 30
0.0
 11
362.82280080832089
 21
288.14545080684928
 31
0.0
  0
LINE
  5
19D
100
AcDbEntity
  8
0
  6
Continuous
 62
               4
100
AcDbLine
 10
362.82280080832089
 20
288.14545080684928
 30
0.0
 11
360.79167193417157
 21
286.11432193270019
 31
0.0
  0
LINE
  5
19E
100
AcDbEntity
  8
0
  6
Continuous
 62
               4
100
AcDbLine
 10
354.76054306002248
 20
288.14545080684928
 30
0.0
 11
356.79167193417157
 21
286.11432193270019
 31
0.0
  0
LINE
  5
19F
100
AcDbEntity
  8
0
  6
Continuous
 62
               4
100
AcDbLine
 10
356.79167193417157
 20
286.11432193270019
 30
0.0
 11
356.79167193417157
 21
267.1180339884192
 31
0.0
  0
LINE
  5
1A0
100
AcDbEntity
  8
0
  6
Continuous
 62
               4
100
AcDbLine
 10
360.79167193417157
 20
286.11432193270019
 30
0.0
 11
360.79167193417157
 21
267.11803398841874
 31
0.0
  0
LINE
  5
1A1
100
AcDbEntity
  8
0
  6
Continuous
 62
               4
100
AcDbLine
 10
636.19933460540437
 20
329.30850731370055
 30
0.0
 11
638.19933460540437
 21
331.30850731370055
 31
0.0
  0
LINE
  5
1A2
100
AcDbEntity
  8
0
  6
Continuous
 62
               4
100
AcDbLine
 10
636.19933460540437
 20
329.30850731370055
 30
0.0
 11
634.19933460540437
 21
331.308507313701
 31
0.0
  0
LINE
  5
1A3
100
AcDbEntity
  8
0
  6
Continuous
 62
               4
100
AcDbLine
 10
638.19933460540437
 20
369.22665926751341
 30
0.0
 11
634.19933460540437
 21
366.91725819075481
 31
0.0
  0
LINE
  5
1A4
100
AcDbEntity
  8
0
  6
Continuous
 62
               4
100
AcDbLine
 10
638.19933460540437
 20
367.12906562015013
 30
0.0
 11
634.19933460540437
 21
364.81966454339153
 31
0.0
  0
LINE
  5
1A5
100
AcDbEntity
  8
0
  6
Continuous
 62
               4
100
AcDbLine
 10
638.19933460540437
 20
365.03147197278639
 30
0.0
 11
634.19933460540437
 21
362.72207089602824
 31
0.0
  0
LINE
  5
1A6
100
AcDbEntity
  8
0
  6
Continuous
 62
               4
100
AcDbLine
 10
638.19933460540437
 20
362.93387832542311
 30
0.0
 11
634.19933460540437
 21
360.6244772486645
 31
0.0
  0
LINE
  5
1A7
100
AcDbEntity
  8
0
  6
Continuous
 62
               4
100
AcDbLine
 10
638.19933460540437
 20
360.83628467805983
 30
0.0
 11
634.19933460540437
 21
358.52688360130122
 31
0.0
  0
LINE
  5
1A8
100
AcDbEntity
  8
0
  6
Continuous
 62
               4
100
AcDbLine
 10
638.19933460540437
 20
358.73869103069654
 30
0.0
 11
634.19933460540437
 21
356.42928995393794
 31
0.0
  0
LINE
  5
1A9
100
AcDbEntity
  8
0
  6
Continuous
 62
               4
100
AcDbLine
 10
638.19933460540437
 20
356.64109738333326
 30
0.0
 11
634.19933460540437
 21
354.33169630657466
 31
0.0
  0
LINE
  5
1AA
100
AcDbEntity
  8
0
  6
Continuous
 62
               4
100
AcDbLine
 10
638.19933460540437
 20
354.54350373596952
 30
0.0
 11
634.19933460540437
 21
352.23410265921092
 31
0.0
  0
LINE
  5
1AB
100
AcDbEntity
  8
0
  6
Continuous
 62
               4
100
AcDbLine
 10
632.16820573125483
 20
374.30850731370055
 30
0.0
 11
640.23046347955392
 21
374.30850731370055
 31
0.0
  0
LINE
  5
1AC
100
AcDbEntity
  8
0
  6
Continuous
 62
               4
100
AcDbLine
 10
640.23046347955392
 20
374.30850731370055
 30
0.0
 11
638.19933460540437
 21
372.27737843955146
 31
0.0
  0
LINE
  5
1AD
100
AcDbEntity
  8
0
  6
Continuous
 62
               4
100
AcDbLine
 10
632.16820573125483
 20
374.30850731370055
 30
0.0
 11
634.19933460540437
 21
372.27737843955146
 31
0.0
  0
LINE
  5
1AE
100
AcDbEntity
  8
0
  6
Continuous
 62
               4
100
AcDbLine
 10
634.19933460540437
 20
372.27737843955146
 30
0.0
 11
634.19933460540437
 21
331.308507313701
 31
0.0
  0
LINE
  5
1AF
100
AcDbEntity
  8
0
  6
Continuous
 62
               4
100
AcDbLine
 10
638.19933460540437
 20
372.27737843955146
 30
0.0
 11
638.19933460540437
 21
331.30850731370055
 31
0.0
  0
LINE
  5
1B0
100
AcDbEntity
  8
0
  6
Continuous
 62
               4
100
AcDbLine
 10
638.19933460540437
 20
352.44591008860624
 30
0.0
 11
634.19933460540437
 21
350.13650901184718
 31
0.0
  0
LINE
  5
1B1
100
AcDbEntity
  8
0
  6
Continuous
 62
               4
100
AcDbLine
 10
638.19933460540437
 20
350.3483164412425
 30
0.0
 11
634.19933460540437
 21
348.0389153644839
 31
0.0
  0
LINE
  5
1B2
100
AcDbEntity
  8
0
  6
Continuous
 62
               4
100
AcDbLine
 10
638.19933460540437
 20
348.25072279387922
 30
0.0
 11
634.19933460540437
 21
345.94132171712062
 31
0.0
  0
LINE
  5
1B3
100
AcDbEntity
  8
0
  6
Continuous
 62
               4
100
AcDbLine
 10
638.19933460540437
 20
346.15312914651548
 30
0.0
 11
634.19933460540437
 21
343.84372806975688
 31
0.0
  0
LINE
  5
1B4
100
AcDbEntity
  8
0
  6
Continuous
 62
               4
100
AcDbLine
 10
638.19933460540437
 20
344.0555354991522
 30
0.0
 11
634.19933460540437
 21
341.7461344223936
 31
0.0
  0
LINE
  5
1B5
100
AcDbEntity
  8
0
  6
Continuous
 62
               4
100
AcDbLine
 10
638.19933460540437
 20
341.95794185178892
 30
0.0
 11
634.19933460540437
 21
339.64854077503031
 31
0.0
  0
LINE
  5
1B6
100
AcDbEntity
  8
0
  6
Continuous
 62
               4
100
AcDbLine
 10
638.19933460540437
 20
339.86034820442518
 30
0.0
 11
634.19933460540437
 21
337.55094712766657
 31
0.0
  0
LINE
  5
1B7
100
AcDbEntity
  8
0
  6
Continuous
 62
               4
100
AcDbLine
 10
638.19933460540437
 20
337.7627545570619
 30
0.0
 11
634.19933460540437
 21
335.45335348030329
 31
0.0
  0
LINE
  5
1B8
100
AcDbEntity
  8
0
  6
Continuous
 62
               4
100
AcDbLine
 10
638.19933460540437
 20
335.66516090969861
 30
0.0
 11
634.19933460540437
 21
333.35575983293955
 31
0.0
  0
LINE
  5
1B9
100
AcDbEntity
  8
0
  6
Continuous
 62
               4
100
AcDbLine
 10
308.72870104376062
 20
265.84273433088418
 30
0.0
 11
310.72870104376062
 21
267.84273433088418
 31
0.0
  0
LINE
  5
1BA
100
AcDbEntity
  8
0
  6
Continuous
 62
               4
100
AcDbLine
 10
308.72870104376062
 20
265.84273433088418
 30
0.0
 11
306.72870104376062
 21
267.84273433088418
 31
0.0
  0
LINE
  5
1BB
100
AcDbEntity
  8
0
  6
Continuous
 62
               4
100
AcDbLine
 10
310.72870104376062
 20
283.78830310312713
 30
0.0
 11
306.72870104376062
 21
281.47890202636853
 31
0.0
  0
LINE
  5
1BC
100
AcDbEntity
  8
0
  6
Continuous
 62
               4
100
AcDbLine
 10
310.72870104376062
 20
281.69070945576385
 30
0.0
 11
306.72870104376062
 21
279.38130837900525
 31
0.0
  0
LINE
  5
1BD
100
AcDbEntity
  8
0
  6
Continuous
 62
               4
100
AcDbLine
 10
310.72870104376062
 20
279.59311580840057
 30
0.0
 11
306.72870104376062
 21
277.28371473164196
 31
0.0
  0
LINE
  5
1BE
100
AcDbEntity
  8
0
  6
Continuous
 62
               4
100
AcDbLine
 10
310.72870104376062
 20
277.49552216103729
 30
0.0
 11
306.72870104376062
 21
275.18612108427868
 31
0.0
  0
LINE
  5
1BF
100
AcDbEntity
  8
0
  6
Continuous
 62
               4
100
AcDbLine
 10
310.72870104376062
 20
275.39792851367355
 30
0.0
 11
306.72870104376062
 21
273.0885274369154
 31
0.0
  0
LINE
  5
1C0
100
AcDbEntity
  8
0
  6
Continuous
 62
               4
100
AcDbLine
 10
310.72870104376062
 20
273.30033486631027
 30
0.0
 11
306.72870104376062
 21
270.99093378955166
 31
0.0
  0
LINE
  5
1C1
100
AcDbEntity
  8
0
  6
Continuous
 62
               4
100
AcDbLine
 10
310.72870104376062
 20
271.20274121894698
 30
0.0
 11
306.72870104376062
 21
268.89334014218838
 31
0.0
  0
LINE
  5
1C2
100
AcDbEntity
  8
0
  6
Continuous
 62
               4
100
AcDbLine
 10
310.72870104376062
 20
269.1051475715837
 30
0.0
 11
307.39246473436884
 21
267.17897064027574
 31
0.0
  0
LINE
  5
1C3
100
AcDbEntity
  8
0
  6
Continuous
 62
               4
100
AcDbLine
 10
304.69757216961131
 20
288.87015114931472
 30
0.0
 11
312.75982991790994
 21
288.87015114931472
 31
0.0
  0
LINE
  5
1C4
100
AcDbEntity
  8
0
  6
Continuous
 62
               4
100
AcDbLine
 10
312.75982991790994
 20
288.87015114931472
 30
0.0
 11
310.72870104376062
 21
286.83902227516518
 31
0.0
  0
LINE
  5
1C5
100
AcDbEntity
  8
0
  6
Continuous
 62
               4
100
AcDbLine
 10
304.69757216961131
 20
288.87015114931472
 30
0.0
 11
306.72870104376062
 21
286.83902227516518
 31
0.0
  0
LINE
  5
1C6
100
AcDbEntity
  8
0
  6
Continuous
 62
               4
100
AcDbLine
 10
306.72870104376062
 20
286.83902227516518
 30
0.0
 11
306.72870104376062
 21
267.84273433088418
 31
0.0
  0
LINE
  5
1C7
100
AcDbEntity
  8
0
  6
Continuous
 62
               4
100
AcDbLine
 10
310.72870104376062
 20
286.83902227516518
 30
0.0
 11
310.72870104376062
 21
267.84273433088418
 31
0.0
  0
LINE
  5
1C8
100
AcDbEntity
  8
0
  6
Continuous
 62
               4
100
AcDbLine
 10
335.19933460540443
 20
329.30850731370009
 30
0.0
 11
337.19933460540443
 21
331.30850731370009
 31
0.0
  0
LINE
  5
1C9
100
AcDbEntity
  8
0
  6
Continuous
 62
               4
100
AcDbLine
 10
335.19933460540443
 20
329.30850731370009
 30
0.0
 11
333.19933460540443
 21
331.30850731370055
 31
0.0
  0
LINE
  5
1CA
100
AcDbEntity
  8
0
  6
Continuous
 62
               4
100
AcDbLine
 10
337.19933460540443
 20
369.22665926751296
 30
0.0
 11
333.19933460540443
 21
366.91725819075435
 31
0.0
  0
LINE
  5
1CB
100
AcDbEntity
  8
0
  6
Continuous
 62
               4
100
AcDbLine
 10
337.19933460540443
 20
367.12906562014967
 30
0.0
 11
333.19933460540443
 21
364.81966454339107
 31
0.0
  0
LINE
  5
1CC
100
AcDbEntity
  8
0
  6
Continuous
 62
               4
100
AcDbLine
 10
337.19933460540443
 20
365.03147197278639
 30
0.0
 11
333.19933460540443
 21
362.72207089602779
 31
0.0
  0
LINE
  5
1CD
100
AcDbEntity
  8
0
  6
Continuous
 62
               4
100
AcDbLine
 10
337.19933460540443
 20
362.93387832542265
 30
0.0
 11
333.19933460540443
 21
360.6244772486645
 31
0.0
  0
LINE
  5
1CE
100
AcDbEntity
  8
0
  6
Continuous
 62
               4
100
AcDbLine
 10
337.19933460540443
 20
360.83628467805937
 30
0.0
 11
333.19933460540443
 21
358.52688360130077
 31
0.0
  0
LINE
  5
1CF
100
AcDbEntity
  8
0
  6
Continuous
 62
               4
100
AcDbLine
 10
337.19933460540443
 20
358.73869103069609
 30
0.0
 11
333.19933460540443
 21
356.42928995393748
 31
0.0
  0
LINE
  5
1D0
100
AcDbEntity
  8
0
  6
Continuous
 62
               4
100
AcDbLine
 10
337.19933460540443
 20
356.64109738333281
 30
0.0
 11
333.19933460540443
 21
354.3316963065742
 31
0.0
  0
LINE
  5
1D1
100
AcDbEntity
  8
0
  6
Continuous
 62
               4
100
AcDbLine
 10
337.19933460540443
 20
354.54350373596907
 30
0.0
 11
333.19933460540443
 21
352.23410265921046
 31
0.0
  0
LINE
  5
1D2
100
AcDbEntity
  8
0
  6
Continuous
 62
               4
100
AcDbLine
 10
331.16820573125511
 20
374.30850731370009
 30
0.0
 11
339.23046347955352
 21
374.30850731370009
 31
0.0
  0
LINE
  5
1D3
100
AcDbEntity
  8
0
  6
Continuous
 62
               4
100
AcDbLine
 10
339.23046347955352
 20
374.30850731370009
 30
0.0
 11
337.19933460540443
 21
372.277378439551
 31
0.0
  0
LINE
  5
1D4
100
AcDbEntity
  8
0
  6
Continuous
 62
               4
100
AcDbLine
 10
331.16820573125511
 20
374.30850731370009
 30
0.0
 11
333.19933460540443
 21
372.277378439551
 31
0.0
  0
LINE
  5
1D5
100
AcDbEntity
  8
0
  6
Continuous
 62
               4
100
AcDbLine
 10
333.19933460540443
 20
372.277378439551
 30
0.0
 11
333.19933460540443
 21
331.30850731370055
 31
0.0
  0
LINE
  5
1D6
100
AcDbEntity
  8
0
  6
Continuous
 62
               4
100
AcDbLine
 10
337.19933460540443
 20
372.277378439551
 30
0.0
 11
337.19933460540443
 21
331.30850731370009
 31
0.0
  0
LINE
  5
1D7
100
AcDbEntity
  8
0
  6
Continuous
 62
               4
100
AcDbLine
 10
337.19933460540443
 20
352.44591008860579
 30
0.0
 11
333.19933460540443
 21
350.13650901184718
 31
0.0
  0
LINE
  5
1D8
100
AcDbEntity
  8
0
  6
Continuous
 62
               4
100
AcDbLine
 10
337.19933460540443
 20
350.34831644124205
 30
0.0
 11
333.19933460540443
 21
348.03891536448344
 31
0.0
  0
LINE
  5
1D9
100
AcDbEntity
  8
0
  6
Continuous
 62
               4
100
AcDbLine
 10
337.19933460540443
 20
348.25072279387877
 30
0.0
 11
333.19933460540443
 21
345.94132171712016
 31
0.0
  0
LINE
  5
1DA
100
AcDbEntity
  8
0
  6
Continuous
 62
               4
100
AcDbLine
 10
337.19933460540443
 20
346.15312914651548
 30
0.0
 11
333.19933460540443
 21
343.84372806975642
 31
0.0
  0
LINE
  5
1DB
100
AcDbEntity
  8
0
  6
Continuous
 62
               4
100
AcDbLine
 10
337.19933460540443
 20
344.05553549915174
 30
0.0
 11
333.19933460540443
 21
341.74613442239314
 31
0.0
  0
LINE
  5
1DC
100
AcDbEntity
  8
0
  6
Continuous
 62
               4
100
AcDbLine
 10
337.19933460540443
 20
341.95794185178846
 30
0.0
 11
333.19933460540443
 21
339.64854077502986
 31
0.0
  0
LINE
  5
1DD
100
AcDbEntity
  8
0
  6
Continuous
 62
               4
100
AcDbLine
 10
337.19933460540443
 20
339.86034820442472
 30
0.0
 11
333.19933460540443
 21
337.55094712766612
 31
0.0
  0
LINE
  5
1DE
100
AcDbEntity
  8
0
  6
Continuous
 62
               4
100
AcDbLine
 10
337.19933460540443
 20
337.76275455706144
 30
0.0
 11
333.19933460540443
 21
335.45335348030284
 31
0.0
  0
LINE
  5
1DF
100
AcDbEntity
  8
0
  6
Continuous
 62
               4
100
AcDbLine
 10
337.19933460540443
 20
335.66516090969816
 30
0.0
 11
333.19933460540443
 21
333.35575983293955
 31
0.0
  0
LINE
  5
1E0
100
AcDbEntity
  8
0
  6
Continuous
 62
               3
100
AcDbLine
 10
189.95378666019911
 20
373.9178199473244
 30
0.0
 11
658.45378666019883
 21
373.91781994732463
 31
0.0
  0
LINE
  5
1E1
100
AcDbEntity
  8
0
  6
Continuous
 62
               4
100
AcDbLine
 10
189.95378666019911
 20
212.91781994732463
 30
0.0
 11
599.45378666019792
 21
212.91781994732463
 31
0.0
  0
LINE
  5
1E2
100
AcDbEntity
  8
0
  6
Continuous
 62
               4
100
AcDbLine
 10
189.95378666019911
 20
227.91781994732463
 30
0.0
 11
599.45378666019792
 21
227.91781994732463
 31
0.0
  0
LINE
  5
1E3
100
AcDbEntity
  8
0
  6
Continuous
 62
               4
100
AcDbLine
 10
189.95378666019911
 20
272.91781994732463
 30
0.0
 11
599.45378666019792
 21
272.91781994732463
 31
0.0
  0
LINE
  5
1E4
100
AcDbEntity
  8
0
  6
DOT
 62
               4
100
AcDbLine
 10
189.95378666019911
 20
285.61781999500835
 30
0.0
 11
599.45378666019792
 21
285.61781999500835
 31
0.0
  0
LINE
  5
1E5
100
AcDbEntity
  8
0
  6
DOT
 62
               4
100
AcDbLine
 10
189.95378666019911
 20
215.21781989964092
 30
0.0
 11
599.45378666019792
 21
215.21781989964092
 31
0.0
  0
LINE
  5
1E6
100
AcDbEntity
  8
0
  6
Continuous
 62
               2
100
AcDbLine
 10
189.95378666019911
 20
287.91781994732463
 30
0.0
 11
315.45378666019889
 21
287.91781994732463
 31
0.0
  0
LINE
  5
1E7
100
AcDbEntity
  8
0
  6
Continuous
 62
               3
100
AcDbLine
 10
189.95378666019911
 20
313.41781994732463
 30
0.0
 11
324.45378666019889
 21
313.41781994732463
 31
0.0
  0
LINE
  5
1E8
100
AcDbEntity
  8
0
  6
Continuous
 62
               3
100
AcDbLine
 10
189.95378666019911
 20
358.91781994732463
 30
0.0
 11
658.45378666019883
 21
358.91781994732463
 31
0.0
  0
LINE
  5
1E9
100
AcDbEntity
  8
0
  6
Continuous
 62
               3
100
AcDbLine
 10
337.45378666019877
 20
313.41781994732457
 30
0.0
 11
625.45378666019883
 21
313.41781994732463
 31
0.0
  0
LINE
  5
1EA
100
AcDbEntity
  8
0
  6
DASHED
 62
               6
100
AcDbLine
 10
189.95378666019911
 20
374.9178199473244
 30
0.0
 11
658.45378666019883
 21
374.91781994732463
 31
0.0
  0
LINE
  5
1EB
100
AcDbEntity
  8
0
  6
Continuous
 62
               4
100
AcDbLine
 10
289.95378666019911
 20
375.91781994732463
 30
0.0
 11
329.95378666019911
 21
375.91781994732463
 31
0.0
  0
LINE
  5
1EC
100
AcDbEntity
  8
0
  6
Continuous
 62
               4
100
AcDbLine
 10
311.23422967972698
 20
353.74958911083394
 30
0.0
 11
309.23422967972698
 21
355.74958911083394
 31
0.0
  0
LINE
  5
1ED
100
AcDbEntity
  8
0
  6
Continuous
 62
               4
100
AcDbLine
 10
311.23422967972698
 20
353.74958911083394
 30
0.0
 11
313.23422967972698
 21
355.74958911083439
 31
0.0
  0
LINE
  5
1EE
100
AcDbEntity
  8
0
  6
Continuous
 62
               4
100
AcDbLine
 10
309.23422967972698
 20
371.69515788307689
 30
0.0
 11
313.23422967972698
 21
369.38575680631874
 31
0.0
  0
LINE
  5
1EF
100
AcDbEntity
  8
0
  6
Continuous
 62
               4
100
AcDbLine
 10
309.23422967972698
 20
369.59756423571361
 30
0.0
 11
313.23422967972698
 21
367.288163158955
 31
0.0
  0
LINE
  5
1F0
100
AcDbEntity
  8
0
  6
Continuous
 62
               4
100
AcDbLine
 10
309.23422967972698
 20
367.49997058835032
 30
0.0
 11
313.23422967972698
 21
365.19056951159172
 31
0.0
  0
LINE
  5
1F1
100
AcDbEntity
  8
0
  6
Continuous
 62
               4
100
AcDbLine
 10
309.23422967972698
 20
365.40237694098704
 30
0.0
 11
313.23422967972698
 21
363.09297586422844
 31
0.0
  0
LINE
  5
1F2
100
AcDbEntity
  8
0
  6
Continuous
 62
               4
100
AcDbLine
 10
309.23422967972698
 20
363.30478329362376
 30
0.0
 11
313.23422967972698
 21
360.99538221686515
 31
0.0
  0
LINE
  5
1F3
100
AcDbEntity
  8
0
  6
Continuous
 62
               4
100
AcDbLine
 10
309.23422967972698
 20
361.20718964626002
 30
0.0
 11
313.23422967972698
 21
358.89778856950187
 31
0.0
  0
LINE
  5
1F4
100
AcDbEntity
  8
0
  6
Continuous
 62
               4
100
AcDbLine
 10
309.23422967972698
 20
359.10959599889674
 30
0.0
 11
313.23422967972698
 21
356.80019492213813
 31
0.0
  0
LINE
  5
1F5
100
AcDbEntity
  8
0
  6
Continuous
 62
               4
100
AcDbLine
 10
309.23422967972698
 20
357.01200235153345
 30
0.0
 11
312.57046598911876
 21
355.08582542022594
 31
0.0
  0
LINE
  5
1F6
100
AcDbEntity
  8
0
  6
Continuous
 62
               4
100
AcDbLine
 10
315.2653585538763
 20
376.77700592926448
 30
0.0
 11
307.20310080557766
 21
376.77700592926448
 31
0.0
  0
LINE
  5
1F7
100
AcDbEntity
  8
0
  6
Continuous
 62
               4
100
AcDbLine
 10
307.20310080557766
 20
376.77700592926448
 30
0.0
 11
309.23422967972698
 21
374.74587705511493
 31
0.0
  0
LINE
  5
1F8
100
AcDbEntity
  8
0
  6
Continuous
 62
               4
100
AcDbLine
 10
315.2653585538763
 20
376.77700592926448
 30
0.0
 11
313.23422967972698
 21
374.74587705511493
 31
0.0
  0
LINE
  5
1F9
100
AcDbEntity
  8
0
  6
Continuous
 62
               4
100
AcDbLine
 10
313.23422967972698
 20
374.74587705511493
 30
0.0
 11
313.23422967972698
 21
355.74958911083439
 31
0.0
  0
LINE
  5
1FA
100
AcDbEntity
  8
0
  6
Continuous
 62
               4
100
AcDbLine
 10
309.23422967972698
 20
374.74587705511493
 30
0.0
 11
309.23422967972698
 21
355.74958911083394
 31
0.0
  0
LINE
  5
1FB
100
AcDbEntity
  8
0
  6
Continuous
 62
               2
100
AcDbLine
 10
288.95378666019911
 20
388.91781994732418
 30
0.0
 11
288.95378666019911
 21
431.91781994732418
 31
0.0
  0
LINE
  5
1FC
100
AcDbEntity
  8
0
  6
Continuous
 62
               2
100
AcDbLine
 10
300.95378666019843
 20
378.91781994732418
 30
0.0
 11
290.95378666019911
 21
388.91781994732418
 31
0.0
  0
LINE
  5
1FD
100
AcDbEntity
  8
0
  6
Continuous
 62
               2
100
AcDbLine
 10
288.95378666019911
 20
388.91781994732418
 30
0.0
 11
278.95378666019911
 21
378.91781994732418
 31
0.0
  0
LINE
  5
1FE
100
AcDbEntity
  8
0
  6
Continuous
 62
               4
100
AcDbLine
 10
270.95378666019957
 20
432.91781994732418
 30
0.0
 11
289.95378666019911
 21
432.91781994732418
 31
0.0
  0
LINE
  5
1FF
100
AcDbEntity
  8
0
  6
Continuous
 62
               4
100
AcDbLine
 10
270.95378666019957
 20
431.91781994732418
 30
0.0
 11
288.95378666019911
 21
431.91781994732418
 31
0.0
  0
LINE
  5
200
100
AcDbEntity
  8
0
  6
Continuous
 62
               2
100
AcDbLine
 10
270.95378666019957
 20
430.91781994732418
 30
0.0
 11
285.95378666019911
 21
430.91781994732418
 31
0.0
  0
LINE
  5
201
100
AcDbEntity
  8
0
  6
Continuous
 62
               2
100
AcDbLine
 10
588.95378666019883
 20
388.91781994732418
 30
0.0
 11
588.95378666019883
 21
431.91781994732418
 31
0.0
  0
LINE
  5
202
100
AcDbEntity
  8
0
  6
Continuous
 62
               2
100
AcDbLine
 10
600.95378666019883
 20
378.91781994732418
 30
0.0
 11
590.95378666019883
 21
388.91781994732418
 31
0.0
  0
LINE
  5
203
100
AcDbEntity
  8
0
  6
Continuous
 62
               2
100
AcDbLine
 10
588.95378666019883
 20
388.91781994732418
 30
0.0
 11
578.95378666019883
 21
378.91781994732418
 31
0.0
  0
LINE
  5
204
100
AcDbEntity
  8
0
  6
Continuous
 62
               4
100
AcDbLine
 10
570.95378666019883
 20
432.91781994732418
 30
0.0
 11
589.95378666019883
 21
432.91781994732418
 31
0.0
  0
LINE
  5
205
100
AcDbEntity
  8
0
  6
Continuous
 62
               4
100
AcDbLine
 10
570.95378666019883
 20
431.91781994732418
 30
0.0
 11
588.95378666019883
 21
431.91781994732418
 31
0.0
  0
LINE
  5
206
100
AcDbEntity
  8
0
  6
Continuous
 62
               2
100
AcDbLine
 10
570.95378666019883
 20
430.91781994732418
 30
0.0
 11
585.95378666019883
 21
430.91781994732418
 31
0.0
  0
LINE
  5
207
100
AcDbEntity
  8
0
  6
Continuous
 62
               2
100
AcDbLine
 10
578.95378666019883
 20
378.91781994732418
 30
0.0
 11
300.95378666019843
 21
378.91781994732418
 31
0.0
  0
LINE
  5
208
100
AcDbEntity
  8
0
  6
Continuous
 62
               2
100
AcDbLine
 10
189.95378666019911
 20
378.9178199473244
 30
0.0
 11
278.95378666019889
 21
378.91781994732418
 31
0.0
  0
LINE
  5
209
100
AcDbEntity
  8
0
  6
Continuous
 62
               4
100
AcDbLine
 10
589.95378666019883
 20
377.91781994732486
 30
0.0
 11
589.95378666019883
 21
432.91781994732418
 31
0.0
  0
LINE
  5
20A
100
AcDbEntity
  8
0
  6
Continuous
 62
               4
100
AcDbLine
 10
589.95378666019883
 20
377.91781994732486
 30
0.0
 11
629.95378666019883
 21
377.91781994732486
 31
0.0
  0
LINE
  5
20B
100
AcDbEntity
  8
0
  6
Continuous
 62
               4
100
AcDbLine
 10
609.62472038914507
 20
355.28624011598407
 30
0.0
 11
611.62472038914507
 21
357.28624011598407
 31
0.0
  0
LINE
  5
20C
100
AcDbEntity
  8
0
  6
Continuous
 62
               4
100
AcDbLine
 10
609.62472038914507
 20
355.28624011598407
 30
0.0
 11
607.62472038914507
 21
357.28624011598453
 31
0.0
  0
LINE
  5
20D
100
AcDbEntity
  8
0
  6
Continuous
 62
               4
100
AcDbLine
 10
611.62472038914507
 20
373.23180888822748
 30
0.0
 11
607.62472038914507
 21
370.92240781146887
 31
0.0
  0
LINE
  5
20E
100
AcDbEntity
  8
0
  6
Continuous
 62
               4
100
AcDbLine
 10
611.62472038914507
 20
371.13421524086419
 30
0.0
 11
607.62472038914507
 21
368.82481416410559
 31
0.0
  0
LINE
  5
20F
100
AcDbEntity
  8
0
  6
Continuous
 62
               4
100
AcDbLine
 10
611.62472038914507
 20
369.03662159350046
 30
0.0
 11
607.62472038914507
 21
366.72722051674231
 31
0.0
  0
LINE
  5
210
100
AcDbEntity
  8
0
  6
Continuous
 62
               4
100
AcDbLine
 10
611.62472038914507
 20
366.93902794613717
 30
0.0
 11
607.62472038914507
 21
364.62962686937857
 31
0.0
  0
LINE
  5
211
100
AcDbEntity
  8
0
  6
Continuous
 62
               4
100
AcDbLine
 10
611.62472038914507
 20
364.84143429877389
 30
0.0
 11
607.62472038914507
 21
362.53203322201529
 31
0.0
  0
LINE
  5
212
100
AcDbEntity
  8
0
  6
Continuous
 62
               4
100
AcDbLine
 10
611.62472038914507
 20
362.74384065141061
 30
0.0
 11
607.62472038914507
 21
360.434439574652
 31
0.0
  0
LINE
  5
213
100
AcDbEntity
  8
0
  6
Continuous
 62
               4
100
AcDbLine
 10
611.62472038914507
 20
360.64624700404732
 30
0.0
 11
607.62472038914507
 21
358.33684592728872
 31
0.0
  0
LINE
  5
214
100
AcDbEntity
  8
0
  6
Continuous
 62
               4
100
AcDbLine
 10
611.62472038914507
 20
358.54865335668359
 30
0.0
 11
608.28848407975306
 21
356.62247642537608
 31
0.0
  0
LINE
  5
215
100
AcDbEntity
  8
0
  6
Continuous
 62
               4
100
AcDbLine
 10
605.59359151499552
 20
378.31365693441461
 30
0.0
 11
613.65584926329461
 21
378.31365693441461
 31
0.0
  0
LINE
  5
216
100
AcDbEntity
  8
0
  6
Continuous
 62
               4
100
AcDbLine
 10
613.65584926329461
 20
378.31365693441461
 30
0.0
 11
611.62472038914507
 21
376.28252806026552
 31
0.0
  0
LINE
  5
217
100
AcDbEntity
  8
0
  6
Continuous
 62
               4
100
AcDbLine
 10
605.59359151499552
 20
378.31365693441461
 30
0.0
 11
607.62472038914507
 21
376.28252806026552
 31
0.0
  0
LINE
  5
218
100
AcDbEntity
  8
0
  6
Continuous
 62
               4
100
AcDbLine
 10
607.62472038914507
 20
376.28252806026552
 30
0.0
 11
607.62472038914507
 21
357.28624011598453
 31
0.0
  0
LINE
  5
219
100
AcDbEntity
  8
0
  6
Continuous
 62
               4
100
AcDbLine
 10
611.62472038914507
 20
376.28252806026552
 30
0.0
 11
611.62472038914507
 21
357.28624011598407
 31
0.0
  0
LINE
  5
21A
100
AcDbEntity
  8
0
  6
Continuous
 62
               4
100
AcDbLine
 10
289.95378666019923
 20
375.91781994732463
 30
0.0
 11
289.95378666019911
 21
432.91781994732418
 31
0.0
  0
LINE
  5
21B
100
AcDbEntity
  8
0
  6
Continuous
 62
               4
100
AcDbLine
 10
559.95378666019883
 20
375.91781994732486
 30
0.0
 11
659.95378666019906
 21
375.91781994732486
 31
0.0
  0
LINE
  5
21C
100
AcDbEntity
  8
0
  6
Continuous
 62
               3
100
AcDbLine
 10
646.45378666019906
 20
109.62228716947305
 30
0.0
 11
646.45378666019883
 21
286.91781994732463
 31
0.0
  0
LINE
  5
21D
100
AcDbEntity
  8
0
  6
Continuous
 62
               3
100
AcDbLine
 10
658.45378666019883
 20
109.62228716947305
 30
0.0
 11
658.45378666019883
 21
286.91781994732463
 31
0.0
  0
LINE
  5
21E
100
AcDbEntity
  8
0
  6
Continuous
 62
               4
100
AcDbLine
 10
601.45378666019883
 20
109.62228716947305
 30
0.0
 11
601.45378666019883
 21
212.91781994732548
 31
0.0
  0
LINE
  5
21F
100
AcDbEntity
  8
0
  6
DOT
 62
               4
100
AcDbLine
 10
603.75378666019901
 20
109.62228716947305
 30
0.0
 11
603.75378666019901
 21
212.91781994732548
 31
0.0
  0
LINE
  5
220
100
AcDbEntity
  8
0
  6
DOT
 62
               4
100
AcDbLine
 10
644.15378666019865
 20
109.62228716947305
 30
0.0
 11
644.15378666019865
 21
212.91781994732548
 31
0.0
  0
LINE
  5
221
100
AcDbEntity
  8
0
  6
Continuous
 62
               2
100
AcDbLine
 10
659.95378666019883
 20
109.622287169473
 30
0.0
 11
659.95378666019906
 21
375.91781994732509
 31
0.0
  0
LINE
  5
222
100
AcDbEntity
  8
0
  6
Continuous
 62
               3
100
AcDbLine
 10
189.95378666019911
 20
342.91781994732486
 30
0.0
 11
324.45378666019889
 21
342.91781994732463
 31
0.0
  0
LINE
  5
223
100
AcDbEntity
  8
0
  6
Continuous
 62
               3
100
AcDbLine
 10
324.45378666019889
 20
342.91781994732463
 30
0.0
 11
324.45378666019889
 21
313.41781994732463
 31
0.0
  0
LINE
  5
224
100
AcDbEntity
  8
0
  6
Continuous
 62
               3
100
AcDbLine
 10
347.45378666019889
 20
342.91781994732463
 30
0.0
 11
347.453786660199
 21
313.41781994732463
 31
0.0
  0
LINE
  5
225
100
AcDbEntity
  8
0
  6
Continuous
 62
               3
100
AcDbLine
 10
189.95378666019911
 20
343.91781994732463
 30
0.0
 11
658.45378666019883
 21
343.91781994732463
 31
0.0
  0
LINE
  5
226
100
AcDbEntity
  8
0
  6
Continuous
 62
               3
100
AcDbLine
 10
625.45378666019883
 20
342.91781994732463
 30
0.0
 11
625.45378666019883
 21
313.41781994732463
 31
0.0
  0
LINE
  5
227
100
AcDbEntity
  8
0
  6
Continuous
 62
               3
100
AcDbLine
 10
625.45378666019883
 20
342.91781994732463
 30
0.0
 11
347.45378666019889
 21
342.91781994732463
 31
0.0
  0
LINE
  5
228
100
AcDbEntity
  8
0
  6
Continuous
 62
               3
100
AcDbLine
 10
315.453786660199
 20
288.41781994732463
 30
0.0
 11
189.95378666019911
 21
288.41781994732435
 31
0.0
  0
LINE
  5
229
100
AcDbEntity
  8
0
  6
Continuous
 62
               3
100
AcDbLine
 10
315.453786660199
 20
288.41781994732463
 30
0.0
 11
315.45378666019889
 21
313.41781994732463
 31
0.0
  0
LINE
  5
22A
100
AcDbEntity
  8
0
  6
Continuous
 62
               4
100
AcDbLine
 10
189.95378666019911
 20
158.91781994732463
 30
0.0
 11
198.81705643730896
 21
160.48065354632701
 31
0.0
  0
LINE
  5
22B
100
AcDbEntity
  8
0
  6
Continuous
 62
               4
100
AcDbLine
 10
189.95378666019911
 20
158.91781994732463
 30
0.0
 11
198.81705643730896
 21
157.35498634832231
 31
0.0
  0
LINE
  5
22C
100
AcDbEntity
  8
0
  6
Continuous
 62
               4
100
AcDbLine
 10
413.42381635109729
 20
300.91781994732469
 30
0.0
 11
475.25028941878617
 21
408.00441255334971
 31
0.0
  0
LINE
  5
22D
100
AcDbEntity
  8
0
  6
Continuous
 62
               4
100
AcDbLine
 10
395.79774478860151
 20
351.41781994732463
 30
0.0
 11
443.91179883970841
 21
434.75380612195721
 31
0.0
  0
LINE
  5
22E
100
AcDbEntity
  8
0
  6
Continuous
 62
               2
100
AcDbLine
 10
671.95995657268259
 20
373.94656759282537
 30
0.0
 11
689.95378666019883
 21
374.41781994731963
 31
0.0
  0
LINE
  5
22F
100
AcDbEntity
  8
0
  6
Continuous
 62
               4
100
AcDbLine
 10
669.95378666019656
 20
325.91781994732497
 30
0.0
 11
669.95378666019724
 21
375.91781994732509
 31
0.0
  0
LINE
  5
230
100
AcDbEntity
  8
0
  6
Continuous
 62
               4
100
AcDbLine
 10
668.45378666019633
 20
325.91781994732088
 30
0.0
 11
665.03358522693884
 21
335.31474615518374
 31
0.0
  0
LINE
  5
231
100
AcDbEntity
  8
0
  6
Continuous
 62
               2
100
AcDbLine
 10
689.95378666019883
 20
378.91781994732418
 30
0.0
 11
600.95378666019883
 21
378.91781994732418
 31
0.0
  0
LINE
  5
232
100
AcDbEntity
  8
0
  6
Continuous
 62
               4
100
AcDbLine
 10
559.95378666019747
 20
376.91781994732486
 30
0.0
 11
689.95378666019883
 21
376.91781994732486
 31
0.0
  0
LINE
  5
233
100
AcDbEntity
  8
0
  6
Continuous
 62
               4
100
AcDbLine
 10
669.95378666019724
 20
375.91781994732509
 30
0.0
 11
689.95378666019883
 21
375.91781994732531
 31
0.0
  0
LINE
  5
234
100
AcDbEntity
  8
0
  6
Continuous
 62
               4
100
AcDbLine
 10
189.95378666019911
 20
486.91781994732418
 30
0.0
 11
198.81705643730896
 21
488.48065354632666
 31
0.0
  0
LINE
  5
235
100
AcDbEntity
  8
0
  6
Continuous
 62
               4
100
AcDbLine
 10
189.95378666019911
 20
486.91781994732418
 30
0.0
 11
198.81705643730896
 21
485.35498634832192
 31
0.0
  0
LINE
  5
236
100
AcDbEntity
  8
0
  6
Continuous
 62
               2
100
AcDbLine
 10
290.95378666019911
 20
433.91781994732429
 30
0.0
 11
270.95378666019957
 21
433.91781994732418
 31
0.0
  0
LINE
  5
237
100
AcDbEntity
  8
0
  6
Continuous
 62
               2
100
AcDbLine
 10
290.95378666019911
 20
433.91781994732429
 30
0.0
 11
290.95378666019911
 21
388.91781994732418
 31
0.0
  0
LINE
  5
238
100
AcDbEntity
  8
0
  6
Continuous
 62
               2
100
AcDbLine
 10
590.95378666019883
 20
433.91781994732418
 30
0.0
 11
570.95378666019883
 21
433.91781994732418
 31
0.0
  0
LINE
  5
239
100
AcDbEntity
  8
0
  6
Continuous
 62
               2
100
AcDbLine
 10
590.95378666019883
 20
433.91781994732418
 30
0.0
 11
590.95378666019883
 21
388.91781994732418
 31
0.0
  0
LINE
  5
23A
100
AcDbEntity
  8
0
  6
Continuous
 62
               4
100
AcDbLine
 10
714.78679656440374
 20
21.213203435595801
 30
0.0
 11
714.78679656440374
 21
41.213203435595801
 31
0.0
  0
LINE
  5
23B
100
AcDbEntity
  8
0
  6
Continuous
 62
               4
100
AcDbLine
 10
864.78679656440374
 20
21.213203435595801
 30
0.0
 11
714.78679656440374
 21
21.213203435595801
 31
0.0
  0
LINE
  5
23C
100
AcDbEntity
  8
0
  6
Continuous
 62
               4
100
AcDbLine
 10
864.78679656440374
 20
41.213203435595801
 30
0.0
 11
864.78679656440374
 21
21.213203435595801
 31
0.0
  0
LINE
  5
23D
100
AcDbEntity
  8
0
  6
Continuous
 62
               4
100
AcDbLine
 10
864.78679656440374
 20
41.213203435595801
 30
0.0
 11
714.78679656440374
 21
41.213203435595801
 31
0.0
  0
LINE
  5
23E
100
AcDbEntity
  8
0
  6
Continuous
 62
               4
100
AcDbLine
 10
14.142135623730949
 20
595.85786437626837
 30
0.0
 11
14.142135623730949
 21
615.85786437626837
 31
0.0
  0
LINE
  5
23F
100
AcDbEntity
  8
0
  6
Continuous
 62
               4
100
AcDbLine
 10
164.14213562373095
 20
595.85786437626837
 30
0.0
 11
14.142135623730949
 21
595.85786437626837
 31
0.0
  0
LINE
  5
240
100
AcDbEntity
  8
0
  6
Continuous
 62
               4
100
AcDbLine
 10
164.14213562373095
 20
615.85786437626837
 30
0.0
 11
164.14213562373095
 21
595.85786437626837
 31
0.0
  0
LINE
  5
241
100
AcDbEntity
  8
0
  6
Continuous
 62
               4
100
AcDbLine
 10
164.14213562373095
 20
615.85786437626837
 30
0.0
 11
14.142135623730949
 21
615.85786437626837
 31
0.0
  0
CIRCLE
  5
242
100
AcDbEntity
  8
0
  6
Continuous
 62
               4
100
AcDbCircle
 10
225.95378666019923
 20
378.9178199473244
 30
0.0
 40
1.5
  0
CIRCLE
  5
243
100
AcDbEntity
  8
0
  6
Continuous
 62
               4
100
AcDbCircle
 10
225.95378666019923
 20
433.91781994732418
 30
0.0
 40
1.5
  0
CIRCLE
  5
244
100
AcDbEntity
  8
0
  6
Continuous
 62
               4
100
AcDbCircle
 10
225.95378666019923
 20
373.9178199473244
 30
0.0
 40
1.5
  0
CIRCLE
  5
245
100
AcDbEntity
  8
0
  6
Continuous
 62
               4
100
AcDbCircle
 10
225.95378666019923
 20
343.91781994732463
 30
0.0
 40
1.5
  0
CIRCLE
  5
246
100
AcDbEntity
  8
0
  6
Continuous
 62
               4
100
AcDbCircle
 10
225.95378666019923
 20
342.91781994732486
 30
0.0
 40
1.5
  0
CIRCLE
  5
247
100
AcDbEntity
  8
0
  6
Continuous
 62
               4
100
AcDbCircle
 10
225.95378666019923
 20
287.91781994732463
 30
0.0
 40
1.5
  0
CIRCLE
  5
248
100
AcDbEntity
  8
0
  6
Continuous
 62
               4
100
AcDbCircle
 10
326.45378666019889
 20
158.91781994732463
 30
0.0
 40
1.5
  0
CIRCLE
  5
249
100
AcDbEntity
  8
0
  6
Continuous
 62
               4
100
AcDbCircle
 10
626.45378666019883
 20
158.91781994732463
 30
0.0
 40
1.5
  0
CIRCLE
  5
24A
100
AcDbEntity
  8
0
  6
Continuous
 62
               4
100
AcDbCircle
 10
326.45378666019889
 20
158.91781994732463
 30
0.0
 40
1.5
  0
CIRCLE
  5
24B
100
AcDbEntity
  8
0
  6
Continuous
 62
               4
100
AcDbCircle
 10
689.95378666019883
 20
486.91781994732418
 30
0.0
 40
1.5
  0
CIRCLE
  5
24C
100
AcDbEntity
  8
0
  6
Continuous
 62
               4
100
AcDbCircle
 10
589.95378666019883
 20
486.91781994732418
 30
0.0
 40
1.5
  0
CIRCLE
  5
24D
100
AcDbEntity
  8
0
  6
Continuous
 62
               4
100
AcDbCircle
 10
589.95378666019883
 20
486.91781994732418
 30
0.0
 40
1.5
  0
CIRCLE
  5
24E
100
AcDbEntity
  8
0
  6
Continuous
 62
               4
100
AcDbCircle
 10
289.95378666019923
 20
486.91781994732418
 30
0.0
 40
1.5
  0
CIRCLE
  5
24F
100
AcDbEntity
  8
0
  6
Continuous
 62
               4
100
AcDbCircle
 10
289.95378666019923
 20
486.91781994732418
 30
0.0
 40
1.5
  0
CIRCLE
  5
250
100
AcDbEntity
  8
0
  6
Continuous
 62
               4
100
AcDbCircle
 10
689.95378666019883
 20
432.9178199473244
 30
0.0
 40
1.5
  0
CIRCLE
  5
251
100
AcDbEntity
  8
0
  6
Continuous
 62
               4
100
AcDbCircle
 10
659.95378666019906
 20
432.9178199473244
 30
0.0
 40
1.5
  0
CIRCLE
  5
252
100
AcDbEntity
  8
0
  6
Continuous
 62
               4
100
AcDbCircle
 10
716.95378666020565
 20
375.91781994732486
 30
0.0
 40
1.5
  0
CIRCLE
  5
253
100
AcDbEntity
  8
0
  6
Continuous
 62
               4
100
AcDbCircle
 10
716.95378666020497
 20
325.91781994732429
 30
0.0
 40
1.5
  0
CIRCLE
  5
254
100
AcDbEntity
  8
0
  6
Continuous
 62
               6
100
AcDbCircle
 10
614.63385078144643
 20
333.97375116271195
 30
0.0
 40
1.0
  0
CIRCLE
  5
255
100
AcDbEntity
  8
0
  6
Continuous
 62
               6
100
AcDbCircle
 10
620.9797557654158
 20
319.6954649487804
 30
0.0
 40
1.0
  0
CIRCLE
  5
256
100
AcDbEntity
  8
0
  6
Continuous
 62
               6
100
AcDbCircle
 10
605.11499330549236
 20
321.28194119477274
 30
0.0
 40
1.0
  0
CIRCLE
  5
257
100
AcDbEntity
  8
0
  6
Continuous
 62
               6
100
AcDbCircle
 10
598.76908832152208
 20
337.14670365469709
 30
0.0
 40
1.0
  0
CIRCLE
  5
258
100
AcDbEntity
  8
0
  6
Continuous
 62
               6
100
AcDbCircle
 10
611.46089828946174
 20
305.81379779634671
 30
0.0
 40
1.0
  0
CIRCLE
  5
259
100
AcDbEntity
  8
0
  6
Continuous
 62
               6
100
AcDbCircle
 10
606.70146955148471
 20
293.12198782840704
 30
0.0
 40
1.0
  0
CIRCLE
  5
25A
100
AcDbEntity
  8
0
  6
Continuous
 62
               6
100
AcDbCircle
 10
597.18261207552973
 20
305.81379779634671
 30
0.0
 40
1.0
  0
CIRCLE
  5
25B
100
AcDbEntity
  8
0
  6
Continuous
 62
               6
100
AcDbCircle
 10
597.18261207552973
 20
294.70846407439984
 30
0.0
 40
1.0
  0
CIRCLE
  5
25C
100
AcDbEntity
  8
0
  6
Continuous
 62
               6
100
AcDbCircle
 10
587.43029496681561
 20
333.97375116271195
 30
0.0
 40
1.0
  0
CIRCLE
  5
25D
100
AcDbEntity
  8
0
  6
Continuous
 62
               6
100
AcDbCircle
 10
593.77619995078499
 20
319.6954649487804
 30
0.0
 40
1.0
  0
CIRCLE
  5
25E
100
AcDbEntity
  8
0
  6
Continuous
 62
               6
100
AcDbCircle
 10
577.91143749086064
 20
321.28194119477274
 30
0.0
 40
1.0
  0
CIRCLE
  5
25F
100
AcDbEntity
  8
0
  6
Continuous
 62
               6
100
AcDbCircle
 10
571.56553250689126
 20
337.14670365469709
 30
0.0
 40
1.0
  0
CIRCLE
  5
260
100
AcDbEntity
  8
0
  6
Continuous
 62
               6
100
AcDbCircle
 10
584.25734247483001
 20
305.81379779634671
 30
0.0
 40
1.0
  0
CIRCLE
  5
261
100
AcDbEntity
  8
0
  6
Continuous
 62
               6
100
AcDbCircle
 10
579.49791373685298
 20
293.12198782840704
 30
0.0
 40
1.0
  0
CIRCLE
  5
262
100
AcDbEntity
  8
0
  6
Continuous
 62
               6
100
AcDbCircle
 10
569.97905626089891
 20
305.81379779634671
 30
0.0
 40
1.0
  0
CIRCLE
  5
263
100
AcDbEntity
  8
0
  6
Continuous
 62
               6
100
AcDbCircle
 10
569.97905626089891
 20
294.70846407439984
 30
0.0
 40
1.0
  0
CIRCLE
  5
264
100
AcDbEntity
  8
0
  6
Continuous
 62
               6
100
AcDbCircle
 10
560.22673915218388
 20
333.97375116271195
 30
0.0
 40
1.0
  0
CIRCLE
  5
265
100
AcDbEntity
  8
0
  6
Continuous
 62
               6
100
AcDbCircle
 10
566.57264413615326
 20
319.6954649487804
 30
0.0
 40
1.0
  0
CIRCLE
  5
266
100
AcDbEntity
  8
0
  6
Continuous
 62
               6
100
AcDbCircle
 10
550.70788167622891
 20
321.28194119477274
 30
0.0
 40
1.0
  0
CIRCLE
  5
267
100
AcDbEntity
  8
0
  6
Continuous
 62
               6
100
AcDbCircle
 10
544.36197669225953
 20
337.14670365469709
 30
0.0
 40
1.0
  0
CIRCLE
  5
268
100
AcDbEntity
  8
0
  6
Continuous
 62
               6
100
AcDbCircle
 10
557.05378666019919
 20
305.81379779634671
 30
0.0
 40
1.0
  0
CIRCLE
  5
269
100
AcDbEntity
  8
0
  6
Continuous
 62
               6
100
AcDbCircle
 10
552.29435792222216
 20
293.12198782840704
 30
0.0
 40
1.0
  0
CIRCLE
  5
26A
100
AcDbEntity
  8
0
  6
Continuous
 62
               6
100
AcDbCircle
 10
542.77550044626719
 20
305.81379779634671
 30
0.0
 40
1.0
  0
CIRCLE
  5
26B
100
AcDbEntity
  8
0
  6
Continuous
 62
               6
100
AcDbCircle
 10
542.77550044626719
 20
294.70846407439984
 30
0.0
 40
1.0
  0
CIRCLE
  5
26C
100
AcDbEntity
  8
0
  6
Continuous
 62
               6
100
AcDbCircle
 10
533.02318333755261
 20
333.97375116271195
 30
0.0
 40
1.0
  0
CIRCLE
  5
26D
100
AcDbEntity
  8
0
  6
Continuous
 62
               6
100
AcDbCircle
 10
539.36908832152244
 20
319.6954649487804
 30
0.0
 40
1.0
  0
CIRCLE
  5
26E
100
AcDbEntity
  8
0
  6
Continuous
 62
               6
100
AcDbCircle
 10
313.63385078144648
 20
333.97375116271195
 30
0.0
 40
1.0
  0
CIRCLE
  5
26F
100
AcDbEntity
  8
0
  6
Continuous
 62
               6
100
AcDbCircle
 10
319.97975576541609
 20
319.6954649487804
 30
0.0
 40
1.0
  0
CIRCLE
  5
270
100
AcDbEntity
  8
0
  6
Continuous
 62
               6
100
AcDbCircle
 10
304.11499330549196
 20
321.28194119477274
 30
0.0
 40
1.0
  0
CIRCLE
  5
271
100
AcDbEntity
  8
0
  6
Continuous
 62
               6
100
AcDbCircle
 10
297.76908832152213
 20
337.14670365469709
 30
0.0
 40
1.0
  0
CIRCLE
  5
272
100
AcDbEntity
  8
0
  6
Continuous
 62
               6
100
AcDbCircle
 10
310.46089828946157
 20
305.81379779634671
 30
0.0
 40
1.0
  0
CIRCLE
  5
273
100
AcDbEntity
  8
0
  6
Continuous
 62
               6
100
AcDbCircle
 10
305.70146955148431
 20
293.12198782840704
 30
0.0
 40
1.0
  0
CIRCLE
  5
274
100
AcDbEntity
  8
0
  6
Continuous
 62
               6
100
AcDbCircle
 10
296.18261207552979
 20
305.81379779634671
 30
0.0
 40
1.0
  0
CIRCLE
  5
275
100
AcDbEntity
  8
0
  6
Continuous
 62
               6
100
AcDbCircle
 10
296.18261207552979
 20
294.70846407439984
 30
0.0
 40
1.0
  0
CIRCLE
  5
276
100
AcDbEntity
  8
0
  6
Continuous
 62
               6
100
AcDbCircle
 10
286.43029496681521
 20
333.97375116271195
 30
0.0
 40
1.0
  0
CIRCLE
  5
277
100
AcDbEntity
  8
0
  6
Continuous
 62
               6
100
AcDbCircle
 10
292.77619995078481
 20
319.6954649487804
 30
0.0
 40
1.0
  0
CIRCLE
  5
278
100
AcDbEntity
  8
0
  6
Continuous
 62
               6
100
AcDbCircle
 10
276.91143749086069
 20
321.28194119477274
 30
0.0
 40
1.0
  0
CIRCLE
  5
279
100
AcDbEntity
  8
0
  6
Continuous
 62
               6
100
AcDbCircle
 10
270.56553250689086
 20
337.14670365469709
 30
0.0
 40
1.0
  0
CIRCLE
  5
27A
100
AcDbEntity
  8
0
  6
Continuous
 62
               6
100
AcDbCircle
 10
283.2573424748303
 20
305.81379779634671
 30
0.0
 40
1.0
  0
CIRCLE
  5
27B
100
AcDbEntity
  8
0
  6
Continuous
 62
               6
100
AcDbCircle
 10
278.49791373685304
 20
293.12198782840704
 30
0.0
 40
1.0
  0
CIRCLE
  5
27C
100
AcDbEntity
  8
0
  6
Continuous
 62
               6
100
AcDbCircle
 10
268.97905626089852
 20
305.81379779634671
 30
0.0
 40
1.0
  0
CIRCLE
  5
27D
100
AcDbEntity
  8
0
  6
Continuous
 62
               6
100
AcDbCircle
 10
268.97905626089852
 20
294.70846407439984
 30
0.0
 40
1.0
  0
CIRCLE
  5
27E
100
AcDbEntity
  8
0
  6
Continuous
 62
               6
100
AcDbCircle
 10
259.22673915218371
 20
333.97375116271195
 30
0.0
 40
1.0
  0
CIRCLE
  5
27F
100
AcDbEntity
  8
0
  6
Continuous
 62
               6
100
AcDbCircle
 10
265.57264413615354
 20
319.6954649487804
 30
0.0
 40
1.0
  0
CIRCLE
  5
280
100
AcDbEntity
  8
0
  6
Continuous
 62
               6
100
AcDbCircle
 10
249.70788167622919
 20
321.28194119477274
 30
0.0
 40
1.0
  0
CIRCLE
  5
281
100
AcDbEntity
  8
0
  6
Continuous
 62
               6
100
AcDbCircle
 10
243.36197669225959
 20
337.14670365469709
 30
0.0
 40
1.0
  0
CIRCLE
  5
282
100
AcDbEntity
  8
0
  6
Continuous
 62
               6
100
AcDbCircle
 10
256.0537866601988
 20
305.81379779634671
 30
0.0
 40
1.0
  0
CIRCLE
  5
283
100
AcDbEntity
  8
0
  6
Continuous
 62
               6
100
AcDbCircle
 10
251.29435792222154
 20
293.12198782840704
 30
0.0
 40
1.0
  0
CIRCLE
  5
284
100
AcDbEntity
  8
0
  6
Continuous
 62
               6
100
AcDbCircle
 10
241.77550044626702
 20
305.81379779634671
 30
0.0
 40
1.0
  0
CIRCLE
  5
285
100
AcDbEntity
  8
0
  6
Continuous
 62
               6
100
AcDbCircle
 10
241.77550044626702
 20
294.70846407439984
 30
0.0
 40
1.0
  0
CIRCLE
  5
286
100
AcDbEntity
  8
0
  6
Continuous
 62
               6
100
AcDbCircle
 10
232.02318333755244
 20
333.97375116271195
 30
0.0
 40
1.0
  0
CIRCLE
  5
287
100
AcDbEntity
  8
0
  6
Continuous
 62
               6
100
AcDbCircle
 10
238.36908832152204
 20
319.6954649487804
 30
0.0
 40
1.0
  0
CIRCLE
  5
288
100
AcDbEntity
  8
0
  6
Continuous
 62
               4
100
AcDbCircle
 10
429.15661118651479
 20
328.16781994732452
 30
0.0
 40
1.5
  0
CIRCLE
  5
289
100
AcDbEntity
  8
0
  6
Continuous
 62
               4
100
AcDbCircle
 10
413.42381635109729
 20
300.91781994732457
 30
0.0
 40
1.5
  0
CIRCLE
  5
28A
100
AcDbEntity
  8
0
  6
Continuous
 62
               4
100
AcDbCircle
 10
404.4579988264457
 20
366.41781994732463
 30
0.0
 40
1.5
  0
CIRCLE
  5
28B
100
AcDbEntity
  8
0
  6
Continuous
 62
               4
100
AcDbCircle
 10
395.79774478860151
 20
351.41781994732463
 30
0.0
 40
1.5
  0
CIRCLE
  5
28C
100
AcDbEntity
  8
0
  6
Continuous
 62
               6
100
AcDbCircle
 10
418.14907590935803
 20
321.28194119477274
 30
0.0
 40
1.0
  0
CIRCLE
  5
28D
100
AcDbEntity
  8
0
  6
Continuous
 62
               6
100
AcDbCircle
 10
411.80317092538843
 20
337.14670365469709
 30
0.0
 40
1.0
  0
CIRCLE
  5
28E
100
AcDbEntity
  8
0
  6
Continuous
 62
               6
100
AcDbCircle
 10
424.49498089332786
 20
305.81379779634671
 30
0.0
 40
1.0
  0
CIRCLE
  5
28F
100
AcDbEntity
  8
0
  6
Continuous
 62
               6
100
AcDbCircle
 10
419.7355521553506
 20
293.12198782840704
 30
0.0
 40
1.0
  0
CIRCLE
  5
290
100
AcDbEntity
  8
0
  6
Continuous
 62
               6
100
AcDbCircle
 10
410.21669467939608
 20
305.81379779634671
 30
0.0
 40
1.0
  0
CIRCLE
  5
291
100
AcDbEntity
  8
0
  6
Continuous
 62
               6
100
AcDbCircle
 10
410.21669467939608
 20
294.70846407439984
 30
0.0
 40
1.0
  0
CIRCLE
  5
292
100
AcDbEntity
  8
0
  6
Continuous
 62
               6
100
AcDbCircle
 10
400.46437757068128
 20
333.97375116271195
 30
0.0
 40
1.0
  0
CIRCLE
  5
293
100
AcDbEntity
  8
0
  6
Continuous
 62
               6
100
AcDbCircle
 10
406.81028255465111
 20
319.6954649487804
 30
0.0
 40
1.0
  0
CIRCLE
  5
294
100
AcDbEntity
  8
0
  6
Continuous
 62
               6
100
AcDbCircle
 10
390.94552009472676
 20
321.28194119477274
 30
0.0
 40
1.0
  0
CIRCLE
  5
295
100
AcDbEntity
  8
0
  6
Continuous
 62
               6
100
AcDbCircle
 10
384.59961511075716
 20
337.14670365469709
 30
0.0
 40
1.0
  0
CIRCLE
  5
296
100
AcDbEntity
  8
0
  6
Continuous
 62
               6
100
AcDbCircle
 10
397.29142507869659
 20
305.81379779634671
 30
0.0
 40
1.0
  0
CIRCLE
  5
297
100
AcDbEntity
  8
0
  6
Continuous
 62
               6
100
AcDbCircle
 10
392.53199634071933
 20
293.12198782840704
 30
0.0
 40
1.0
  0
CIRCLE
  5
298
100
AcDbEntity
  8
0
  6
Continuous
 62
               6
100
AcDbCircle
 10
383.01313886476481
 20
305.81379779634671
 30
0.0
 40
1.0
  0
CIRCLE
  5
299
100
AcDbEntity
  8
0
  6
Continuous
 62
               6
100
AcDbCircle
 10
383.01313886476481
 20
294.70846407439984
 30
0.0
 40
1.0
  0
CIRCLE
  5
29A
100
AcDbEntity
  8
0
  6
Continuous
 62
               6
100
AcDbCircle
 10
373.26082175605001
 20
333.97375116271195
 30
0.0
 40
1.0
  0
CIRCLE
  5
29B
100
AcDbEntity
  8
0
  6
Continuous
 62
               6
100
AcDbCircle
 10
379.60672674001984
 20
319.6954649487804
 30
0.0
 40
1.0
  0
CIRCLE
  5
29C
100
AcDbEntity
  8
0
  6
Continuous
 62
               6
100
AcDbCircle
 10
363.74196428009549
 20
321.28194119477274
 30
0.0
 40
1.0
  0
CIRCLE
  5
29D
100
AcDbEntity
  8
0
  6
Continuous
 62
               6
100
AcDbCircle
 10
357.39605929612588
 20
337.14670365469709
 30
0.0
 40
1.0
  0
CIRCLE
  5
29E
100
AcDbEntity
  8
0
  6
Continuous
 62
               6
100
AcDbCircle
 10
370.08786926406509
 20
305.81379779634671
 30
0.0
 40
1.0
  0
CIRCLE
  5
29F
100
AcDbEntity
  8
0
  6
Continuous
 62
               6
100
AcDbCircle
 10
365.32844052608783
 20
293.12198782840704
 30
0.0
 40
1.0
  0
CIRCLE
  5
2A0
100
AcDbEntity
  8
0
  6
Continuous
 62
               6
100
AcDbCircle
 10
355.80958305013331
 20
305.81379779634671
 30
0.0
 40
1.0
  0
CIRCLE
  5
2A1
100
AcDbEntity
  8
0
  6
Continuous
 62
               6
100
AcDbCircle
 10
355.80958305013331
 20
294.70846407439984
 30
0.0
 40
1.0
  0
CIRCLE
  5
2A2
100
AcDbEntity
  8
0
  6
Continuous
 62
               6
100
AcDbCircle
 10
352.40317092538834
 20
319.6954649487804
 30
0.0
 40
1.0
  0
CIRCLE
  5
2A3
100
AcDbEntity
  8
0
  6
Continuous
 62
               6
100
AcDbCircle
 10
342.88431344943382
 20
305.81379779634671
 30
0.0
 40
1.0
  0
ARC
  5
2A4
100
AcDbEntity
  8
0
  6
Continuous
 62
               4
100
AcDbCircle
 10
641.85378675556626
 20
217.5178198519572
 30
0.0
 40
2.2999999523162842
100
AcDbArc
 50
269.99999999999994
 51
0.0
  0
ARC
  5
2A5
100
AcDbEntity
  8
0
  6
Continuous
 62
               4
100
AcDbCircle
 10
641.85378675556626
 20
217.5178198519572
 30
0.0
 40
4.5999999046325684
100
AcDbArc
 50
269.99999999999994
 51
0.0
  0
ARC
  5
2A6
100
AcDbEntity
  8
0
  6
Continuous
 62
               4
100
AcDbCircle
 10
606.05378656483049
 20
217.5178198519572
 30
0.0
 40
2.2999999523162842
100
AcDbArc
 50
180.0
 51
269.99999999999994
  0
ARC
  5
2A7
100
AcDbEntity
  8
0
  6
Continuous
 62
               4
100
AcDbCircle
 10
606.05378656483049
 20
217.5178198519572
 30
0.0
 40
4.5999999046325684
100
AcDbArc
 50
180.0
 51
269.99999999999994
  0
ARC
  5
2A8
100
AcDbEntity
  8
0
  6
Continuous
 62
               4
100
AcDbCircle
 10
606.05378656483049
 20
283.31782004269206
 30
0.0
 40
4.5999999046325684
100
AcDbArc
 50
90.000000000000028
 51
180.0
  0
ARC
  5
2A9
100
AcDbEntity
  8
0
  6
Continuous
 62
               4
100
AcDbCircle
 10
606.05378656483049
 20
283.31782004269206
 30
0.0
 40
2.2999999523162842
100
AcDbArc
 50
90.000000000000028
 51
180.0
  0
ARC
  5
2AA
100
AcDbEntity
  8
0
  6
Continuous
 62
               4
100
AcDbCircle
 10
641.85378675556626
 20
283.31782004269206
 30
0.0
 40
2.2999999523162842
100
AcDbArc
 50
0.0
 51
90.000000000000028
  0
ARC
  5
2AB
100
AcDbEntity
  8
0
  6
Continuous
 62
               4
100
AcDbCircle
 10
641.85378675556626
 20
283.31782004269206
 30
0.0
 40
4.5999999046325684
100
AcDbArc
 50
0.0
 51
90.000000000000028
  0
ARC
  5
2AC
100
AcDbEntity
  8
0
  6
Continuous
 62
               2
100
AcDbCircle
 10
270.95378666019957
 20
432.41781994732418
 30
0.0
 40
1.5
100
AcDbArc
 50
89.999999999999957
 51
269.99999999999994
  0
ARC
  5
2AD
100
AcDbEntity
  8
0
  6
Continuous
 62
               2
100
AcDbCircle
 10
570.95378666019883
 20
432.41781994732418
 30
0.0
 40
1.5
100
AcDbArc
 50
89.999999999999957
 51
269.99999999999994
  0
ARC
  5
2AE
100
AcDbEntity
  8
0
  6
Continuous
 62
               4
100
AcDbCircle
 10
689.95378666019883
 20
376.41781994732486
 30
0.0
 40
0.499999999999801
100
AcDbArc
 50
270.0
 51
90.0
  0
ARC
  5
2AF
100
AcDbEntity
  8
0
  6
Continuous
 62
               2
100
AcDbCircle
 10
689.95378666019883
 20
376.6678199473219
 30
0.0
 40
2.2500000000021831
100
AcDbArc
 50
269.99999999998863
 51
90.000000000000298
  0
ARC
  5
2B0
100
AcDbEntity
  8
0
  6
Continuous
 62
               4
100
AcDbCircle
 10
669.20378666019678
 20
325.91781994732315
 30
0.0
 40
0.7500000000000731
100
AcDbArc
 50
180.00000000017303
 51
0.0
  0
TEXT
  5
2B1
100
AcDbEntity
  8
0
 62
               7
100
AcDbText
 10
225.95378666019923
 20
400.4178199473244
 30
0.0
 40
12.000000000000012
  1
55
 50
90.000000000000028
 41
0.7695
  7
FontTableH_0
 72
               5
 11
225.95378666019923
 21
412.4178199473244
 31
0.0
100
AcDbText
  0
TEXT
  5
2B2
100
AcDbEntity
  8
0
 62
               7
100
AcDbText
 10
225.95378666019923
 20
352.91781994732463
 30
0.0
 40
12.000000000000012
  1
30
 50
90.000000000000028
 41
0.7695
  7
FontTableH_0
 72
               5
 11
225.95378666019923
 21
364.91781994732463
 31
0.0
100
AcDbText
  0
TEXT
  5
2B3
100
AcDbEntity
  8
0
 62
               7
100
AcDbText
 10
225.95378666019923
 20
309.41781994732469
 30
0.0
 40
12.000000000000012
  1
55
 50
90.000000000000028
 41
0.7695
  7
FontTableH_0
 72
               5
 11
225.95378666019923
 21
321.41781994732469
 31
0.0
100
AcDbText
  0
TEXT
  5
2B4
100
AcDbEntity
  8
0
 62
               7
100
AcDbText
 10
467.45378666019877
 20
158.91781994732463
 30
0.0
 40
12.000000000000012
  1
300
 41
0.7695
  7
FontTableH_0
 72
               5
 11
485.45378666019877
 21
158.91781994732463
 31
0.0
100
AcDbText
  0
TEXT
  5
2B5
100
AcDbEntity
  8
0
 62
               7
100
AcDbText
 10
246.203786660199
 20
158.91781994732463
 30
0.0
 40
12.000000000000012
  1
@300
 41
0.7695
  7
FontTableH_0
 72
               5
 11
270.203786660199
 21
158.91781994732463
 31
0.0
100
AcDbText
  0
TEXT
  5
2B6
100
AcDbEntity
  8
0
 62
               7
100
AcDbText
 10
374.53881911420257
 20
182.37420019502861
 30
0.0
 40
12.000000000000012
  1
ハーパーズストロングルーフ300 t1.0
 41
0.7695
  7
FontTableH_0
 72
               5
 11
578.53881911420297
 21
182.37420019502861
 31
0.0
100
AcDbText
  0
TEXT
  5
2B7
100
AcDbEntity
  8
0
 62
               7
100
AcDbText
 10
414.2115518836801
 20
457.05726600088559
 30
0.0
 40
12.000000000000012
  1
ルーフィング
 41
0.7695
  7
FontTableH_0
 72
               5
 11
486.21155188368016
 21
457.05726600088559
 31
0.0
100
AcDbText
  0
TEXT
  5
2B8
100
AcDbEntity
  8
0
 62
               7
100
AcDbText
 10
476.93426783765568
 20
408.00441255334971
 30
0.0
 40
12.000000000000012
  1
断熱材
 41
0.7695
  7
FontTableH_0
 72
               5
 11
512.93426783765574
 21
408.00441255334971
 31
0.0
100
AcDbText
  0
TEXT
  5
2B9
100
AcDbEntity
  8
0
 62
               7
100
AcDbText
 10
445.57290986066795
 20
434.75380612195721
 30
0.0
 40
12.000000000000012
  1
遮音材
 41
0.7695
  7
FontTableH_0
 72
               5
 11
481.57290986066801
 21
434.75380612195721
 31
0.0
100
AcDbText
  0
TEXT
  5
2BA
100
AcDbEntity
  8
0
 62
               7
100
AcDbText
 10
319.48692734044124
 20
430.02654260336698
 30
0.0
 40
12.000000000000012
  1
吊子
 41
0.7695
  7
FontTableH_0
 72
               5
 11
343.48692734044124
 21
430.02654260336698
 31
0.0
100
AcDbText
  0
TEXT
  5
2BB
100
AcDbEntity
  8
0
 62
               7
100
AcDbText
 10
609.95378666019883
 20
486.91781994732418
 30
0.0
 40
12.000000000000012
  1
割付による
 41
0.7695
  7
FontTableH_0
 72
               5
 11
669.95378666019894
 21
486.91781994732418
 31
0.0
100
AcDbText
  0
TEXT
  5
2BC
100
AcDbEntity
  8
0
 62
               7
100
AcDbText
 10
430.95378666019911
 20
486.91781994732418
 30
0.0
 40
12.000000000000012
  1
300
 41
0.7695
  7
FontTableH_0
 72
               5
 11
448.95378666019911
 21
486.91781994732418
 31
0.0
100
AcDbText
  0
TEXT
  5
2BD
100
AcDbEntity
  8
0
 62
               7
100
AcDbText
 10
227.95378666019923
 20
486.91781994732418
 30
0.0
 40
12.000000000000012
  1
@300
 41
0.7695
  7
FontTableH_0
 72
               5
 11
251.95378666019926
 21
486.91781994732418
 31
0.0
100
AcDbText
  0
TEXT
  5
2BE
100
AcDbEntity
  8
0
 62
               7
100
AcDbText
 10
668.95378666019906
 20
432.9178199473244
 30
0.0
 40
12.000000000000012
  1
30
 41
0.7695
  7
FontTableH_0
 72
               5
 11
680.95378666019906
 21
432.9178199473244
 31
0.0
100
AcDbText
  0
TEXT
  5
2BF
100
AcDbEntity
  8
0
 62
               7
100
AcDbText
 10
358.22178215696039
 20
521.12525854306978
 30
0.0
 40
12.000000000000012
  1
ハーパーズストロングルーフ300
 41
0.7695
  7
FontTableH_0
 72
               5
 11
532.22178215696078
 21
521.12525854306978
 31
0.0
100
AcDbText
  0
TEXT
  5
2C0
100
AcDbEntity
  8
0
 62
               7
100
AcDbText
 10
716.95378666020542
 20
344.91781994732463
 30
0.0
 40
12.000000000000012
  1
50
 50
90.000000000000028
 41
0.7695
  7
FontTableH_0
 72
               5
 11
716.95378666020542
 21
356.91781994732463
 31
0.0
100
AcDbText
  0
TEXT
  5
2C1
100
AcDbEntity
  8
0
 62
               7
100
AcDbText
 10
708.542684938717
 20
286.34414928948894
 30
0.0
 40
12.000000000000012
  1
唐草
 41
0.7695
  7
FontTableH_0
 72
               5
 11
732.542684938717
 21
286.34414928948894
 31
0.0
100
AcDbText
  0
TEXT
  5
2C2
100
AcDbEntity
  8
0
 62
               7
100
AcDbText
 10
686.6358539989094
 20
256.75071100238051
 30
0.0
 40
12.000000000000012
  1
幕板
 41
0.7695
  7
FontTableH_0
 72
               5
 11
710.6358539989094
 21
256.75071100238051
 31
0.0
100
AcDbText
  0
TEXT
  5
2C3
100
AcDbEntity
  8
0
 62
               7
100
AcDbText
 10
680.04074489492496
 20
196.70293440526552
 30
0.0
 40
11.99999999999967
  1
下地材
 41
0.7695
  7
FontTableH_0
 72
               5
 11
716.04074489492496
 21
196.70293440526552
 31
0.0
100
AcDbText
  0
TEXT
  5
2C4
100
AcDbEntity
  8
0
 62
               7
100
AcDbText
 10
57.642136458195907
 20
601.35786449547766
 30
0.0
 40
8.9999997615814422
  1
ジンクロン新築
 41
0.7695
  7
FontTableH_0
 72
               5
 11
120.64213478926601
 21
601.35786449547766
 31
0.0
100
AcDbText
  0
TEXT
  5
2C5
100
AcDbEntity
  8
0
 62
               7
100
AcDbText
 10
740.28679787570559
 20
26.71320355480508
 30
0.0
 40
8.9999997615814422
  1
ケラバ詳細図 【S=1/3】
 41
0.7695
  7
FontTableH_0
 72
               5
 11
839.28679525310145
 21
26.71320355480508
 31
0.0
100
AcDbText
  0
ENDSEC
  0
SECTION
  2
OBJECTS
  0
DICTIONARY
  5
19
100
AcDbDictionary
  3
ACAD_GROUP
350
1A
  3
ACAD_MLINESTYLE
350
1B
  3
DWGPROPS
350
2C6
  0
DICTIONARY
  5
1A
102
{ACAD_REACTORS
330
19
102
}
100
AcDbDictionary
  0
DICTIONARY
  5
1B
102
{ACAD_REACTORS
330
19
102
}
100
AcDbDictionary
  3
STANDARD
350
1C
  0
MLINESTYLE
  5
1C
102
{ACAD_REACTORS
330
1B
102
}
100
AcDbMlineStyle
  2
Standard
 70
               0
  3

 62
               0
 51
90.0
 52
90.0
 71
               2
 49
0.5
 62
             256
  6
ByLayer
 49
-0.5
 62
             256
  6
ByLayer
  0
XRECORD
  5
2C6
100
AcDbXrecord
  1
DWGPROPS COOKIE
  2

  3

  4

  6

  7

  0
ENDSEC
  0
EOF
