  0
SECTION
  2
HEADER
  9
$ACADVER
  1
AC1014
  9
$ACADMAINTVER
 70
               0
  9
$DWGCODEPAGE
  3
ANSI_932
  9
$INSBASE
 10
0.0
 20
0.0
 30
0.0
  9
$EXTMIN
 10
0.0
 20
0.0
 30
0.0
  9
$EXTMAX
 10
1485.0
 20
1050.0
 30
0.0
  9
$LIMMIN
 10
0.0
 20
0.0
  9
$LIMMAX
 10
1485.0
 20
1050.0
  9
$ORTHOMODE
 70
               0
  9
$REGENMODE
 70
               1
  9
$FILLMODE
 70
               1
  9
$QTEXTMODE
 70
               0
  9
$MIRRTEXT
 70
               1
  9
$DRAGMODE
 70
               2
  9
$LTSCALE
 40
5.0
  9
$OSMODE
 70
               0
  9
$ATTMODE
 70
               1
  9
$TEXTSIZE
 40
0.2
  9
$TRACEWID
 40
0.05
  9
$TEXTSTYLE
  7
Standard
  9
$CLAYER
  8
0
  9
$CELTYPE
  6
Continuous
  9
$CECOLOR
 62
             256
  9
$CELTSCALE
 40
1.0
  9
$DELOBJ
 70
               1
  9
$DISPSILH
 70
               0
  9
$DIMSCALE
 40
1.0
  9
$DIMASZ
 40
0.18
  9
$DIMEXO
 40
0.0625
  9
$DIMDLI
 40
0.38
  9
$DIMRND
 40
0.0
  9
$DIMDLE
 40
0.0
  9
$DIMEXE
 40
0.18
  9
$DIMTP
 40
0.0
  9
$DIMTM
 40
0.0
  9
$DIMTXT
 40
0.18
  9
$DIMCEN
 40
0.09
  9
$DIMTSZ
 40
0.0
  9
$DIMTOL
 70
               0
  9
$DIMLIM
 70
               0
  9
$DIMTIH
 70
               1
  9
$DIMTOH
 70
               1
  9
$DIMSE1
 70
               0
  9
$DIMSE2
 70
               0
  9
$DIMTAD
 70
               0
  9
$DIMZIN
 70
               0
  9
$DIMBLK
  1

  9
$DIMASO
 70
               1
  9
$DIMSHO
 70
               1
  9
$DIMPOST
  1

  9
$DIMAPOST
  1

  9
$DIMALT
 70
               0
  9
$DIMALTD
 70
               2
  9
$DIMALTF
 40
25.399999999999999
  9
$DIMLFAC
 40
1.0
  9
$DIMTOFL
 70
               0
  9
$DIMTVP
 40
0.0
  9
$DIMTIX
 70
               0
  9
$DIMSOXD
 70
               0
  9
$DIMSAH
 70
               0
  9
$DIMBLK1
  1

  9
$DIMBLK2
  1

  9
$DIMSTYLE
  2
Standard
  9
$DIMCLRD
 70
               0
  9
$DIMCLRE
 70
               0
  9
$DIMCLRT
 70
               0
  9
$DIMTFAC
 40
1.0
  9
$DIMGAP
 40
0.09
  9
$DIMJUST
 70
               0
  9
$DIMSD1
 70
               0
  9
$DIMSD2
 70
               0
  9
$DIMTOLJ
 70
               1
  9
$DIMTZIN
 70
               0
  9
$DIMALTZ
 70
               0
  9
$DIMALTTZ
 70
               0
  9
$DIMFIT
 70
               3
  9
$DIMUPT
 70
               0
  9
$DIMUNIT
 70
               2
  9
$DIMDEC
 70
               4
  9
$DIMTDEC
 70
               4
  9
$DIMALTU
 70
               2
  9
$DIMALTTD
 70
               2
  9
$DIMTXSTY
  7
Standard
  9
$DIMAUNIT
 70
               0
  9
$LUNITS
 70
               2
  9
$LUPREC
 70
               4
  9
$SKETCHINC
 40
0.1
  9
$FILLETRAD
 40
0.0
  9
$AUNITS
 70
               0
  9
$AUPREC
 70
               0
  9
$MENU
  1
acad
  9
$ELEVATION
 40
0.0
  9
$PELEVATION
 40
0.0
  9
$THICKNESS
 40
0.0
  9
$LIMCHECK
 70
               0
  9
$BLIPMODE
 70
               1
  9
$CHAMFERA
 40
0.0
  9
$CHAMFERB
 40
0.0
  9
$CHAMFERC
 40
0.0
  9
$CHAMFERD
 40
0.0
  9
$SKPOLY
 70
               0
  9
$TDCREATE
 40
0.000000000
  9
$TDUPDATE
 40
0.000000000
  9
$TDINDWG
 40
0.0000000000
  9
$TDUSRTIMER
 40
0.0000000000
  9
$USRTIMER
 70
               1
  9
$ANGBASE
 50
0.0
  9
$ANGDIR
 70
               0
  9
$PDMODE
 70
               0
  9
$PDSIZE
 40
0.0
  9
$PLINEWID
 40
0.0
  9
$COORDS
 70
               0
  9
$SPLFRAME
 70
               0
  9
$SPLINETYPE
 70
               6
  9
$SPLINESEGS
 70
               8
  9
$ATTDIA
 70
               0
  9
$ATTREQ
 70
               1
  9
$HANDLING
 70
               1
  9
$HANDSEED
  5
2F3
  9
$SURFTAB1
 70
               6
  9
$SURFTAB2
 70
               6
  9
$SURFTYPE
 70
               6
  9
$SURFU
 70
               6
  9
$SURFV
 70
               6
  9
$UCSNAME
  2

  9
$UCSORG
 10
0.0
 20
0.0
 30
0.0
  9
$UCSXDIR
 10
1.0
 20
0.0
 30
0.0
  9
$UCSYDIR
 10
0.0
 20
1.0
 30
0.0
  9
$PUCSNAME
  2

  9
$PUCSORG
 10
0.0
 20
0.0
 30
0.0
  9
$PUCSXDIR
 10
1.0
 20
0.0
 30
0.0
  9
$PUCSYDIR
 10
0.0
 20
1.0
 30
0.0
  9
$USERI1
 70
               0
  9
$USERI2
 70
               0
  9
$USERI3
 70
               0
  9
$USERI4
 70
               0
  9
$USERI5
 70
               0
  9
$USERR1
 40
0.0
  9
$USERR2
 40
0.0
  9
$USERR3
 40
0.0
  9
$USERR4
 40
0.0
  9
$USERR5
 40
0.0
  9
$WORLDVIEW
 70
               1
  9
$SHADEDGE
 70
               3
  9
$SHADEDIF
 70
              70
  9
$TILEMODE
 70
               1
  9
$MAXACTVP
 70
              16
  9
$PINSBASE
 10
0.0
 20
0.0
 30
0.0
  9
$PLIMCHECK
 70
               0
  9
$PEXTMIN
 10
1.0000000000000000E+20
 20
1.0000000000000000E+20
 30
1.0000000000000000E+20
  9
$PEXTMAX
 10
-1.0000000000000000E+20
 20
-1.0000000000000000E+20
 30
-1.0000000000000000E+20
  9
$PLIMMIN
 10
0.0
 20
0.0
  9
$PLIMMAX
 10
12.0
 20
9.0
  9
$UNITMODE
 70
               0
  9
$VISRETAIN
 70
               0
  9
$PLINEGEN
 70
               1
  9
$PSLTSCALE
 70
               0
  9
$TREEDEPTH
 70
            3020
  9
$PICKSTYLE
 70
               1
  9
$CMLSTYLE
  2
Standard
  9
$CMLJUST
 70
               0
  9
$CMLSCALE
 40
1.0
  9
$PROXYGRAPHICS
 70
               0
  9
$MEASUREMENT
 70
               0
  0
ENDSEC
  0
SECTION
  2
CLASSES
  0
CLASS
  1
LWPOLYLINE
  2
AcDbPolyline
  3
"AutoCAD"
 90
        0
280
               0
281
               1
  0
CLASS
  1
IMAGE
  2
AcDbRasterImage
  3
ISM
 90
      127
280
               0
281
               1
  0
CLASS
  1
OLE2FRAME
  2
AcDbOle2Frame
  3
""
 90
        0
280
               0
281
               1
  0
CLASS
  1
HATCH
  2
AcDbHatch
  3
"ACAD_SEDONA"
 90
        0
280
               0
281
               1
  0
CLASS
  1
DICTIONARYVAR
  2
AcDbDictionaryVar
  3
"AutoCAD"
 90
        0
280
               0
281
               0
  0
CLASS
  1
RASTERVARIABLES
  2
AcDbRasterVariables
  3
ISM
 90
        0
280
               0
281
               0
  0
CLASS
  1
IMAGEDEF
  2
AcDbRasterImageDef
  3
ISM
 90
        0
280
               0
281
               0
  0
CLASS
  1
IMAGEDEF_REACTOR
  2
AcDbRasterImageDefReactor
  3
ISM
 90
        1
280
               0
281
               0
  0
CLASS
  1
IDBUFFER
  2
AcDbIdBuffer
  3
"Acad"
 90
        0
280
               0
281
               0
  0
CLASS
  1
SPATIAL_FILTER
  2
AcDbSpatialFilter
  3
"Acad"
 90
        0
280
               0
281
               0
  0
CLASS
  1
XRECORD
  2
AcDbXrecord
  3
"<Built In>"
 90
        0
280
               0
281
               0
  0
CLASS
  1
SORTENTSTABLE
  2
AcDbSortentsTable
  3
"AutoCAD"
 90
        0
280
               0
281
               0
  0
CLASS
  1
LAYER_INDEX
  2
AcDbLayerIndex
  3
"Acad"
 90
        0
280
               0
281
               0
  0
CLASS
  1
SPATIAL_INDEX
  2
AcDbSpatialIndex
  3
"Acad"
 90
        0
280
               0
281
               0
  0
CLASS
  1
OBJECT_PTR
  2
CAseDLPNTableRecord
  3
"ASE-LPNTableRecord"
 90
        1
280
               0
281
               0
  0
CLASS
  1
LAYOUT
  2
AcDbLayout
  3
"AutoCAD 2000"
 90
        0
280
               0
281
               0
  0
CLASS
  1
PLOTSETTINGS
  2
AcDbPlotSettings
  3
"AutoCAD 2000"
 90
        0
280
               0
281
               0
  0
CLASS
  1
ACDBDICTIONARYWDFLT
  2
AcDbDictionaryWithDefault
  3
"AutoCAD 2000"
 90
        0
280
               0
281
               0
  0
CLASS
  1
ACDBPLACEHOLDER
  2
AcDbPlaceHolder
  3
"AutoCAD 2000"
 90
        0
280
               0
281
               0
  0
CLASS
  1
VBA_PROJECT
  2
AcDbVbaProject
  3
"acadvba"
 90
        0
280
               0
281
               0
  0
CLASS
  1
WIPEOUT
  2
AcDbWipeout
  3
WipeOut|AutoCAD Express Tool|expresstools@autodesk.com
 90
      127
280
               0
281
               1
  0
CLASS
  1
WIPEOUTVARIABLES
  2
AcDbWipeoutVariables
  3
WipeOut|AutoCAD Express Tool|expresstools@autodesk.com
 90
        0
280
               0
281
               0
  0
CLASS
  1
RTEXT
  2
RText
  3
RText|AutoCAD Express Tool|expresstools@autodesk.com
 90
        0
280
               0
281
               1
  0
CLASS
  1
ARCALIGNEDTEXT
  2
AcDbArcAlignedText
  3
ATEXT|AutoCAD Express Tool|expresstools@autodesk.com
 90
        0
280
               0
281
               1
  0
ENDSEC
  0
SECTION
  2
TABLES
  0
TABLE
  2
VPORT
  5
7
100
AcDbSymbolTable
 70
               1
  0
VPORT
  5
15
100
AcDbSymbolTableRecord
100
AcDbViewportTableRecord
  2
*ACTIVE
 70
               0
 10
0.0
 20
0.0
 11
1.0
 21
1.0
 12
742.5
 22
525.0
 13
0.0
 23
0.0
 14
10.0
 24
10.0
 15
10.0
 25
10.0
 16
0.0
 26
0.0
 36
1.0
 17
0.0
 27
0.0
 37
0.0
 40
1050.0
 41
1.4142857142857144
 42
50.0
 43
0.0
 44
0.0
 50
0.0
 51
0.0
 71
               0
 72
             100
 73
               1
 74
               1
 75
               0
 76
               0
 77
               0
 78
               0
  0
ENDTAB
  0
TABLE
  2
LTYPE
  5
4
100
AcDbSymbolTable
 70
              24
  0
LTYPE
  5
11
100
AcDbSymbolTableRecord
100
AcDbLinetypeTableRecord
  2
ByBlock
 70
              64
  3

 72
              65
 73
               0
 40
0.0
  0
LTYPE
  5
12
100
AcDbSymbolTableRecord
100
AcDbLinetypeTableRecord
  2
ByLayer
 70
              64
  3

 72
              65
 73
               0
 40
0.0
  0
LTYPE
  5
13
100
AcDbSymbolTableRecord
100
AcDbLinetypeTableRecord
  2
Continuous
 70
              64
  3
Solid line
 72
              65
 73
               0
 40
0.0
  0
LTYPE
  5
1D
100
AcDbSymbolTableRecord
100
AcDbLinetypeTableRecord
  2
DOT
 70
              64
  3
Dot . . . . . . . . . . . . . . . . . . . . . .
 72
              65
 73
               2
 40
6.3499999999999996
 49
0.35
 74
               0
 49
-6.0
 74
               0
  0
LTYPE
  5
1E
100
AcDbSymbolTableRecord
100
AcDbLinetypeTableRecord
  2
DASHED
 70
              64
  3
Dashed __ __ __ __ __ __ __ __ __ __ __ __ __ _
 72
              65
 73
               2
 40
12.699999999999999
 49
6.3499999999999996
 74
               0
 49
-6.3499999999999996
 74
               0
  0
LTYPE
  5
1F
100
AcDbSymbolTableRecord
100
AcDbLinetypeTableRecord
  2
DASHDOT
 70
              64
  3
Dash dot __ . __ . __ . __ . __ . __ . __ . __
 72
              65
 73
               4
 40
25.399999999999999
 49
12.699999999999999
 74
               0
 49
-6.0
 74
               0
 49
0.7
 74
               0
 49
-6.0
 74
               0
  0
LTYPE
  5
20
100
AcDbSymbolTableRecord
100
AcDbLinetypeTableRecord
  2
DIVIDE
 70
              64
  3
Divide ____ . . ____ . . ____ . . ____ . . ____
 72
              65
 73
               6
 40
31.75
 49
12.699999999999999
 74
               0
 49
-6.0
 74
               0
 49
0.875
 74
               0
 49
-6.0
 74
               0
 49
0.875
 74
               0
 49
-6.0
 74
               0
  0
LTYPE
  5
21
100
AcDbSymbolTableRecord
100
AcDbLinetypeTableRecord
  2
HIDDEN
 70
              64
  3
Hidden __ __ __ __ __ __ __ __ __ __ __ __ __ _
 72
              65
 73
               2
 40
9.5250000000000004
 49
6.3499999999999996
 74
               0
 49
-3.1749999999999998
 74
               0
  0
LTYPE
  5
22
100
AcDbSymbolTableRecord
100
AcDbLinetypeTableRecord
  2
CENTER
 70
              64
  3
Center ____ _ ____ _ ____ _ ____ _ ____ _ ____
 72
              65
 73
               4
 40
50.799999999999997
 49
31.75
 74
               0
 49
-6.3499999999999996
 74
               0
 49
6.3499999999999996
 74
               0
 49
-6.3499999999999996
 74
               0
  0
LTYPE
  5
23
100
AcDbSymbolTableRecord
100
AcDbLinetypeTableRecord
  2
PHANTOM
 70
              64
  3
Phantom ______  __  __  ______  __  __  ______
 72
              65
 73
               6
 40
63.5
 49
31.75
 74
               0
 49
-6.3499999999999996
 74
               0
 49
6.3499999999999996
 74
               0
 49
-6.3499999999999996
 74
               0
 49
6.3499999999999996
 74
               0
 49
-6.3499999999999996
 74
               0
  0
LTYPE
  5
24
100
AcDbSymbolTableRecord
100
AcDbLinetypeTableRecord
  2
ACAD_ISO02W100
 70
              64
  3
ISO dash __ __ __ __ __ __ __ __ __ __ __ __ __
 72
              65
 73
               2
 40
15.0
 49
12.0
 74
               0
 49
-3.0
 74
               0
  0
LTYPE
  5
25
100
AcDbSymbolTableRecord
100
AcDbLinetypeTableRecord
  2
ACAD_ISO03W100
 70
              64
  3
ISO dash space __ __ __ __ __ __ __ __ __ __ __ __ __ __
 72
              65
 73
               2
 40
30.0
 49
12.0
 74
               0
 49
-18.0
 74
               0
  0
LTYPE
  5
26
100
AcDbSymbolTableRecord
100
AcDbLinetypeTableRecord
  2
ACAD_ISO04W100
 70
              64
  3
ISO long-dash dot ____ . ____ . ____ . ____ . _
 72
              65
 73
               4
 40
30.0
 49
24.0
 74
               0
 49
-3.0
 74
               0
 49
0.0
 74
               0
 49
-3.0
 74
               0
  0
LTYPE
  5
27
100
AcDbSymbolTableRecord
100
AcDbLinetypeTableRecord
  2
ACAD_ISO05W100
 70
              64
  3
ISO long-dash double-dot ____ .. ____ .. ____ .
 72
              65
 73
               6
 40
33.0
 49
24.0
 74
               0
 49
-3.0
 74
               0
 49
0.0
 74
               0
 49
-3.0
 74
               0
 49
0.0
 74
               0
 49
-3.0
 74
               0
  0
LTYPE
  5
28
100
AcDbSymbolTableRecord
100
AcDbLinetypeTableRecord
  2
ACAD_ISO06W100
 70
              64
  3
ISO long-dash triple-dot ____ ... ____ ... ____
 72
              65
 73
               8
 40
36.0
 49
24.0
 74
               0
 49
-3.0
 74
               0
 49
0.0
 74
               0
 49
-3.0
 74
               0
 49
0.0
 74
               0
 49
-3.0
 74
               0
 49
0.0
 74
               0
 49
-3.0
 74
               0
  0
LTYPE
  5
29
100
AcDbSymbolTableRecord
100
AcDbLinetypeTableRecord
  2
ACAD_ISO07W100
 70
              64
  3
ISO dot . . . . . . . . . . . . . . . . . . . .
 72
              65
 73
               2
 40
3.0
 49
0.0
 74
               0
 49
-3.0
 74
               0
  0
LTYPE
  5
2A
100
AcDbSymbolTableRecord
100
AcDbLinetypeTableRecord
  2
ACAD_ISO08W100
 70
              64
  3
ISO long-dash short-dash ____ __ ____ __ ____ _
 72
              65
 73
               4
 40
36.0
 49
24.0
 74
               0
 49
-3.0
 74
               0
 49
6.0
 74
               0
 49
-3.0
 74
               0
  0
LTYPE
  5
2B
100
AcDbSymbolTableRecord
100
AcDbLinetypeTableRecord
  2
ACAD_ISO09W100
 70
              64
  3
ISO long-dash double-short-dash ____ __ __ ____
 72
              65
 73
               6
 40
45.0
 49
24.0
 74
               0
 49
-3.0
 74
               0
 49
6.0
 74
               0
 49
-3.0
 74
               0
 49
6.0
 74
               0
 49
-3.0
 74
               0
  0
LTYPE
  5
2C
100
AcDbSymbolTableRecord
100
AcDbLinetypeTableRecord
  2
ACAD_ISO10W100
 70
              64
  3
ISO dash dot __ . __ . __ . __ . __ . __ . __ .
 72
              65
 73
               4
 40
18.0
 49
12.0
 74
               0
 49
-3.0
 74
               0
 49
0.0
 74
               0
 49
-3.0
 74
               0
  0
LTYPE
  5
2D
100
AcDbSymbolTableRecord
100
AcDbLinetypeTableRecord
  2
ACAD_ISO11W100
 70
              64
  3
ISO double-dash dot __ __ . __ __ . __ __ . __ 
 72
              65
 73
               6
 40
33.0
 49
12.0
 74
               0
 49
-3.0
 74
               0
 49
12.0
 74
               0
 49
-3.0
 74
               0
 49
0.0
 74
               0
 49
-3.0
 74
               0
  0
LTYPE
  5
2E
100
AcDbSymbolTableRecord
100
AcDbLinetypeTableRecord
  2
ACAD_ISO12W100
 70
              64
  3
ISO dash double-dot __ . . __ . . __ . . __ . .
 72
              65
 73
               6
 40
21.0
 49
12.0
 74
               0
 49
-3.0
 74
               0
 49
0.0
 74
               0
 49
-3.0
 74
               0
 49
0.0
 74
               0
 49
-3.0
 74
               0
  0
LTYPE
  5
2F
100
AcDbSymbolTableRecord
100
AcDbLinetypeTableRecord
  2
ACAD_ISO13W100
 70
              64
  3
ISO double-dash double-dot __ __ . . __ __ . . 
 72
              65
 73
               8
 40
36.0
 49
12.0
 74
               0
 49
-3.0
 74
               0
 49
12.0
 74
               0
 49
-3.0
 74
               0
 49
0.0
 74
               0
 49
-3.0
 74
               0
 49
0.0
 74
               0
 49
-3.0
 74
               0
  0
LTYPE
  5
30
100
AcDbSymbolTableRecord
100
AcDbLinetypeTableRecord
  2
ACAD_ISO14W100
 70
              64
  3
ISO dash triple-dot __ . . . __ . . . __ . . . 
 72
              65
 73
               8
 40
24.0
 49
12.0
 74
               0
 49
-3.0
 74
               0
 49
0.0
 74
               0
 49
-3.0
 74
               0
 49
0.0
 74
               0
 49
-3.0
 74
               0
 49
0.0
 74
               0
 49
-3.0
 74
               0
  0
LTYPE
  5
31
100
AcDbSymbolTableRecord
100
AcDbLinetypeTableRecord
  2
ACAD_ISO15W100
 70
              64
  3
ISO double-dash double-dot __ __ . . __ __ . . 
 72
              65
 73
              10
 40
39.0
 49
12.0
 74
               0
 49
-3.0
 74
               0
 49
12.0
 74
               0
 49
-3.0
 74
               0
 49
0.0
 74
               0
 49
-3.0
 74
               0
 49
0.0
 74
               0
 49
-3.0
 74
               0
 49
0.0
 74
               0
 49
-3.0
 74
               0
  0
ENDTAB
  0
TABLE
  2
LAYER
  5
2
100
AcDbSymbolTable
 70
             256
  0
LAYER
  5
14
100
AcDbSymbolTableRecord
100
AcDbLayerTableRecord
  2
0
 70
               0
 62
               7
  6
Continuous
  0
LAYER
  5
35
100
AcDbSymbolTableRecord
100
AcDbLayerTableRecord
  2
Layer00001
 70
               0
 62
               7
  6
Continuous
  0
LAYER
  5
36
100
AcDbSymbolTableRecord
100
AcDbLayerTableRecord
  2
Layer00002
 70
               0
 62
               7
  6
Continuous
  0
LAYER
  5
37
100
AcDbSymbolTableRecord
100
AcDbLayerTableRecord
  2
Layer00003
 70
               0
 62
               7
  6
Continuous
  0
LAYER
  5
38
100
AcDbSymbolTableRecord
100
AcDbLayerTableRecord
  2
Layer00004
 70
               0
 62
               7
  6
Continuous
  0
LAYER
  5
39
100
AcDbSymbolTableRecord
100
AcDbLayerTableRecord
  2
Layer00005
 70
               0
 62
               7
  6
Continuous
  0
LAYER
  5
3A
100
AcDbSymbolTableRecord
100
AcDbLayerTableRecord
  2
Layer00006
 70
               0
 62
               7
  6
Continuous
  0
LAYER
  5
3B
100
AcDbSymbolTableRecord
100
AcDbLayerTableRecord
  2
Layer00007
 70
               0
 62
               7
  6
Continuous
  0
LAYER
  5
3C
100
AcDbSymbolTableRecord
100
AcDbLayerTableRecord
  2
Layer00008
 70
               0
 62
               7
  6
Continuous
  0
LAYER
  5
3D
100
AcDbSymbolTableRecord
100
AcDbLayerTableRecord
  2
Layer00009
 70
               0
 62
               7
  6
Continuous
  0
LAYER
  5
3E
100
AcDbSymbolTableRecord
100
AcDbLayerTableRecord
  2
Layer00010
 70
               0
 62
               7
  6
Continuous
  0
LAYER
  5
3F
100
AcDbSymbolTableRecord
100
AcDbLayerTableRecord
  2
Layer00011
 70
               0
 62
               7
  6
Continuous
  0
LAYER
  5
40
100
AcDbSymbolTableRecord
100
AcDbLayerTableRecord
  2
Layer00012
 70
               0
 62
               7
  6
Continuous
  0
LAYER
  5
41
100
AcDbSymbolTableRecord
100
AcDbLayerTableRecord
  2
Layer00013
 70
               0
 62
               7
  6
Continuous
  0
LAYER
  5
42
100
AcDbSymbolTableRecord
100
AcDbLayerTableRecord
  2
Layer00014
 70
               0
 62
               7
  6
Continuous
  0
LAYER
  5
43
100
AcDbSymbolTableRecord
100
AcDbLayerTableRecord
  2
Layer00015
 70
               0
 62
               7
  6
Continuous
  0
LAYER
  5
44
100
AcDbSymbolTableRecord
100
AcDbLayerTableRecord
  2
Layer00016
 70
               0
 62
               7
  6
Continuous
  0
LAYER
  5
45
100
AcDbSymbolTableRecord
100
AcDbLayerTableRecord
  2
Layer00017
 70
               0
 62
               7
  6
Continuous
  0
LAYER
  5
46
100
AcDbSymbolTableRecord
100
AcDbLayerTableRecord
  2
Layer00018
 70
               0
 62
               7
  6
Continuous
  0
LAYER
  5
47
100
AcDbSymbolTableRecord
100
AcDbLayerTableRecord
  2
Layer00019
 70
               0
 62
               7
  6
Continuous
  0
LAYER
  5
48
100
AcDbSymbolTableRecord
100
AcDbLayerTableRecord
  2
Layer00020
 70
               0
 62
               7
  6
Continuous
  0
LAYER
  5
49
100
AcDbSymbolTableRecord
100
AcDbLayerTableRecord
  2
Layer00021
 70
               0
 62
               7
  6
Continuous
  0
LAYER
  5
4A
100
AcDbSymbolTableRecord
100
AcDbLayerTableRecord
  2
Layer00022
 70
               0
 62
               7
  6
Continuous
  0
LAYER
  5
4B
100
AcDbSymbolTableRecord
100
AcDbLayerTableRecord
  2
Layer00023
 70
               0
 62
               7
  6
Continuous
  0
LAYER
  5
4C
100
AcDbSymbolTableRecord
100
AcDbLayerTableRecord
  2
Layer00024
 70
               0
 62
               7
  6
Continuous
  0
LAYER
  5
4D
100
AcDbSymbolTableRecord
100
AcDbLayerTableRecord
  2
Layer00025
 70
               0
 62
               7
  6
Continuous
  0
LAYER
  5
4E
100
AcDbSymbolTableRecord
100
AcDbLayerTableRecord
  2
Layer00026
 70
               0
 62
               7
  6
Continuous
  0
LAYER
  5
4F
100
AcDbSymbolTableRecord
100
AcDbLayerTableRecord
  2
Layer00027
 70
               0
 62
               7
  6
Continuous
  0
LAYER
  5
50
100
AcDbSymbolTableRecord
100
AcDbLayerTableRecord
  2
Layer00028
 70
               0
 62
               7
  6
Continuous
  0
LAYER
  5
51
100
AcDbSymbolTableRecord
100
AcDbLayerTableRecord
  2
Layer00029
 70
               0
 62
               7
  6
Continuous
  0
LAYER
  5
52
100
AcDbSymbolTableRecord
100
AcDbLayerTableRecord
  2
Layer00030
 70
               0
 62
               7
  6
Continuous
  0
LAYER
  5
53
100
AcDbSymbolTableRecord
100
AcDbLayerTableRecord
  2
Layer00031
 70
               0
 62
               7
  6
Continuous
  0
LAYER
  5
54
100
AcDbSymbolTableRecord
100
AcDbLayerTableRecord
  2
Layer00032
 70
               0
 62
               7
  6
Continuous
  0
LAYER
  5
55
100
AcDbSymbolTableRecord
100
AcDbLayerTableRecord
  2
Layer00033
 70
               0
 62
               7
  6
Continuous
  0
LAYER
  5
56
100
AcDbSymbolTableRecord
100
AcDbLayerTableRecord
  2
Layer00034
 70
               0
 62
               7
  6
Continuous
  0
LAYER
  5
57
100
AcDbSymbolTableRecord
100
AcDbLayerTableRecord
  2
Layer00035
 70
               0
 62
               7
  6
Continuous
  0
LAYER
  5
58
100
AcDbSymbolTableRecord
100
AcDbLayerTableRecord
  2
Layer00036
 70
               0
 62
               7
  6
Continuous
  0
LAYER
  5
59
100
AcDbSymbolTableRecord
100
AcDbLayerTableRecord
  2
Layer00037
 70
               0
 62
               7
  6
Continuous
  0
LAYER
  5
5A
100
AcDbSymbolTableRecord
100
AcDbLayerTableRecord
  2
Layer00038
 70
               0
 62
               7
  6
Continuous
  0
LAYER
  5
5B
100
AcDbSymbolTableRecord
100
AcDbLayerTableRecord
  2
Layer00039
 70
               0
 62
               7
  6
Continuous
  0
LAYER
  5
5C
100
AcDbSymbolTableRecord
100
AcDbLayerTableRecord
  2
Layer00040
 70
               0
 62
               7
  6
Continuous
  0
LAYER
  5
5D
100
AcDbSymbolTableRecord
100
AcDbLayerTableRecord
  2
Layer00041
 70
               0
 62
               7
  6
Continuous
  0
LAYER
  5
5E
100
AcDbSymbolTableRecord
100
AcDbLayerTableRecord
  2
Layer00042
 70
               0
 62
               7
  6
Continuous
  0
LAYER
  5
5F
100
AcDbSymbolTableRecord
100
AcDbLayerTableRecord
  2
Layer00043
 70
               0
 62
               7
  6
Continuous
  0
LAYER
  5
60
100
AcDbSymbolTableRecord
100
AcDbLayerTableRecord
  2
Layer00044
 70
               0
 62
               7
  6
Continuous
  0
LAYER
  5
61
100
AcDbSymbolTableRecord
100
AcDbLayerTableRecord
  2
Layer00045
 70
               0
 62
               7
  6
Continuous
  0
LAYER
  5
62
100
AcDbSymbolTableRecord
100
AcDbLayerTableRecord
  2
Layer00046
 70
               0
 62
               7
  6
Continuous
  0
LAYER
  5
63
100
AcDbSymbolTableRecord
100
AcDbLayerTableRecord
  2
Layer00047
 70
               0
 62
               7
  6
Continuous
  0
LAYER
  5
64
100
AcDbSymbolTableRecord
100
AcDbLayerTableRecord
  2
Layer00048
 70
               0
 62
               7
  6
Continuous
  0
LAYER
  5
65
100
AcDbSymbolTableRecord
100
AcDbLayerTableRecord
  2
Layer00049
 70
               0
 62
               7
  6
Continuous
  0
LAYER
  5
66
100
AcDbSymbolTableRecord
100
AcDbLayerTableRecord
  2
Layer00050
 70
               0
 62
               7
  6
Continuous
  0
LAYER
  5
67
100
AcDbSymbolTableRecord
100
AcDbLayerTableRecord
  2
Layer00051
 70
               0
 62
               7
  6
Continuous
  0
LAYER
  5
68
100
AcDbSymbolTableRecord
100
AcDbLayerTableRecord
  2
Layer00052
 70
               0
 62
               7
  6
Continuous
  0
LAYER
  5
69
100
AcDbSymbolTableRecord
100
AcDbLayerTableRecord
  2
Layer00053
 70
               0
 62
               7
  6
Continuous
  0
LAYER
  5
6A
100
AcDbSymbolTableRecord
100
AcDbLayerTableRecord
  2
Layer00054
 70
               0
 62
               7
  6
Continuous
  0
LAYER
  5
6B
100
AcDbSymbolTableRecord
100
AcDbLayerTableRecord
  2
Layer00055
 70
               0
 62
               7
  6
Continuous
  0
LAYER
  5
6C
100
AcDbSymbolTableRecord
100
AcDbLayerTableRecord
  2
Layer00056
 70
               0
 62
               7
  6
Continuous
  0
LAYER
  5
6D
100
AcDbSymbolTableRecord
100
AcDbLayerTableRecord
  2
Layer00057
 70
               0
 62
               7
  6
Continuous
  0
LAYER
  5
6E
100
AcDbSymbolTableRecord
100
AcDbLayerTableRecord
  2
Layer00058
 70
               0
 62
               7
  6
Continuous
  0
LAYER
  5
6F
100
AcDbSymbolTableRecord
100
AcDbLayerTableRecord
  2
Layer00059
 70
               0
 62
               7
  6
Continuous
  0
LAYER
  5
70
100
AcDbSymbolTableRecord
100
AcDbLayerTableRecord
  2
Layer00060
 70
               0
 62
               7
  6
Continuous
  0
LAYER
  5
71
100
AcDbSymbolTableRecord
100
AcDbLayerTableRecord
  2
Layer00061
 70
               0
 62
               7
  6
Continuous
  0
LAYER
  5
72
100
AcDbSymbolTableRecord
100
AcDbLayerTableRecord
  2
Layer00062
 70
               0
 62
               7
  6
Continuous
  0
LAYER
  5
73
100
AcDbSymbolTableRecord
100
AcDbLayerTableRecord
  2
Layer00063
 70
               0
 62
               7
  6
Continuous
  0
LAYER
  5
74
100
AcDbSymbolTableRecord
100
AcDbLayerTableRecord
  2
Layer00064
 70
               0
 62
               7
  6
Continuous
  0
LAYER
  5
75
100
AcDbSymbolTableRecord
100
AcDbLayerTableRecord
  2
Layer00065
 70
               0
 62
               7
  6
Continuous
  0
LAYER
  5
76
100
AcDbSymbolTableRecord
100
AcDbLayerTableRecord
  2
Layer00066
 70
               0
 62
               7
  6
Continuous
  0
LAYER
  5
77
100
AcDbSymbolTableRecord
100
AcDbLayerTableRecord
  2
Layer00067
 70
               0
 62
               7
  6
Continuous
  0
LAYER
  5
78
100
AcDbSymbolTableRecord
100
AcDbLayerTableRecord
  2
Layer00068
 70
               0
 62
               7
  6
Continuous
  0
LAYER
  5
79
100
AcDbSymbolTableRecord
100
AcDbLayerTableRecord
  2
Layer00069
 70
               0
 62
               7
  6
Continuous
  0
LAYER
  5
7A
100
AcDbSymbolTableRecord
100
AcDbLayerTableRecord
  2
Layer00070
 70
               0
 62
               7
  6
Continuous
  0
LAYER
  5
7B
100
AcDbSymbolTableRecord
100
AcDbLayerTableRecord
  2
Layer00071
 70
               0
 62
               7
  6
Continuous
  0
LAYER
  5
7C
100
AcDbSymbolTableRecord
100
AcDbLayerTableRecord
  2
Layer00072
 70
               0
 62
               7
  6
Continuous
  0
LAYER
  5
7D
100
AcDbSymbolTableRecord
100
AcDbLayerTableRecord
  2
Layer00073
 70
               0
 62
               7
  6
Continuous
  0
LAYER
  5
7E
100
AcDbSymbolTableRecord
100
AcDbLayerTableRecord
  2
Layer00074
 70
               0
 62
               7
  6
Continuous
  0
LAYER
  5
7F
100
AcDbSymbolTableRecord
100
AcDbLayerTableRecord
  2
Layer00075
 70
               0
 62
               7
  6
Continuous
  0
LAYER
  5
80
100
AcDbSymbolTableRecord
100
AcDbLayerTableRecord
  2
Layer00076
 70
               0
 62
               7
  6
Continuous
  0
LAYER
  5
81
100
AcDbSymbolTableRecord
100
AcDbLayerTableRecord
  2
Layer00077
 70
               0
 62
               7
  6
Continuous
  0
LAYER
  5
82
100
AcDbSymbolTableRecord
100
AcDbLayerTableRecord
  2
Layer00078
 70
               0
 62
               7
  6
Continuous
  0
LAYER
  5
83
100
AcDbSymbolTableRecord
100
AcDbLayerTableRecord
  2
Layer00079
 70
               0
 62
               7
  6
Continuous
  0
LAYER
  5
84
100
AcDbSymbolTableRecord
100
AcDbLayerTableRecord
  2
Layer00080
 70
               0
 62
               7
  6
Continuous
  0
LAYER
  5
85
100
AcDbSymbolTableRecord
100
AcDbLayerTableRecord
  2
Layer00081
 70
               0
 62
               7
  6
Continuous
  0
LAYER
  5
86
100
AcDbSymbolTableRecord
100
AcDbLayerTableRecord
  2
Layer00082
 70
               0
 62
               7
  6
Continuous
  0
LAYER
  5
87
100
AcDbSymbolTableRecord
100
AcDbLayerTableRecord
  2
Layer00083
 70
               0
 62
               7
  6
Continuous
  0
LAYER
  5
88
100
AcDbSymbolTableRecord
100
AcDbLayerTableRecord
  2
Layer00084
 70
               0
 62
               7
  6
Continuous
  0
LAYER
  5
89
100
AcDbSymbolTableRecord
100
AcDbLayerTableRecord
  2
Layer00085
 70
               0
 62
               7
  6
Continuous
  0
LAYER
  5
8A
100
AcDbSymbolTableRecord
100
AcDbLayerTableRecord
  2
Layer00086
 70
               0
 62
               7
  6
Continuous
  0
LAYER
  5
8B
100
AcDbSymbolTableRecord
100
AcDbLayerTableRecord
  2
Layer00087
 70
               0
 62
               7
  6
Continuous
  0
LAYER
  5
8C
100
AcDbSymbolTableRecord
100
AcDbLayerTableRecord
  2
Layer00088
 70
               0
 62
               7
  6
Continuous
  0
LAYER
  5
8D
100
AcDbSymbolTableRecord
100
AcDbLayerTableRecord
  2
Layer00089
 70
               0
 62
               7
  6
Continuous
  0
LAYER
  5
8E
100
AcDbSymbolTableRecord
100
AcDbLayerTableRecord
  2
Layer00090
 70
               0
 62
               7
  6
Continuous
  0
LAYER
  5
8F
100
AcDbSymbolTableRecord
100
AcDbLayerTableRecord
  2
Layer00091
 70
               0
 62
               7
  6
Continuous
  0
LAYER
  5
90
100
AcDbSymbolTableRecord
100
AcDbLayerTableRecord
  2
Layer00092
 70
               0
 62
               7
  6
Continuous
  0
LAYER
  5
91
100
AcDbSymbolTableRecord
100
AcDbLayerTableRecord
  2
Layer00093
 70
               0
 62
               7
  6
Continuous
  0
LAYER
  5
92
100
AcDbSymbolTableRecord
100
AcDbLayerTableRecord
  2
Layer00094
 70
               0
 62
               7
  6
Continuous
  0
LAYER
  5
93
100
AcDbSymbolTableRecord
100
AcDbLayerTableRecord
  2
Layer00095
 70
               0
 62
               7
  6
Continuous
  0
LAYER
  5
94
100
AcDbSymbolTableRecord
100
AcDbLayerTableRecord
  2
Layer00096
 70
               0
 62
               7
  6
Continuous
  0
LAYER
  5
95
100
AcDbSymbolTableRecord
100
AcDbLayerTableRecord
  2
Layer00097
 70
               0
 62
               7
  6
Continuous
  0
LAYER
  5
96
100
AcDbSymbolTableRecord
100
AcDbLayerTableRecord
  2
Layer00098
 70
               0
 62
               7
  6
Continuous
  0
LAYER
  5
97
100
AcDbSymbolTableRecord
100
AcDbLayerTableRecord
  2
Layer00099
 70
               0
 62
               7
  6
Continuous
  0
LAYER
  5
98
100
AcDbSymbolTableRecord
100
AcDbLayerTableRecord
  2
Layer00100
 70
               0
 62
               7
  6
Continuous
  0
LAYER
  5
99
100
AcDbSymbolTableRecord
100
AcDbLayerTableRecord
  2
Layer00101
 70
               0
 62
               7
  6
Continuous
  0
LAYER
  5
9A
100
AcDbSymbolTableRecord
100
AcDbLayerTableRecord
  2
Layer00102
 70
               0
 62
               7
  6
Continuous
  0
LAYER
  5
9B
100
AcDbSymbolTableRecord
100
AcDbLayerTableRecord
  2
Layer00103
 70
               0
 62
               7
  6
Continuous
  0
LAYER
  5
9C
100
AcDbSymbolTableRecord
100
AcDbLayerTableRecord
  2
Layer00104
 70
               0
 62
               7
  6
Continuous
  0
LAYER
  5
9D
100
AcDbSymbolTableRecord
100
AcDbLayerTableRecord
  2
Layer00105
 70
               0
 62
               7
  6
Continuous
  0
LAYER
  5
9E
100
AcDbSymbolTableRecord
100
AcDbLayerTableRecord
  2
Layer00106
 70
               0
 62
               7
  6
Continuous
  0
LAYER
  5
9F
100
AcDbSymbolTableRecord
100
AcDbLayerTableRecord
  2
Layer00107
 70
               0
 62
               7
  6
Continuous
  0
LAYER
  5
A0
100
AcDbSymbolTableRecord
100
AcDbLayerTableRecord
  2
Layer00108
 70
               0
 62
               7
  6
Continuous
  0
LAYER
  5
A1
100
AcDbSymbolTableRecord
100
AcDbLayerTableRecord
  2
Layer00109
 70
               0
 62
               7
  6
Continuous
  0
LAYER
  5
A2
100
AcDbSymbolTableRecord
100
AcDbLayerTableRecord
  2
Layer00110
 70
               0
 62
               7
  6
Continuous
  0
LAYER
  5
A3
100
AcDbSymbolTableRecord
100
AcDbLayerTableRecord
  2
Layer00111
 70
               0
 62
               7
  6
Continuous
  0
LAYER
  5
A4
100
AcDbSymbolTableRecord
100
AcDbLayerTableRecord
  2
Layer00112
 70
               0
 62
               7
  6
Continuous
  0
LAYER
  5
A5
100
AcDbSymbolTableRecord
100
AcDbLayerTableRecord
  2
Layer00113
 70
               0
 62
               7
  6
Continuous
  0
LAYER
  5
A6
100
AcDbSymbolTableRecord
100
AcDbLayerTableRecord
  2
Layer00114
 70
               0
 62
               7
  6
Continuous
  0
LAYER
  5
A7
100
AcDbSymbolTableRecord
100
AcDbLayerTableRecord
  2
Layer00115
 70
               0
 62
               7
  6
Continuous
  0
LAYER
  5
A8
100
AcDbSymbolTableRecord
100
AcDbLayerTableRecord
  2
Layer00116
 70
               0
 62
               7
  6
Continuous
  0
LAYER
  5
A9
100
AcDbSymbolTableRecord
100
AcDbLayerTableRecord
  2
Layer00117
 70
               0
 62
               7
  6
Continuous
  0
LAYER
  5
AA
100
AcDbSymbolTableRecord
100
AcDbLayerTableRecord
  2
Layer00118
 70
               0
 62
               7
  6
Continuous
  0
LAYER
  5
AB
100
AcDbSymbolTableRecord
100
AcDbLayerTableRecord
  2
Layer00119
 70
               0
 62
               7
  6
Continuous
  0
LAYER
  5
AC
100
AcDbSymbolTableRecord
100
AcDbLayerTableRecord
  2
Layer00120
 70
               0
 62
               7
  6
Continuous
  0
LAYER
  5
AD
100
AcDbSymbolTableRecord
100
AcDbLayerTableRecord
  2
Layer00121
 70
               0
 62
               7
  6
Continuous
  0
LAYER
  5
AE
100
AcDbSymbolTableRecord
100
AcDbLayerTableRecord
  2
Layer00122
 70
               0
 62
               7
  6
Continuous
  0
LAYER
  5
AF
100
AcDbSymbolTableRecord
100
AcDbLayerTableRecord
  2
Layer00123
 70
               0
 62
               7
  6
Continuous
  0
LAYER
  5
B0
100
AcDbSymbolTableRecord
100
AcDbLayerTableRecord
  2
Layer00124
 70
               0
 62
               7
  6
Continuous
  0
LAYER
  5
B1
100
AcDbSymbolTableRecord
100
AcDbLayerTableRecord
  2
Layer00125
 70
               0
 62
               7
  6
Continuous
  0
LAYER
  5
B2
100
AcDbSymbolTableRecord
100
AcDbLayerTableRecord
  2
Layer00126
 70
               0
 62
               7
  6
Continuous
  0
LAYER
  5
B3
100
AcDbSymbolTableRecord
100
AcDbLayerTableRecord
  2
Layer00127
 70
               0
 62
               7
  6
Continuous
  0
LAYER
  5
B4
100
AcDbSymbolTableRecord
100
AcDbLayerTableRecord
  2
Layer00128
 70
               0
 62
               7
  6
Continuous
  0
LAYER
  5
B5
100
AcDbSymbolTableRecord
100
AcDbLayerTableRecord
  2
Layer00129
 70
               0
 62
               7
  6
Continuous
  0
LAYER
  5
B6
100
AcDbSymbolTableRecord
100
AcDbLayerTableRecord
  2
Layer00130
 70
               0
 62
               7
  6
Continuous
  0
LAYER
  5
B7
100
AcDbSymbolTableRecord
100
AcDbLayerTableRecord
  2
Layer00131
 70
               0
 62
               7
  6
Continuous
  0
LAYER
  5
B8
100
AcDbSymbolTableRecord
100
AcDbLayerTableRecord
  2
Layer00132
 70
               0
 62
               7
  6
Continuous
  0
LAYER
  5
B9
100
AcDbSymbolTableRecord
100
AcDbLayerTableRecord
  2
Layer00133
 70
               0
 62
               7
  6
Continuous
  0
LAYER
  5
BA
100
AcDbSymbolTableRecord
100
AcDbLayerTableRecord
  2
Layer00134
 70
               0
 62
               7
  6
Continuous
  0
LAYER
  5
BB
100
AcDbSymbolTableRecord
100
AcDbLayerTableRecord
  2
Layer00135
 70
               0
 62
               7
  6
Continuous
  0
LAYER
  5
BC
100
AcDbSymbolTableRecord
100
AcDbLayerTableRecord
  2
Layer00136
 70
               0
 62
               7
  6
Continuous
  0
LAYER
  5
BD
100
AcDbSymbolTableRecord
100
AcDbLayerTableRecord
  2
Layer00137
 70
               0
 62
               7
  6
Continuous
  0
LAYER
  5
BE
100
AcDbSymbolTableRecord
100
AcDbLayerTableRecord
  2
Layer00138
 70
               0
 62
               7
  6
Continuous
  0
LAYER
  5
BF
100
AcDbSymbolTableRecord
100
AcDbLayerTableRecord
  2
Layer00139
 70
               0
 62
               7
  6
Continuous
  0
LAYER
  5
C0
100
AcDbSymbolTableRecord
100
AcDbLayerTableRecord
  2
Layer00140
 70
               0
 62
               7
  6
Continuous
  0
LAYER
  5
C1
100
AcDbSymbolTableRecord
100
AcDbLayerTableRecord
  2
Layer00141
 70
               0
 62
               7
  6
Continuous
  0
LAYER
  5
C2
100
AcDbSymbolTableRecord
100
AcDbLayerTableRecord
  2
Layer00142
 70
               0
 62
               7
  6
Continuous
  0
LAYER
  5
C3
100
AcDbSymbolTableRecord
100
AcDbLayerTableRecord
  2
Layer00143
 70
               0
 62
               7
  6
Continuous
  0
LAYER
  5
C4
100
AcDbSymbolTableRecord
100
AcDbLayerTableRecord
  2
Layer00144
 70
               0
 62
               7
  6
Continuous
  0
LAYER
  5
C5
100
AcDbSymbolTableRecord
100
AcDbLayerTableRecord
  2
Layer00145
 70
               0
 62
               7
  6
Continuous
  0
LAYER
  5
C6
100
AcDbSymbolTableRecord
100
AcDbLayerTableRecord
  2
Layer00146
 70
               0
 62
               7
  6
Continuous
  0
LAYER
  5
C7
100
AcDbSymbolTableRecord
100
AcDbLayerTableRecord
  2
Layer00147
 70
               0
 62
               7
  6
Continuous
  0
LAYER
  5
C8
100
AcDbSymbolTableRecord
100
AcDbLayerTableRecord
  2
Layer00148
 70
               0
 62
               7
  6
Continuous
  0
LAYER
  5
C9
100
AcDbSymbolTableRecord
100
AcDbLayerTableRecord
  2
Layer00149
 70
               0
 62
               7
  6
Continuous
  0
LAYER
  5
CA
100
AcDbSymbolTableRecord
100
AcDbLayerTableRecord
  2
Layer00150
 70
               0
 62
               7
  6
Continuous
  0
LAYER
  5
CB
100
AcDbSymbolTableRecord
100
AcDbLayerTableRecord
  2
Layer00151
 70
               0
 62
               7
  6
Continuous
  0
LAYER
  5
CC
100
AcDbSymbolTableRecord
100
AcDbLayerTableRecord
  2
Layer00152
 70
               0
 62
               7
  6
Continuous
  0
LAYER
  5
CD
100
AcDbSymbolTableRecord
100
AcDbLayerTableRecord
  2
Layer00153
 70
               0
 62
               7
  6
Continuous
  0
LAYER
  5
CE
100
AcDbSymbolTableRecord
100
AcDbLayerTableRecord
  2
Layer00154
 70
               0
 62
               7
  6
Continuous
  0
LAYER
  5
CF
100
AcDbSymbolTableRecord
100
AcDbLayerTableRecord
  2
Layer00155
 70
               0
 62
               7
  6
Continuous
  0
LAYER
  5
D0
100
AcDbSymbolTableRecord
100
AcDbLayerTableRecord
  2
Layer00156
 70
               0
 62
               7
  6
Continuous
  0
LAYER
  5
D1
100
AcDbSymbolTableRecord
100
AcDbLayerTableRecord
  2
Layer00157
 70
               0
 62
               7
  6
Continuous
  0
LAYER
  5
D2
100
AcDbSymbolTableRecord
100
AcDbLayerTableRecord
  2
Layer00158
 70
               0
 62
               7
  6
Continuous
  0
LAYER
  5
D3
100
AcDbSymbolTableRecord
100
AcDbLayerTableRecord
  2
Layer00159
 70
               0
 62
               7
  6
Continuous
  0
LAYER
  5
D4
100
AcDbSymbolTableRecord
100
AcDbLayerTableRecord
  2
Layer00160
 70
               0
 62
               7
  6
Continuous
  0
LAYER
  5
D5
100
AcDbSymbolTableRecord
100
AcDbLayerTableRecord
  2
Layer00161
 70
               0
 62
               7
  6
Continuous
  0
LAYER
  5
D6
100
AcDbSymbolTableRecord
100
AcDbLayerTableRecord
  2
Layer00162
 70
               0
 62
               7
  6
Continuous
  0
LAYER
  5
D7
100
AcDbSymbolTableRecord
100
AcDbLayerTableRecord
  2
Layer00163
 70
               0
 62
               7
  6
Continuous
  0
LAYER
  5
D8
100
AcDbSymbolTableRecord
100
AcDbLayerTableRecord
  2
Layer00164
 70
               0
 62
               7
  6
Continuous
  0
LAYER
  5
D9
100
AcDbSymbolTableRecord
100
AcDbLayerTableRecord
  2
Layer00165
 70
               0
 62
               7
  6
Continuous
  0
LAYER
  5
DA
100
AcDbSymbolTableRecord
100
AcDbLayerTableRecord
  2
Layer00166
 70
               0
 62
               7
  6
Continuous
  0
LAYER
  5
DB
100
AcDbSymbolTableRecord
100
AcDbLayerTableRecord
  2
Layer00167
 70
               0
 62
               7
  6
Continuous
  0
LAYER
  5
DC
100
AcDbSymbolTableRecord
100
AcDbLayerTableRecord
  2
Layer00168
 70
               0
 62
               7
  6
Continuous
  0
LAYER
  5
DD
100
AcDbSymbolTableRecord
100
AcDbLayerTableRecord
  2
Layer00169
 70
               0
 62
               7
  6
Continuous
  0
LAYER
  5
DE
100
AcDbSymbolTableRecord
100
AcDbLayerTableRecord
  2
Layer00170
 70
               0
 62
               7
  6
Continuous
  0
LAYER
  5
DF
100
AcDbSymbolTableRecord
100
AcDbLayerTableRecord
  2
Layer00171
 70
               0
 62
               7
  6
Continuous
  0
LAYER
  5
E0
100
AcDbSymbolTableRecord
100
AcDbLayerTableRecord
  2
Layer00172
 70
               0
 62
               7
  6
Continuous
  0
LAYER
  5
E1
100
AcDbSymbolTableRecord
100
AcDbLayerTableRecord
  2
Layer00173
 70
               0
 62
               7
  6
Continuous
  0
LAYER
  5
E2
100
AcDbSymbolTableRecord
100
AcDbLayerTableRecord
  2
Layer00174
 70
               0
 62
               7
  6
Continuous
  0
LAYER
  5
E3
100
AcDbSymbolTableRecord
100
AcDbLayerTableRecord
  2
Layer00175
 70
               0
 62
               7
  6
Continuous
  0
LAYER
  5
E4
100
AcDbSymbolTableRecord
100
AcDbLayerTableRecord
  2
Layer00176
 70
               0
 62
               7
  6
Continuous
  0
LAYER
  5
E5
100
AcDbSymbolTableRecord
100
AcDbLayerTableRecord
  2
Layer00177
 70
               0
 62
               7
  6
Continuous
  0
LAYER
  5
E6
100
AcDbSymbolTableRecord
100
AcDbLayerTableRecord
  2
Layer00178
 70
               0
 62
               7
  6
Continuous
  0
LAYER
  5
E7
100
AcDbSymbolTableRecord
100
AcDbLayerTableRecord
  2
Layer00179
 70
               0
 62
               7
  6
Continuous
  0
LAYER
  5
E8
100
AcDbSymbolTableRecord
100
AcDbLayerTableRecord
  2
Layer00180
 70
               0
 62
               7
  6
Continuous
  0
LAYER
  5
E9
100
AcDbSymbolTableRecord
100
AcDbLayerTableRecord
  2
Layer00181
 70
               0
 62
               7
  6
Continuous
  0
LAYER
  5
EA
100
AcDbSymbolTableRecord
100
AcDbLayerTableRecord
  2
Layer00182
 70
               0
 62
               7
  6
Continuous
  0
LAYER
  5
EB
100
AcDbSymbolTableRecord
100
AcDbLayerTableRecord
  2
Layer00183
 70
               0
 62
               7
  6
Continuous
  0
LAYER
  5
EC
100
AcDbSymbolTableRecord
100
AcDbLayerTableRecord
  2
Layer00184
 70
               0
 62
               7
  6
Continuous
  0
LAYER
  5
ED
100
AcDbSymbolTableRecord
100
AcDbLayerTableRecord
  2
Layer00185
 70
               0
 62
               7
  6
Continuous
  0
LAYER
  5
EE
100
AcDbSymbolTableRecord
100
AcDbLayerTableRecord
  2
Layer00186
 70
               0
 62
               7
  6
Continuous
  0
LAYER
  5
EF
100
AcDbSymbolTableRecord
100
AcDbLayerTableRecord
  2
Layer00187
 70
               0
 62
               7
  6
Continuous
  0
LAYER
  5
F0
100
AcDbSymbolTableRecord
100
AcDbLayerTableRecord
  2
Layer00188
 70
               0
 62
               7
  6
Continuous
  0
LAYER
  5
F1
100
AcDbSymbolTableRecord
100
AcDbLayerTableRecord
  2
Layer00189
 70
               0
 62
               7
  6
Continuous
  0
LAYER
  5
F2
100
AcDbSymbolTableRecord
100
AcDbLayerTableRecord
  2
Layer00190
 70
               0
 62
               7
  6
Continuous
  0
LAYER
  5
F3
100
AcDbSymbolTableRecord
100
AcDbLayerTableRecord
  2
Layer00191
 70
               0
 62
               7
  6
Continuous
  0
LAYER
  5
F4
100
AcDbSymbolTableRecord
100
AcDbLayerTableRecord
  2
Layer00192
 70
               0
 62
               7
  6
Continuous
  0
LAYER
  5
F5
100
AcDbSymbolTableRecord
100
AcDbLayerTableRecord
  2
Layer00193
 70
               0
 62
               7
  6
Continuous
  0
LAYER
  5
F6
100
AcDbSymbolTableRecord
100
AcDbLayerTableRecord
  2
Layer00194
 70
               0
 62
               7
  6
Continuous
  0
LAYER
  5
F7
100
AcDbSymbolTableRecord
100
AcDbLayerTableRecord
  2
Layer00195
 70
               0
 62
               7
  6
Continuous
  0
LAYER
  5
F8
100
AcDbSymbolTableRecord
100
AcDbLayerTableRecord
  2
Layer00196
 70
               0
 62
               7
  6
Continuous
  0
LAYER
  5
F9
100
AcDbSymbolTableRecord
100
AcDbLayerTableRecord
  2
Layer00197
 70
               0
 62
               7
  6
Continuous
  0
LAYER
  5
FA
100
AcDbSymbolTableRecord
100
AcDbLayerTableRecord
  2
Layer00198
 70
               0
 62
               7
  6
Continuous
  0
LAYER
  5
FB
100
AcDbSymbolTableRecord
100
AcDbLayerTableRecord
  2
Layer00199
 70
               0
 62
               7
  6
Continuous
  0
LAYER
  5
FC
100
AcDbSymbolTableRecord
100
AcDbLayerTableRecord
  2
Layer00200
 70
               0
 62
               7
  6
Continuous
  0
LAYER
  5
FD
100
AcDbSymbolTableRecord
100
AcDbLayerTableRecord
  2
Layer00201
 70
               0
 62
               7
  6
Continuous
  0
LAYER
  5
FE
100
AcDbSymbolTableRecord
100
AcDbLayerTableRecord
  2
Layer00202
 70
               0
 62
               7
  6
Continuous
  0
LAYER
  5
FF
100
AcDbSymbolTableRecord
100
AcDbLayerTableRecord
  2
Layer00203
 70
               0
 62
               7
  6
Continuous
  0
LAYER
  5
100
100
AcDbSymbolTableRecord
100
AcDbLayerTableRecord
  2
Layer00204
 70
               0
 62
               7
  6
Continuous
  0
LAYER
  5
101
100
AcDbSymbolTableRecord
100
AcDbLayerTableRecord
  2
Layer00205
 70
               0
 62
               7
  6
Continuous
  0
LAYER
  5
102
100
AcDbSymbolTableRecord
100
AcDbLayerTableRecord
  2
Layer00206
 70
               0
 62
               7
  6
Continuous
  0
LAYER
  5
103
100
AcDbSymbolTableRecord
100
AcDbLayerTableRecord
  2
Layer00207
 70
               0
 62
               7
  6
Continuous
  0
LAYER
  5
104
100
AcDbSymbolTableRecord
100
AcDbLayerTableRecord
  2
Layer00208
 70
               0
 62
               7
  6
Continuous
  0
LAYER
  5
105
100
AcDbSymbolTableRecord
100
AcDbLayerTableRecord
  2
Layer00209
 70
               0
 62
               7
  6
Continuous
  0
LAYER
  5
106
100
AcDbSymbolTableRecord
100
AcDbLayerTableRecord
  2
Layer00210
 70
               0
 62
               7
  6
Continuous
  0
LAYER
  5
107
100
AcDbSymbolTableRecord
100
AcDbLayerTableRecord
  2
Layer00211
 70
               0
 62
               7
  6
Continuous
  0
LAYER
  5
108
100
AcDbSymbolTableRecord
100
AcDbLayerTableRecord
  2
Layer00212
 70
               0
 62
               7
  6
Continuous
  0
LAYER
  5
109
100
AcDbSymbolTableRecord
100
AcDbLayerTableRecord
  2
Layer00213
 70
               0
 62
               7
  6
Continuous
  0
LAYER
  5
10A
100
AcDbSymbolTableRecord
100
AcDbLayerTableRecord
  2
Layer00214
 70
               0
 62
               7
  6
Continuous
  0
LAYER
  5
10B
100
AcDbSymbolTableRecord
100
AcDbLayerTableRecord
  2
Layer00215
 70
               0
 62
               7
  6
Continuous
  0
LAYER
  5
10C
100
AcDbSymbolTableRecord
100
AcDbLayerTableRecord
  2
Layer00216
 70
               0
 62
               7
  6
Continuous
  0
LAYER
  5
10D
100
AcDbSymbolTableRecord
100
AcDbLayerTableRecord
  2
Layer00217
 70
               0
 62
               7
  6
Continuous
  0
LAYER
  5
10E
100
AcDbSymbolTableRecord
100
AcDbLayerTableRecord
  2
Layer00218
 70
               0
 62
               7
  6
Continuous
  0
LAYER
  5
10F
100
AcDbSymbolTableRecord
100
AcDbLayerTableRecord
  2
Layer00219
 70
               0
 62
               7
  6
Continuous
  0
LAYER
  5
110
100
AcDbSymbolTableRecord
100
AcDbLayerTableRecord
  2
Layer00220
 70
               0
 62
               7
  6
Continuous
  0
LAYER
  5
111
100
AcDbSymbolTableRecord
100
AcDbLayerTableRecord
  2
Layer00221
 70
               0
 62
               7
  6
Continuous
  0
LAYER
  5
112
100
AcDbSymbolTableRecord
100
AcDbLayerTableRecord
  2
Layer00222
 70
               0
 62
               7
  6
Continuous
  0
LAYER
  5
113
100
AcDbSymbolTableRecord
100
AcDbLayerTableRecord
  2
Layer00223
 70
               0
 62
               7
  6
Continuous
  0
LAYER
  5
114
100
AcDbSymbolTableRecord
100
AcDbLayerTableRecord
  2
Layer00224
 70
               0
 62
               7
  6
Continuous
  0
LAYER
  5
115
100
AcDbSymbolTableRecord
100
AcDbLayerTableRecord
  2
Layer00225
 70
               0
 62
               7
  6
Continuous
  0
LAYER
  5
116
100
AcDbSymbolTableRecord
100
AcDbLayerTableRecord
  2
Layer00226
 70
               0
 62
               7
  6
Continuous
  0
LAYER
  5
117
100
AcDbSymbolTableRecord
100
AcDbLayerTableRecord
  2
Layer00227
 70
               0
 62
               7
  6
Continuous
  0
LAYER
  5
118
100
AcDbSymbolTableRecord
100
AcDbLayerTableRecord
  2
Layer00228
 70
               0
 62
               7
  6
Continuous
  0
LAYER
  5
119
100
AcDbSymbolTableRecord
100
AcDbLayerTableRecord
  2
Layer00229
 70
               0
 62
               7
  6
Continuous
  0
LAYER
  5
11A
100
AcDbSymbolTableRecord
100
AcDbLayerTableRecord
  2
Layer00230
 70
               0
 62
               7
  6
Continuous
  0
LAYER
  5
11B
100
AcDbSymbolTableRecord
100
AcDbLayerTableRecord
  2
Layer00231
 70
               0
 62
               7
  6
Continuous
  0
LAYER
  5
11C
100
AcDbSymbolTableRecord
100
AcDbLayerTableRecord
  2
Layer00232
 70
               0
 62
               7
  6
Continuous
  0
LAYER
  5
11D
100
AcDbSymbolTableRecord
100
AcDbLayerTableRecord
  2
Layer00233
 70
               0
 62
               7
  6
Continuous
  0
LAYER
  5
11E
100
AcDbSymbolTableRecord
100
AcDbLayerTableRecord
  2
Layer00234
 70
               0
 62
               7
  6
Continuous
  0
LAYER
  5
11F
100
AcDbSymbolTableRecord
100
AcDbLayerTableRecord
  2
Layer00235
 70
               0
 62
               7
  6
Continuous
  0
LAYER
  5
120
100
AcDbSymbolTableRecord
100
AcDbLayerTableRecord
  2
Layer00236
 70
               0
 62
               7
  6
Continuous
  0
LAYER
  5
121
100
AcDbSymbolTableRecord
100
AcDbLayerTableRecord
  2
Layer00237
 70
               0
 62
               7
  6
Continuous
  0
LAYER
  5
122
100
AcDbSymbolTableRecord
100
AcDbLayerTableRecord
  2
Layer00238
 70
               0
 62
               7
  6
Continuous
  0
LAYER
  5
123
100
AcDbSymbolTableRecord
100
AcDbLayerTableRecord
  2
Layer00239
 70
               0
 62
               7
  6
Continuous
  0
LAYER
  5
124
100
AcDbSymbolTableRecord
100
AcDbLayerTableRecord
  2
Layer00240
 70
               0
 62
               7
  6
Continuous
  0
LAYER
  5
125
100
AcDbSymbolTableRecord
100
AcDbLayerTableRecord
  2
Layer00241
 70
               0
 62
               7
  6
Continuous
  0
LAYER
  5
126
100
AcDbSymbolTableRecord
100
AcDbLayerTableRecord
  2
Layer00242
 70
               0
 62
               7
  6
Continuous
  0
LAYER
  5
127
100
AcDbSymbolTableRecord
100
AcDbLayerTableRecord
  2
Layer00243
 70
               0
 62
               7
  6
Continuous
  0
LAYER
  5
128
100
AcDbSymbolTableRecord
100
AcDbLayerTableRecord
  2
Layer00244
 70
               0
 62
               7
  6
Continuous
  0
LAYER
  5
129
100
AcDbSymbolTableRecord
100
AcDbLayerTableRecord
  2
Layer00245
 70
               0
 62
               7
  6
Continuous
  0
LAYER
  5
12A
100
AcDbSymbolTableRecord
100
AcDbLayerTableRecord
  2
Layer00246
 70
               0
 62
               7
  6
Continuous
  0
LAYER
  5
12B
100
AcDbSymbolTableRecord
100
AcDbLayerTableRecord
  2
Layer00247
 70
               0
 62
               7
  6
Continuous
  0
LAYER
  5
12C
100
AcDbSymbolTableRecord
100
AcDbLayerTableRecord
  2
Layer00248
 70
               0
 62
               7
  6
Continuous
  0
LAYER
  5
12D
100
AcDbSymbolTableRecord
100
AcDbLayerTableRecord
  2
Layer00249
 70
               0
 62
               7
  6
Continuous
  0
LAYER
  5
12E
100
AcDbSymbolTableRecord
100
AcDbLayerTableRecord
  2
Layer00250
 70
               0
 62
               7
  6
Continuous
  0
LAYER
  5
12F
100
AcDbSymbolTableRecord
100
AcDbLayerTableRecord
  2
Layer00251
 70
               0
 62
               7
  6
Continuous
  0
LAYER
  5
130
100
AcDbSymbolTableRecord
100
AcDbLayerTableRecord
  2
Layer00252
 70
               0
 62
               7
  6
Continuous
  0
LAYER
  5
131
100
AcDbSymbolTableRecord
100
AcDbLayerTableRecord
  2
Layer00253
 70
               0
 62
               7
  6
Continuous
  0
LAYER
  5
132
100
AcDbSymbolTableRecord
100
AcDbLayerTableRecord
  2
Layer00254
 70
               0
 62
               7
  6
Continuous
  0
LAYER
  5
133
100
AcDbSymbolTableRecord
100
AcDbLayerTableRecord
  2
Layer00255
 70
               0
 62
               7
  6
Continuous
  0
ENDTAB
  0
TABLE
  2
STYLE
  5
3
100
AcDbSymbolTable
 70
               4
  0
STYLE
  5
17
100
AcDbSymbolTableRecord
100
AcDbTextStyleTableRecord
  2
Standard
 70
               0
 40
0.0
 41
1.0
 50
0.0
 71
               0
 42
0.0
  3
txt.shx
  4
bigfont.shx
  0
STYLE
  5
32
100
AcDbSymbolTableRecord
100
AcDbTextStyleTableRecord
  2
STANDARD_T
 70
               4
 40
0.0
 41
1.0
 50
0.0
 71
               0
 42
0.0
  3
txt.shx
  4
bigfont.shx
  0
STYLE
  5
33
100
AcDbSymbolTableRecord
100
AcDbTextStyleTableRecord
  2
FontTableH_0
 70
               0
 40
0.0
 41
1.0
 50
0.0
 71
               0
 42
0.0
  3
MS Gothic.ttf
  4

1001
ACAD
1000
MS Gothic
1071
    32817
  0
STYLE
  5
34
100
AcDbSymbolTableRecord
100
AcDbTextStyleTableRecord
  2
FontTableV_0
 70
               0
 40
0.0
 41
1.0
 50
0.0
 71
               0
 42
0.0
  3
@MS Gothic.ttf
  4

1001
ACAD
1000
@MS Gothic
1071
    32817
  0
ENDTAB
  0
TABLE
  2
VIEW
  5
5
100
AcDbSymbolTable
 70
               0
  0
ENDTAB
  0
TABLE
  2
UCS
  5
6
100
AcDbSymbolTable
 70
               0
  0
ENDTAB
  0
TABLE
  2
APPID
  5
8
100
AcDbSymbolTable
 70
               1
  0
APPID
  5
16
100
AcDbSymbolTableRecord
100
AcDbRegAppTableRecord
  2
ACAD
 70
               0
  0
ENDTAB
  0
TABLE
  2
DIMSTYLE
  5
9
100
AcDbSymbolTable
 70
               1
  0
DIMSTYLE
105
18
100
AcDbSymbolTableRecord
100
AcDbDimStyleTableRecord
  2
Standard
 70
               0
  3

  4

  5

  6

  7

 40
1.0
 41
0.18
 42
0.0625
 43
0.38
 44
0.18
 45
0.0
 46
0.0
 47
0.0
 48
0.0
 71
               0
 72
               0
 73
               1
 74
               1
 75
               0
 76
               0
 77
               0
 78
               0
140
0.18
141
0.09
142
0.0
143
25.399999999999999
144
1.0
145
0.0
146
1.0
147
0.09
170
               0
171
               2
172
               0
173
               0
174
               0
175
               0
176
               0
177
               0
178
               0
270
               2
271
               4
272
               4
273
               2
274
               2
275
               0
280
               0
281
               0
282
               0
283
               1
284
               0
285
               0
286
               0
287
               0
288
               0
340
17
  0
ENDTAB
  0
TABLE
  2
BLOCK_RECORD
  5
1
100
AcDbSymbolTable
 70
               0
  0
BLOCK_RECORD
  5
A
100
AcDbSymbolTableRecord
100
AcDbBlockTableRecord
  2
*MODEL_SPACE
  0
BLOCK_RECORD
  5
B
100
AcDbSymbolTableRecord
100
AcDbBlockTableRecord
  2
*PAPER_SPACE
  0
ENDTAB
  0
ENDSEC
  0
SECTION
  2
BLOCKS
  0
BLOCK
  5
D
100
AcDbEntity
  8
0
100
AcDbBlockBegin
  2
*MODEL_SPACE
 70
               0
 10
0.0
 20
0.0
 30
0.0
  3
*MODEL_SPACE
  1

  0
ENDBLK
  5
E
100
AcDbEntity
  8
0
100
AcDbBlockEnd
  0
BLOCK
  5
F
100
AcDbEntity
 67
               1
  8
0
100
AcDbBlockBegin
  2
*PAPER_SPACE
 70
               0
 10
0.0
 20
0.0
 30
0.0
  3
*PAPER_SPACE
  1

  0
ENDBLK
  5
10
100
AcDbEntity
 67
               1
  8
0
100
AcDbBlockEnd
  0
ENDSEC
  0
SECTION
  2
ENTITIES
  0
LINE
  5
134
100
AcDbEntity
  8
0
  6
Continuous
 62
               4
100
AcDbLine
 10
549.87059208527103
 20
597.65647728621991
 30
0.0
 11
596.83177410783082
 21
678.99563053278359
 31
0.0
  0
LINE
  5
135
100
AcDbEntity
  8
0
  6
Continuous
 62
               4
100
AcDbLine
 10
596.83177410783082
 20
678.99563053278359
 30
0.0
 11
638.16492843125673
 21
678.99563053278359
 31
0.0
  0
LINE
  5
136
100
AcDbEntity
  8
0
  6
Continuous
 62
               4
100
AcDbLine
 10
549.87059208527103
 20
597.65647728621991
 30
0.0
 11
555.00089423515601
 21
611.75186659800841
 31
0.0
  0
LINE
  5
137
100
AcDbEntity
  8
0
  6
Continuous
 62
               4
100
AcDbLine
 10
549.87059208527103
 20
597.65647728621991
 30
0.0
 11
559.51240623056913
 21
609.1471439330046
 31
0.0
  0
LINE
  5
138
100
AcDbEntity
  8
0
  6
Continuous
 62
               4
100
AcDbLine
 10
624.99332324204454
 20
435.18654545539391
 30
0.0
 11
608.16511812245369
 21
497.9902619618972
 31
0.0
  0
LINE
  5
139
100
AcDbEntity
  8
0
  6
Continuous
 62
               4
100
AcDbLine
 10
608.16511812245369
 20
497.9902619618972
 30
0.0
 11
585.86577023660811
 21
497.99026196189857
 31
0.0
  0
LINE
  5
13A
100
AcDbEntity
  8
0
  6
Continuous
 62
               4
100
AcDbLine
 10
624.99332324204454
 20
435.18654545539391
 30
0.0
 11
618.65404931593412
 21
448.78116226094369
 31
0.0
  0
LINE
  5
13B
100
AcDbEntity
  8
0
  6
Continuous
 62
               4
100
AcDbLine
 10
624.99332324204454
 20
435.18654545539391
 30
0.0
 11
623.68598710082961
 21
450.12946592677008
 31
0.0
  0
LINE
  5
13C
100
AcDbEntity
  8
0
  6
Continuous
 62
               4
100
AcDbLine
 10
668.80742473018665
 20
483.71950927780324
 30
0.0
 11
653.54125345507464
 21
540.69363611356891
 31
0.0
  0
LINE
  5
13D
100
AcDbEntity
  8
0
  6
Continuous
 62
               4
100
AcDbLine
 10
653.54125345507464
 20
540.69363611356891
 30
0.0
 11
591.23810527275953
 21
540.69363611357278
 31
0.0
  0
LINE
  5
13E
100
AcDbEntity
  8
0
  6
Continuous
 62
               4
100
AcDbLine
 10
668.80742473018665
 20
483.71950927780324
 30
0.0
 11
662.46815080407612
 21
497.3141260833529
 31
0.0
  0
LINE
  5
13F
100
AcDbEntity
  8
0
  6
Continuous
 62
               4
100
AcDbLine
 10
668.80742473018665
 20
483.71950927780324
 30
0.0
 11
667.50008858897172
 21
498.66242974917941
 31
0.0
  0
LINE
  5
140
100
AcDbEntity
  8
0
  6
Continuous
 62
               4
100
AcDbLine
 10
548.12059208527103
 20
425.18654545539403
 30
0.0
 11
548.12059208527103
 21
265.18654545539397
 31
0.0
  0
LINE
  5
141
100
AcDbEntity
  8
0
  6
Continuous
 62
               4
100
AcDbLine
 10
848.12059208527126
 20
425.18654545539391
 30
0.0
 11
848.12059208527126
 21
265.18654545539397
 31
0.0
  0
LINE
  5
142
100
AcDbEntity
  8
0
  6
Continuous
 62
               4
100
AcDbLine
 10
548.12059208527103
 20
270.18654545539397
 30
0.0
 11
848.12059208527126
 21
270.18654545539397
 31
0.0
  0
LINE
  5
143
100
AcDbEntity
  8
0
  6
Continuous
 62
               4
100
AcDbLine
 10
977.04402232156724
 20
476.15631941104891
 30
0.0
 11
1042.6497724047631
 21
362.52382699828718
 31
0.0
  0
LINE
  5
144
100
AcDbEntity
  8
0
  6
Continuous
 62
               4
100
AcDbLine
 10
1042.6497724047631
 20
362.52382699828718
 30
0.0
 11
1104.2603194411363
 21
362.52382699828718
 31
0.0
  0
LINE
  5
145
100
AcDbEntity
  8
0
  6
Continuous
 62
               4
100
AcDbLine
 10
977.04402232156724
 20
476.15631941104891
 30
0.0
 11
986.68583646686523
 21
464.66565276426422
 31
0.0
  0
LINE
  5
146
100
AcDbEntity
  8
0
  6
Continuous
 62
               4
100
AcDbLine
 10
977.04402232156724
 20
476.15631941104891
 30
0.0
 11
982.17432447145222
 21
462.06093009926042
 31
0.0
  0
LINE
  5
147
100
AcDbEntity
  8
0
  6
Continuous
 62
               4
100
AcDbLine
 10
514.26333242066983
 20
761.12945156945534
 30
0.0
 11
545.98394900036465
 21
816.07117113289848
 31
0.0
  0
LINE
  5
148
100
AcDbEntity
  8
0
  6
Continuous
 62
               4
100
AcDbLine
 10
545.98394900036465
 20
816.07117113289848
 30
0.0
 11
729.8837668396219
 21
816.07117113289848
 31
0.0
  0
LINE
  5
149
100
AcDbEntity
  8
0
  6
Continuous
 62
               4
100
AcDbLine
 10
514.26333242066983
 20
761.12945156945534
 30
0.0
 11
519.39363457055492
 21
775.22484088124384
 31
0.0
  0
LINE
  5
14A
100
AcDbEntity
  8
0
  6
Continuous
 62
               4
100
AcDbLine
 10
514.26333242066983
 20
761.12945156945534
 30
0.0
 11
523.90514656596793
 21
772.62011821624003
 31
0.0
  0
LINE
  5
14B
100
AcDbEntity
  8
0
  6
Continuous
 62
               4
100
AcDbLine
 10
833.0107577422707
 20
511.42813221368363
 30
0.0
 11
778.0107577422707
 21
511.42813221368363
 31
0.0
  0
LINE
  5
14C
100
AcDbEntity
  8
0
  6
Continuous
 62
               4
100
AcDbLine
 10
833.01075774227058
 20
461.42813221368363
 30
0.0
 11
778.0107577422707
 21
461.42813221368363
 31
0.0
  0
LINE
  5
14D
100
AcDbEntity
  8
0
  6
Continuous
 62
               4
100
AcDbLine
 10
783.0107577422707
 20
511.42813221368363
 30
0.0
 11
783.0107577422707
 21
461.42813221368363
 31
0.0
  0
LINE
  5
14E
100
AcDbEntity
  8
0
  6
Continuous
 62
               4
100
AcDbLine
 10
821.07316261881863
 20
554.18596828146883
 30
0.0
 11
819.82472219522117
 21
579.15477675341469
 31
0.0
  0
LINE
  5
14F
100
AcDbEntity
  8
0
  6
Continuous
 62
               4
100
AcDbLine
 10
842.51138157283174
 20
521.41565560246215
 30
0.0
 11
839.57504969653098
 21
580.14229312848022
 31
0.0
  0
LINE
  5
150
100
AcDbEntity
  8
0
  6
Continuous
 62
               4
100
AcDbLine
 10
820.07441027994071
 20
574.16101505902554
 30
0.0
 11
839.82473778125041
 21
575.14853143409107
 31
0.0
  0
LINE
  5
151
100
AcDbEntity
  8
0
  6
Continuous
 62
               4
100
AcDbLine
 10
942.29672151570583
 20
527.9067964291944
 30
0.0
 11
939.43529606482082
 21
585.13530544689468
 31
0.0
  0
LINE
  5
152
100
AcDbEntity
  8
0
  6
Continuous
 62
               4
100
AcDbLine
 10
839.82473778125041
 20
575.14853143409107
 30
0.0
 11
939.68498414954024
 21
580.14154375250553
 31
0.0
  0
LINE
  5
153
100
AcDbEntity
  8
0
  6
Continuous
 62
               4
100
AcDbLine
 10
843.0107577422707
 20
486.42813221368363
 30
0.0
 11
784.9265800006541
 21
587.03287917802481
 31
0.0
  0
LINE
  5
154
100
AcDbEntity
  8
0
  6
Continuous
 62
               4
100
AcDbLine
 10
784.9265800006541
 20
587.03287917802481
 30
0.0
 11
703.01590008051994
 21
587.03287917801867
 31
0.0
  0
LINE
  5
155
100
AcDbEntity
  8
0
  6
Continuous
 62
               4
100
AcDbLine
 10
843.0107577422707
 20
486.42813221368363
 30
0.0
 11
833.3689435969726
 21
497.91879886046843
 31
0.0
  0
LINE
  5
156
100
AcDbEntity
  8
0
  6
Continuous
 62
               4
100
AcDbLine
 10
843.0107577422707
 20
486.42813221368363
 30
0.0
 11
837.8804555923856
 21
500.52352152547223
 31
0.0
  0
LINE
  5
157
100
AcDbEntity
  8
0
  6
Continuous
 62
               4
100
AcDbLine
 10
1172.3336430699214
 20
561.73650010677261
 30
0.0
 11
1197.3024515418672
 21
562.98494053036973
 31
0.0
  0
LINE
  5
158
100
AcDbEntity
  8
0
  6
Continuous
 62
               4
100
AcDbLine
 10
1173.8317715782382
 20
531.77392994043726
 30
0.0
 11
1198.800580050184
 21
533.02237036403437
 31
0.0
  0
LINE
  5
159
100
AcDbEntity
  8
0
  6
Continuous
 62
               4
100
AcDbLine
 10
1192.308689847478
 20
562.7352524456503
 30
0.0
 11
1193.8068183557948
 21
532.77268227931495
 31
0.0
  0
LINE
  5
15A
100
AcDbEntity
  8
0
  6
Continuous
 62
               4
100
AcDbLine
 10
1105.5506000383409
 20
553.91868315231034
 30
0.0
 11
1050.0772897743514
 21
650.00127499357245
 31
0.0
  0
LINE
  5
15B
100
AcDbEntity
  8
0
  6
Continuous
 62
               4
100
AcDbLine
 10
1050.0772897743514
 20
650.00127499357245
 30
0.0
 11
757.13238419885363
 21
650.00127499355835
 31
0.0
  0
LINE
  5
15C
100
AcDbEntity
  8
0
  6
Continuous
 62
               4
100
AcDbLine
 10
1105.5506000383409
 20
553.91868315231034
 30
0.0
 11
1095.9087858930429
 21
565.40934979909503
 31
0.0
  0
LINE
  5
15D
100
AcDbEntity
  8
0
  6
Continuous
 62
               4
100
AcDbLine
 10
1105.5506000383409
 20
553.91868315231034
 30
0.0
 11
1100.4202978884559
 21
568.01407246409894
 31
0.0
  0
LINE
  5
15E
100
AcDbEntity
  8
0
  6
Continuous
 62
               4
100
AcDbLine
 10
1174.0814312486814
 20
526.78015272252981
 30
0.0
 11
1199.0502397206274
 21
528.02859314612692
 31
0.0
  0
LINE
  5
15F
100
AcDbEntity
  8
0
  6
Continuous
 62
               4
100
AcDbLine
 10
1177.8267525194733
 20
451.87372730669153
 30
0.0
 11
1202.7955609914191
 21
453.12216773028877
 31
0.0
  0
LINE
  5
160
100
AcDbEntity
  8
0
  6
Continuous
 62
               4
100
AcDbLine
 10
1194.0564780262382
 20
527.7789050614075
 30
0.0
 11
1197.8017992970299
 21
452.87247964556923
 31
0.0
  0
LINE
  5
161
100
AcDbEntity
  8
0
  6
Continuous
 62
               7
100
AcDbLine
 10
546.62059208527103
 20
433.88654545539396
 30
0.0
 11
596.62059208527103
 21
433.88654545539396
 31
0.0
  0
LINE
  5
162
100
AcDbEntity
  8
0
  6
Continuous
 62
               4
100
AcDbLine
 10
548.12059208527103
 20
585.18654545539414
 30
0.0
 11
548.12059208527103
 21
435.18654545539391
 31
0.0
  0
LINE
  5
163
100
AcDbEntity
  8
0
  6
Continuous
 62
               4
100
AcDbLine
 10
907.72488089117257
 20
438.3686337252766
 30
0.0
 11
1167.8392291306948
 21
451.37435113725257
 31
0.0
  0
LINE
  5
164
100
AcDbEntity
  8
0
  6
Continuous
 62
               7
100
AcDbLine
 10
596.62059208527103
 20
433.88654545539396
 30
0.0
 11
596.62059208527103
 21
329.74216933793514
 31
0.0
  0
LINE
  5
165
100
AcDbEntity
  8
0
  6
Continuous
 62
               7
100
AcDbLine
 10
796.62059208527103
 20
429.30904701594386
 30
0.0
 11
796.62059208527103
 21
329.74216933793514
 31
0.0
  0
LINE
  5
166
100
AcDbEntity
  8
0
  6
Continuous
 62
               7
100
AcDbLine
 10
640.12059208527114
 20
441.55757688760764
 30
0.0
 11
640.12059208527114
 21
464.96391138929891
 31
0.0
  0
LINE
  5
167
100
AcDbEntity
  8
0
  6
Continuous
 62
               7
100
AcDbLine
 10
643.12059208527114
 20
442.37887618187483
 30
0.0
 11
643.12059208527114
 21
463.74414733872698
 31
0.0
  0
LINE
  5
168
100
AcDbEntity
  8
0
  6
Continuous
 62
               7
100
AcDbLine
 10
646.92595688381118
 20
437.74525165702289
 30
0.0
 11
642.53750254250599
 21
438.61478797483835
 31
0.0
  0
LINE
  5
169
100
AcDbEntity
  8
0
  6
Continuous
 62
               7
100
AcDbLine
 10
643.92622890434939
 20
441.39794654428511
 30
0.0
 11
647.91186483611557
 21
440.60822539813091
 31
0.0
  0
LINE
  5
16A
100
AcDbEntity
  8
0
  6
Continuous
 62
               7
100
AcDbLine
 10
650.32877529335042
 20
437.66543648536162
 30
0.0
 11
650.32877529335042
 21
437.18654545539391
 31
0.0
  0
LINE
  5
16B
100
AcDbEntity
  8
0
  6
Continuous
 62
               7
100
AcDbLine
 10
647.3287752933503
 20
437.25478683822791
 30
0.0
 11
647.3287752933503
 21
437.18654545539391
 31
0.0
  0
LINE
  5
16C
100
AcDbEntity
  8
0
  6
Continuous
 62
               7
100
AcDbLine
 10
759.12059208527137
 20
433.18654545539391
 30
0.0
 11
637.12059208527114
 21
433.18654545539391
 31
0.0
  0
LINE
  5
16D
100
AcDbEntity
  8
0
  6
Continuous
 62
               7
100
AcDbLine
 10
757.62059208527137
 20
425.18654545539391
 30
0.0
 11
638.62059208527114
 21
425.18654545539391
 31
0.0
  0
LINE
  5
16E
100
AcDbEntity
  8
0
  6
Continuous
 62
               7
100
AcDbLine
 10
751.22059208527139
 20
386.1865454553938
 30
0.0
 11
645.02059208527123
 21
386.1865454553938
 31
0.0
  0
LINE
  5
16F
100
AcDbEntity
  8
0
  6
Continuous
 62
               7
100
AcDbLine
 10
759.12059208527137
 20
437.18654545539391
 30
0.0
 11
759.12059208527137
 21
435.48654545539387
 31
0.0
  0
LINE
  5
170
100
AcDbEntity
  8
0
  6
Continuous
 62
               7
100
AcDbLine
 10
637.12059208527114
 20
437.18654545539391
 30
0.0
 11
637.12059208527114
 21
435.48654545539387
 31
0.0
  0
LINE
  5
171
100
AcDbEntity
  8
0
  6
DIVIDE
 62
               7
100
AcDbLine
 10
646.12059208527114
 20
391.1865454553938
 30
0.0
 11
646.12059208527114
 21
433.18654545539391
 31
0.0
  0
LINE
  5
172
100
AcDbEntity
  8
0
  6
Continuous
 62
               7
100
AcDbLine
 10
638.62059208527114
 20
425.18654545539391
 30
0.0
 11
638.62059208527114
 21
433.18654545539391
 31
0.0
  0
LINE
  5
173
100
AcDbEntity
  8
0
  6
Continuous
 62
               7
100
AcDbLine
 10
645.02059208527123
 20
386.1865454553938
 30
0.0
 11
645.02059208527123
 21
425.18654545539391
 31
0.0
  0
LINE
  5
174
100
AcDbEntity
  8
0
  6
DIVIDE
 62
               7
100
AcDbLine
 10
750.12059208527126
 20
391.1865454553938
 30
0.0
 11
646.12059208527114
 21
391.1865454553938
 31
0.0
  0
LINE
  5
175
100
AcDbEntity
  8
0
  6
Continuous
 62
               7
100
AcDbLine
 10
756.12059208527137
 20
441.55757688760764
 30
0.0
 11
756.12059208527137
 21
464.96391138929914
 31
0.0
  0
LINE
  5
176
100
AcDbEntity
  8
0
  6
Continuous
 62
               7
100
AcDbLine
 10
753.12059208527137
 20
442.37887618187483
 30
0.0
 11
753.12059208527137
 21
463.7441473387272
 31
0.0
  0
LINE
  5
177
100
AcDbEntity
  8
0
  6
Continuous
 62
               7
100
AcDbLine
 10
749.31522728673121
 20
437.74525165702289
 30
0.0
 11
753.70368162803652
 21
438.61478797483835
 31
0.0
  0
LINE
  5
178
100
AcDbEntity
  8
0
  6
Continuous
 62
               7
100
AcDbLine
 10
752.31495526619312
 20
441.39794654428511
 30
0.0
 11
748.32931933442683
 21
440.60822539813091
 31
0.0
  0
LINE
  5
179
100
AcDbEntity
  8
0
  6
Continuous
 62
               7
100
AcDbLine
 10
745.91240887719198
 20
437.66543648536162
 30
0.0
 11
745.91240887719198
 21
437.18654545539391
 31
0.0
  0
LINE
  5
17A
100
AcDbEntity
  8
0
  6
Continuous
 62
               7
100
AcDbLine
 10
748.91240887719209
 20
437.25478683822791
 30
0.0
 11
748.91240887719209
 21
437.18654545539391
 31
0.0
  0
LINE
  5
17B
100
AcDbEntity
  8
0
  6
DIVIDE
 62
               7
100
AcDbLine
 10
750.12059208527126
 20
391.1865454553938
 30
0.0
 11
750.12059208527126
 21
433.18654545539391
 31
0.0
  0
LINE
  5
17C
100
AcDbEntity
  8
0
  6
Continuous
 62
               7
100
AcDbLine
 10
757.62059208527137
 20
425.18654545539391
 30
0.0
 11
757.62059208527137
 21
433.18654545539391
 31
0.0
  0
LINE
  5
17D
100
AcDbEntity
  8
0
  6
Continuous
 62
               7
100
AcDbLine
 10
751.22059208527139
 20
386.1865454553938
 30
0.0
 11
751.22059208527139
 21
425.18654545539391
 31
0.0
  0
LINE
  5
17E
100
AcDbEntity
  8
0
  6
Continuous
 62
               7
100
AcDbLine
 10
668.12059208527114
 20
439.18654545539403
 30
0.0
 11
668.12059208527114
 21
464.96391138929823
 31
0.0
  0
LINE
  5
17F
100
AcDbEntity
  8
0
  6
Continuous
 62
               7
100
AcDbLine
 10
671.12059208527114
 20
440.18654545539403
 30
0.0
 11
671.12059208527114
 21
464.4823118839671
 31
0.0
  0
LINE
  5
180
100
AcDbEntity
  8
0
  6
Continuous
 62
               7
100
AcDbLine
 10
676.00923816941156
 20
438.63643207068708
 30
0.0
 11
671.12059208527114
 21
440.18654545539403
 31
0.0
  0
LINE
  5
181
100
AcDbEntity
  8
0
  6
Continuous
 62
               7
100
AcDbLine
 10
676.70698458702725
 20
437.68320451551688
 30
0.0
 11
676.70698458702725
 21
437.18654545539391
 31
0.0
  0
LINE
  5
182
100
AcDbEntity
  8
0
  6
Continuous
 62
               7
100
AcDbLine
 10
637.12059208527114
 20
437.18654545539391
 30
0.0
 11
759.12059208527137
 21
437.18654545539391
 31
0.0
  0
LINE
  5
183
100
AcDbEntity
  8
0
  6
Continuous
 62
               7
100
AcDbLine
 10
728.12059208527126
 20
439.18654545539403
 30
0.0
 11
728.12059208527126
 21
464.96391138929891
 31
0.0
  0
LINE
  5
184
100
AcDbEntity
  8
0
  6
Continuous
 62
               7
100
AcDbLine
 10
725.12059208527126
 20
440.18654545539403
 30
0.0
 11
725.12059208527126
 21
464.48231188396778
 31
0.0
  0
LINE
  5
185
100
AcDbEntity
  8
0
  6
Continuous
 62
               7
100
AcDbLine
 10
720.23194600113084
 20
438.63643207068708
 30
0.0
 11
725.12059208527126
 21
440.18654545539403
 31
0.0
  0
LINE
  5
186
100
AcDbEntity
  8
0
  6
Continuous
 62
               7
100
AcDbLine
 10
719.53419958351515
 20
437.68320451551688
 30
0.0
 11
719.53419958351515
 21
437.18654545539391
 31
0.0
  0
LINE
  5
187
100
AcDbEntity
  8
0
  6
Continuous
 62
               7
100
AcDbLine
 10
691.12059208527114
 20
484.18654545539425
 30
0.0
 11
691.12059208527114
 21
484.3567134986348
 31
0.0
  0
LINE
  5
188
100
AcDbEntity
  8
0
  6
Continuous
 62
               7
100
AcDbLine
 10
705.12059208527148
 20
488.18654545539425
 30
0.0
 11
705.12059208527148
 21
487.50176655279768
 31
0.0
  0
LINE
  5
189
100
AcDbEntity
  8
0
  6
Continuous
 62
               7
100
AcDbLine
 10
703.12059208527137
 20
490.18654545539425
 30
0.0
 11
693.12059208527114
 21
490.18654545539425
 31
0.0
  0
LINE
  5
18A
100
AcDbEntity
  8
0
  6
Continuous
 62
               7
100
AcDbLine
 10
693.4483621482691
 20
487.18654545539425
 30
0.0
 11
702.12059208527137
 21
487.18654545539425
 31
0.0
  0
LINE
  5
18B
100
AcDbEntity
  8
0
  6
Continuous
 62
               7
100
AcDbLine
 10
702.12059208527137
 20
485.18762378979397
 30
0.0
 11
702.12059208527137
 21
487.18654545539425
 31
0.0
  0
LINE
  5
18C
100
AcDbEntity
  8
0
  6
Continuous
 62
               7
100
AcDbLine
 10
694.12059208527114
 20
485.69087615377498
 30
0.0
 11
694.12059208527114
 21
485.18762378979397
 31
0.0
  0
LINE
  5
18D
100
AcDbEntity
  8
0
  6
Continuous
 62
               7
100
AcDbLine
 10
694.12059208527114
 20
485.18654545539425
 30
0.0
 11
702.12059208527137
 21
485.18654545539425
 31
0.0
  0
LINE
  5
18E
100
AcDbEntity
  8
0
  6
Continuous
 62
               7
100
AcDbLine
 10
693.12059208527114
 20
482.18654545539425
 30
0.0
 11
704.04129877476998
 21
482.18654545539425
 31
0.0
  0
LINE
  5
18F
100
AcDbEntity
  8
0
  6
Continuous
 62
               7
100
AcDbLine
 10
691.12059208527114
 20
488.18654545539425
 30
0.0
 11
691.12059208527114
 21
487.50176655279768
 31
0.0
  0
LINE
  5
190
100
AcDbEntity
  8
0
  6
Continuous
 62
               7
100
AcDbLine
 10
704.04129877476998
 20
484.69247800984647
 30
0.0
 11
704.04129877476998
 21
482.18654545539425
 31
0.0
  0
LINE
  5
191
100
AcDbEntity
  8
0
  6
Continuous
 62
               7
100
AcDbLine
 10
691.63316733273223
 20
487.63057126141746
 30
0.0
 11
691.12059208527114
 21
487.50176655279768
 31
0.0
  0
LINE
  5
192
100
AcDbEntity
  8
0
  6
Continuous
 62
               7
100
AcDbLine
 10
753.12059208527137
 20
457.18654545539403
 30
0.0
 11
728.12059208527126
 21
457.18654545539403
 31
0.0
  0
LINE
  5
193
100
AcDbEntity
  8
0
  6
Continuous
 62
               7
100
AcDbLine
 10
753.12059208527137
 20
460.18654545539425
 30
0.0
 11
728.12059208527126
 21
460.18654545539425
 31
0.0
  0
LINE
  5
194
100
AcDbEntity
  8
0
  6
Continuous
 62
               7
100
AcDbLine
 10
668.12059208527114
 20
460.18654545539425
 30
0.0
 11
643.12059208527114
 21
460.18654545539425
 31
0.0
  0
LINE
  5
195
100
AcDbEntity
  8
0
  6
Continuous
 62
               7
100
AcDbLine
 10
668.12059208527114
 20
457.18654545539403
 30
0.0
 11
643.12059208527114
 21
457.18654545539403
 31
0.0
  0
LINE
  5
196
100
AcDbEntity
  8
0
  6
Continuous
 62
               7
100
AcDbLine
 10
725.12059208527126
 20
460.18654545539425
 30
0.0
 11
671.12059208527114
 21
460.18654545539425
 31
0.0
  0
LINE
  5
197
100
AcDbEntity
  8
0
  6
Continuous
 62
               7
100
AcDbLine
 10
725.12059208527126
 20
457.18654545539403
 30
0.0
 11
671.12059208527114
 21
457.18654545539403
 31
0.0
  0
LINE
  5
198
100
AcDbEntity
  8
0
  6
Continuous
 62
               7
100
AcDbLine
 10
759.12059208527137
 20
435.48654545539387
 30
0.0
 11
637.12059208527114
 21
435.48654545539387
 31
0.0
  0
LINE
  5
199
100
AcDbEntity
  8
0
  6
Continuous
 62
               7
100
AcDbLine
 10
759.12059208527137
 20
434.88654545539396
 30
0.0
 11
637.12059208527114
 21
434.88654545539396
 31
0.0
  0
LINE
  5
19A
100
AcDbEntity
  8
0
  6
Continuous
 62
               7
100
AcDbLine
 10
637.12059208527114
 20
434.88654545539396
 30
0.0
 11
637.12059208527114
 21
433.18654545539391
 31
0.0
  0
LINE
  5
19B
100
AcDbEntity
  8
0
  6
Continuous
 62
               7
100
AcDbLine
 10
759.12059208527137
 20
434.88654545539396
 30
0.0
 11
759.12059208527137
 21
433.18654545539391
 31
0.0
  0
LINE
  5
19C
100
AcDbEntity
  8
0
  6
Continuous
 62
               6
100
AcDbLine
 10
551.12059208527103
 20
585.18654545539414
 30
0.0
 11
551.12059208527103
 21
536.68654545539414
 31
0.0
  0
LINE
  5
19D
100
AcDbEntity
  8
0
  6
Continuous
 62
               4
100
AcDbLine
 10
549.12059208527103
 20
584.68654545539414
 30
0.0
 11
549.12059208527103
 21
570.18654545539414
 31
0.0
  0
LINE
  5
19E
100
AcDbEntity
  8
0
  6
Continuous
 62
               6
100
AcDbLine
 10
548.62059208527103
 20
610.12640911704568
 30
0.0
 11
548.62059208527103
 21
658.46422610772504
 31
0.0
  0
LINE
  5
19F
100
AcDbEntity
  8
0
  6
Continuous
 62
               6
100
AcDbLine
 10
551.12059208527103
 20
585.18654545539414
 30
0.0
 11
548.62059208527103
 21
610.12640911704568
 31
0.0
  0
LINE
  5
1A0
100
AcDbEntity
  8
0
  6
Continuous
 62
               7
100
AcDbLine
 10
551.62059208527103
 20
630.5629851757825
 30
0.0
 11
552.62059208527103
 21
585.18654545539368
 31
0.0
  0
LINE
  5
1A1
100
AcDbEntity
  8
0
  6
Continuous
 62
               7
100
AcDbLine
 10
549.62059208527103
 20
536.68654545539414
 30
0.0
 11
548.62657051497104
 21
548.94614482242798
 31
0.0
  0
LINE
  5
1A2
100
AcDbEntity
  8
0
  6
Continuous
 62
               6
100
AcDbLine
 10
953.48271929686121
 20
440.35615087964345
 30
0.0
 11
953.54264443719387
 21
439.15764807299001
 31
0.0
  0
LINE
  5
1A3
100
AcDbEntity
  8
0
  6
Continuous
 62
               6
100
AcDbLine
 10
903.60502749330146
 20
436.66076722579544
 30
0.0
 11
953.54264443719387
 21
439.15764807299001
 31
0.0
  0
LINE
  5
1A4
100
AcDbEntity
  8
0
  6
Continuous
 62
               6
100
AcDbLine
 10
904.74360515962223
 20
437.91919517278143
 30
0.0
 11
953.48271929686121
 21
440.35615087964345
 31
0.0
  0
LINE
  5
1A5
100
AcDbEntity
  8
0
  6
Continuous
 62
               7
100
AcDbLine
 10
1092.2418700170283
 20
444.0901109125316
 30
0.0
 11
977.89392844243184
 21
329.74216933793514
 31
0.0
  0
LINE
  5
1A6
100
AcDbEntity
  8
0
  6
Continuous
 62
               7
100
AcDbLine
 10
1077.3554114657327
 20
443.34578798496682
 30
0.0
 11
963.75179281870089
 21
329.74216933793514
 31
0.0
  0
LINE
  5
1A7
100
AcDbEntity
  8
0
  6
Continuous
 62
               7
100
AcDbLine
 10
1062.4689529144368
 20
442.60146505740204
 30
0.0
 11
949.60965719496994
 21
329.74216933793514
 31
0.0
  0
LINE
  5
1A8
100
AcDbEntity
  8
0
  6
Continuous
 62
               7
100
AcDbLine
 10
546.62059208527114
 20
464.15425793001293
 30
0.0
 11
412.20850349319329
 21
329.74216933793514
 31
0.0
  0
LINE
  5
1A9
100
AcDbEntity
  8
0
  6
Continuous
 62
               7
100
AcDbLine
 10
546.62059208527114
 20
478.29639355374388
 30
0.0
 11
398.06636786946234
 21
329.74216933793514
 31
0.0
  0
LINE
  5
1AA
100
AcDbEntity
  8
0
  6
Continuous
 62
               7
100
AcDbLine
 10
546.62059208527114
 20
492.43852917747483
 30
0.0
 11
383.92423224573139
 21
329.74216933793514
 31
0.0
  0
LINE
  5
1AB
100
AcDbEntity
  8
0
  6
Continuous
 62
               7
100
AcDbLine
 10
796.72046731915884
 20
429.3140407776383
 30
0.0
 11
1168.0140107899986
 21
447.87871795118008
 31
0.0
  0
LINE
  5
1AC
100
AcDbEntity
  8
0
  6
DASHED
 62
               6
100
AcDbLine
 10
796.67052970221494
 20
430.3127931165161
 30
0.0
 11
1167.9640731730544
 21
448.87747029005789
 31
0.0
  0
LINE
  5
1AD
100
AcDbEntity
  8
0
  6
DASHDOT
 62
               4
100
AcDbLine
 10
549.98843251602557
 20
632.48487528651833
 30
0.0
 11
499.54803469279409
 21
632.48487528651833
 31
0.0
  0
LINE
  5
1AE
100
AcDbEntity
  8
0
  6
DASHDOT
 62
               4
100
AcDbLine
 10
549.98843251602557
 20
635.81546639179135
 30
0.0
 11
549.98843251602557
 21
628.77307194630441
 31
0.0
  0
LINE
  5
1AF
100
AcDbEntity
  8
0
  6
Continuous
 62
               7
100
AcDbLine
 10
346.62059208527108
 20
743.88654545539555
 30
0.0
 11
346.62059208527108
 21
329.74216933793514
 31
0.0
  0
LINE
  5
1B0
100
AcDbEntity
  8
0
  6
Continuous
 62
               7
100
AcDbLine
 10
506.79563069840754
 20
735.45628026523036
 30
0.0
 11
346.62059208527114
 21
575.28124165209374
 31
0.0
  0
LINE
  5
1B1
100
AcDbEntity
  8
0
  6
Continuous
 62
               7
100
AcDbLine
 10
520.23065954095159
 20
734.74917348404381
 30
0.0
 11
346.62059208527114
 21
561.13910602836302
 31
0.0
  0
LINE
  5
1B2
100
AcDbEntity
  8
0
  6
Continuous
 62
               7
100
AcDbLine
 10
533.66568838349622
 20
734.04206670285714
 30
0.0
 11
346.62059208527114
 21
546.99697040463218
 31
0.0
  0
LINE
  5
1B3
100
AcDbEntity
  8
0
  6
Continuous
 62
               7
100
AcDbLine
 10
546.62059208527126
 20
733.36022966592168
 30
0.0
 11
346.62059208527108
 21
743.88654545539555
 31
0.0
  0
LINE
  5
1B4
100
AcDbEntity
  8
0
  6
Continuous
 62
               7
100
AcDbLine
 10
546.62059208527126
 20
733.36022966592168
 30
0.0
 11
546.62059208527114
 21
433.88654545539396
 31
0.0
  0
LINE
  5
1B5
100
AcDbEntity
  8
0
  6
Continuous
 62
               7
100
AcDbLine
 10
551.62059208527103
 20
735.09983993859953
 30
0.0
 11
551.62059208527103
 21
630.56298517578261
 31
0.0
  0
LINE
  5
1B6
100
AcDbEntity
  8
0
  6
Continuous
 62
               7
100
AcDbLine
 10
451.75880915202015
 20
740.35572325087605
 30
0.0
 11
551.62059208527103
 21
735.09983993859953
 31
0.0
  0
LINE
  5
1B7
100
AcDbEntity
  8
0
  6
DASHDOT
 62
               4
100
AcDbLine
 10
495.859079330984
 20
738.81540242734263
 30
0.0
 11
493.47767450944713
 21
693.56871081813665
 31
0.0
  0
LINE
  5
1B8
100
AcDbEntity
  8
0
  6
Continuous
 62
               4
100
AcDbLine
 10
566.62059208527103
 20
703.37380632394968
 30
0.0
 11
566.62059208527103
 21
758.37380632394979
 31
0.0
  0
LINE
  5
1B9
100
AcDbEntity
  8
0
  6
Continuous
 62
               4
100
AcDbLine
 10
566.62059208527103
 20
703.37380632394968
 30
0.0
 11
561.62059208527103
 21
703.37380632394968
 31
0.0
  0
LINE
  5
1BA
100
AcDbEntity
  8
0
  6
Continuous
 62
               4
100
AcDbLine
 10
561.62059208527103
 20
703.37380632394968
 30
0.0
 11
561.62059208527103
 21
704.87380632394968
 31
0.0
  0
LINE
  5
1BB
100
AcDbEntity
  8
0
  6
Continuous
 62
               4
100
AcDbLine
 10
565.12059208527103
 20
756.95067756680965
 30
0.0
 11
565.12059208527103
 21
704.87380632394968
 31
0.0
  0
LINE
  5
1BC
100
AcDbEntity
  8
0
  6
Continuous
 62
               4
100
AcDbLine
 10
565.12059208527103
 20
704.87380632394968
 30
0.0
 11
561.62059208527103
 21
704.87380632394968
 31
0.0
  0
LINE
  5
1BD
100
AcDbEntity
  8
0
  6
Continuous
 62
               4
100
AcDbLine
 10
537.88063976428589
 20
757.18269836746504
 30
0.0
 11
537.56528676554922
 21
751.19099139147056
 31
0.0
  0
LINE
  5
1BE
100
AcDbEntity
  8
0
  6
Continuous
 62
               4
100
AcDbLine
 10
537.88063976428577
 20
757.18269836746549
 30
0.0
 11
557.85299635093588
 21
756.13152170501007
 31
0.0
  0
LINE
  5
1BF
100
AcDbEntity
  8
0
  6
Continuous
 62
               4
100
AcDbLine
 10
543.45187607529851
 20
748.878402734068
 30
0.0
 11
543.39931724217593
 21
747.87978490473643
 31
0.0
  0
LINE
  5
1C0
100
AcDbEntity
  8
0
  6
Continuous
 62
               4
100
AcDbLine
 10
557.85299635093588
 20
756.13152170501007
 30
0.0
 11
565.12059208527103
 21
704.87380632394968
 31
0.0
  0
LINE
  5
1C1
100
AcDbEntity
  8
0
  6
Continuous
 62
               4
100
AcDbLine
 10
554.01453094260194
 20
750.32524169794078
 30
0.0
 11
545.55422940020946
 21
750.77052072648803
 31
0.0
  0
LINE
  5
1C2
100
AcDbEntity
  8
0
  6
Continuous
 62
               4
100
AcDbLine
 10
555.88960828737174
 20
748.60876878315185
 30
0.0
 11
562.09058748136954
 21
704.87380632394968
 31
0.0
  0
LINE
  5
1C3
100
AcDbEntity
  8
0
  6
Continuous
 62
               4
100
AcDbLine
 10
331.62059208527148
 20
778.37380632394991
 30
0.0
 11
331.62059208527148
 21
708.37380632394979
 31
0.0
  0
LINE
  5
1C4
100
AcDbEntity
  8
0
  6
Continuous
 62
               4
100
AcDbLine
 10
331.62059208527148
 20
778.37380632394991
 30
0.0
 11
344.8967900956942
 21
777.67505906024337
 31
0.0
  0
LINE
  5
1C5
100
AcDbEntity
  8
0
  6
Continuous
 62
               4
100
AcDbLine
 10
347.02336986304942
 20
769.93155486196167
 30
0.0
 11
344.8967900956942
 21
777.67505906024337
 31
0.0
  0
LINE
  5
1C6
100
AcDbEntity
  8
0
  6
Continuous
 62
               4
100
AcDbLine
 10
331.62059208527148
 20
708.37380632394979
 30
0.0
 11
337.62059208527148
 21
708.37380632394979
 31
0.0
  0
LINE
  5
1C7
100
AcDbEntity
  8
0
  6
Continuous
 62
               4
100
AcDbLine
 10
337.62059208527148
 20
708.37380632394979
 30
0.0
 11
337.62059208527148
 21
709.87380632394979
 31
0.0
  0
LINE
  5
1C8
100
AcDbEntity
  8
0
  6
Continuous
 62
               4
100
AcDbLine
 10
337.62059208527148
 20
709.87380632394979
 30
0.0
 11
333.12059208527148
 21
709.87380632394979
 31
0.0
  0
LINE
  5
1C9
100
AcDbEntity
  8
0
  6
Continuous
 62
               4
100
AcDbLine
 10
333.12059208527148
 20
709.87380632394979
 30
0.0
 11
333.12059208527148
 21
776.79278282996768
 31
0.0
  0
LINE
  5
1CA
100
AcDbEntity
  8
0
  6
Continuous
 62
               4
100
AcDbLine
 10
333.12059208527148
 20
776.79278282996768
 30
0.0
 11
343.73700082216544
 21
776.23402447539468
 31
0.0
  0
LINE
  5
1CB
100
AcDbEntity
  8
0
  6
Continuous
 62
               4
100
AcDbLine
 10
343.73700082216544
 20
776.23402447539468
 30
0.0
 11
345.86358058952044
 21
768.49052027711298
 31
0.0
  0
LINE
  5
1CC
100
AcDbEntity
  8
0
  6
Continuous
 62
               4
100
AcDbLine
 10
372.97739171101045
 20
765.86181668605934
 30
0.0
 11
350.79359913643566
 21
767.02938471630034
 31
0.0
  0
LINE
  5
1CD
100
AcDbEntity
  8
0
  6
Continuous
 62
               4
100
AcDbLine
 10
374.00228895690384
 20
756.79541797237982
 30
0.0
 11
373.79620300597514
 21
752.87978490473608
 31
0.0
  0
LINE
  5
1CE
100
AcDbEntity
  8
0
  6
Continuous
 62
               4
100
AcDbLine
 10
366.51265523691063
 20
757.18960922080316
 30
0.0
 11
366.28582237817022
 21
752.87978490473654
 31
0.0
  0
LINE
  5
1CF
100
AcDbEntity
  8
0
  6
Continuous
 62
               4
100
AcDbLine
 10
373.79620300597514
 20
752.87978490473608
 30
0.0
 11
366.28582237817022
 21
752.87978490473654
 31
0.0
  0
LINE
  5
1D0
100
AcDbEntity
  8
0
  6
Continuous
 62
               4
100
AcDbLine
 10
372.97739171101045
 20
765.86181668605752
 30
0.0
 11
372.66203871227367
 21
759.8701097100635
 31
0.0
  0
LINE
  5
1D1
100
AcDbEntity
  8
0
  6
Continuous
 62
               4
100
AcDbLine
 10
350.79359913643566
 20
767.02938471630034
 30
0.0
 11
341.76893148858937
 21
759.12018919172772
 31
0.0
  0
LINE
  5
1D2
100
AcDbEntity
  8
0
  6
Continuous
 62
               4
100
AcDbLine
 10
341.76893148864008
 20
759.12018919177183
 30
0.0
 11
333.12059208527148
 21
709.87380632394979
 31
0.0
  0
LINE
  5
1D3
100
AcDbEntity
  8
0
  6
Continuous
 62
               4
100
AcDbLine
 10
343.97500652193173
 20
754.33790876239084
 30
0.0
 11
336.16650106913733
 21
709.87380632394979
 31
0.0
  0
LINE
  5
1D4
100
AcDbEntity
  8
0
  6
Continuous
 62
               4
100
AcDbLine
 10
352.27489844576553
 20
760.9431170925119
 30
0.0
 11
363.67447824828162
 21
760.34313920816851
 31
0.0
  0
LINE
  5
1D5
100
AcDbEntity
  8
0
  6
Continuous
 62
               4
100
AcDbLine
 10
345.86358058952038
 20
768.49052027711321
 30
0.0
 11
565.12059208527103
 21
756.95067756680976
 31
0.0
  0
LINE
  5
1D6
100
AcDbEntity
  8
0
  6
Continuous
 62
               4
100
AcDbLine
 10
347.02336986304954
 20
769.93155486196156
 30
0.0
 11
566.62059208527103
 21
758.37380632394979
 31
0.0
  0
LINE
  5
1D7
100
AcDbEntity
  8
0
  6
Continuous
 62
               4
100
AcDbLine
 10
372.66203871227367
 20
759.87010971006453
 30
0.0
 11
537.56528676554922
 21
751.19099139147056
 31
0.0
  0
LINE
  5
1D8
100
AcDbEntity
  8
0
  6
Continuous
 62
               4
100
AcDbLine
 10
374.00228895690367
 20
756.79541797237653
 30
0.0
 11
543.39931724217593
 21
747.87978490473654
 31
0.0
  0
LINE
  5
1D9
100
AcDbEntity
  8
0
  6
Continuous
 62
               7
100
AcDbLine
 10
552.62059208527103
 20
536.68654545539414
 30
0.0
 11
552.62059208527103
 21
585.18654545539368
 31
0.0
  0
LINE
  5
1DA
100
AcDbEntity
  8
0
  6
Continuous
 62
               7
100
AcDbLine
 10
824.46892057100342
 20
514.30578739007569
 30
0.0
 11
1163.8442481894597
 21
531.2745537709983
 31
0.0
  0
LINE
  5
1DB
100
AcDbEntity
  8
0
  6
Continuous
 62
               7
100
AcDbLine
 10
821.5725387882577
 20
544.19844489268951
 30
0.0
 11
1162.3461196811429
 21
561.23712393733365
 31
0.0
  0
LINE
  5
1DC
100
AcDbEntity
  8
0
  6
Continuous
 62
               6
100
AcDbLine
 10
851.0457140741313
 20
510.62838096660687
 30
0.0
 11
851.10563921446396
 21
509.42987815995343
 31
0.0
  0
LINE
  5
1DD
100
AcDbEntity
  8
0
  6
Continuous
 62
               6
100
AcDbLine
 10
843.0107577422707
 20
511.42813221368374
 30
0.0
 11
824.00949449511938
 21
510.4780690513262
 31
0.0
  0
LINE
  5
1DE
100
AcDbEntity
  8
0
  6
Continuous
 62
               7
100
AcDbLine
 10
821.57253878825759
 20
544.19844489269042
 30
0.0
 11
823.08866056803288
 21
513.87600929718678
 31
0.0
  0
LINE
  5
1DF
100
AcDbEntity
  8
0
  6
Continuous
 62
               4
100
AcDbLine
 10
848.04571407413141
 20
511.67988003027699
 30
0.0
 11
936.77068507399565
 21
516.1161285802707
 31
0.0
  0
LINE
  5
1E0
100
AcDbEntity
  8
0
  6
Continuous
 62
               6
100
AcDbLine
 10
942.79609768514467
 20
517.91927304041587
 30
0.0
 11
823.93458806970364
 21
511.97619755964308
 31
0.0
  0
LINE
  5
1E1
100
AcDbEntity
  8
0
  6
Continuous
 62
               7
100
AcDbLine
 10
824.758558749278
 20
508.51302382458414
 30
0.0
 11
837.47589797141757
 21
509.84651773891653
 31
0.0
  0
LINE
  5
1E2
100
AcDbEntity
  8
0
  6
Continuous
 62
               6
100
AcDbLine
 10
844.21075774227063
 20
461.42813221368374
 30
0.0
 11
846.21075774227063
 21
470.96987487909917
 31
0.0
  0
LINE
  5
1E3
100
AcDbEntity
  8
0
  6
Continuous
 62
               6
100
AcDbLine
 10
843.0107577422707
 20
511.42813221368374
 30
0.0
 11
843.0107577422707
 21
461.42813221368374
 31
0.0
  0
LINE
  5
1E4
100
AcDbEntity
  8
0
  6
Continuous
 62
               7
100
AcDbLine
 10
823.96954440156446
 20
524.29331077885433
 30
0.0
 11
1163.3448720200208
 21
541.26207715977694
 31
0.0
  0
LINE
  5
1E5
100
AcDbEntity
  8
0
  6
Continuous
 62
               7
100
AcDbLine
 10
823.4701682321255
 20
534.28083416763286
 30
0.0
 11
1162.8454958505818
 21
551.24960054855546
 31
0.0
  0
LINE
  5
1E6
100
AcDbEntity
  8
0
  6
Continuous
 62
               4
100
AcDbLine
 10
903.97956292822357
 20
513.27499298426517
 30
0.0
 11
1164.0939078599029
 21
526.28077655309085
 31
0.0
  0
LINE
  5
1E7
100
AcDbEntity
  8
0
  6
Continuous
 62
               4
100
AcDbLine
 10
903.97956292822357
 20
513.27499298426517
 30
0.0
 11
907.72488089117257
 21
438.3686337252766
 31
0.0
  0
LINE
  5
1E8
100
AcDbEntity
  8
0
  6
Continuous
 62
               6
100
AcDbLine
 10
899.84472423404486
 20
511.86683241093237
 30
0.0
 11
851.10563921446396
 21
509.42987815995343
 31
0.0
  0
LINE
  5
1E9
100
AcDbEntity
  8
0
  6
Continuous
 62
               6
100
AcDbLine
 10
899.84472423404486
 20
511.86683241093237
 30
0.0
 11
903.60502749330146
 21
436.66076722579544
 31
0.0
  0
LINE
  5
1EA
100
AcDbEntity
  8
0
  6
Continuous
 62
               6
100
AcDbLine
 10
900.98330190036575
 20
513.12526035791859
 30
0.0
 11
904.74360515962212
 21
437.91919517278143
 31
0.0
  0
LINE
  5
1EB
100
AcDbEntity
  8
0
  6
Continuous
 62
               6
100
AcDbLine
 10
900.98330190036575
 20
513.12526035791859
 30
0.0
 11
851.0457140741313
 21
510.62838096660687
 31
0.0
  0
LINE
  5
1EC
100
AcDbEntity
  8
0
  6
Continuous
 62
               4
100
AcDbLine
 10
848.0457140741313
 20
435.18654545539391
 30
0.0
 11
848.0457140741313
 21
511.67988003027699
 31
0.0
  0
LINE
  5
1ED
100
AcDbEntity
  8
0
  6
Continuous
 62
               4
100
AcDbLine
 10
848.0457140741313
 20
435.18654545539391
 30
0.0
 11
548.12059208527103
 21
435.18654545539391
 31
0.0
  0
LINE
  5
1EE
100
AcDbEntity
  8
0
  6
Continuous
 62
               4
100
AcDbLine
 10
1203.2042375962753
 20
28.341677550555005
 30
0.0
 11
1203.2042375962753
 21
61.673677550555112
 31
0.0
  0
LINE
  5
1EF
100
AcDbEntity
  8
0
  6
Continuous
 62
               4
100
AcDbLine
 10
1453.1942375962753
 20
28.341677550555005
 30
0.0
 11
1203.2042375962753
 21
28.341677550555005
 31
0.0
  0
LINE
  5
1F0
100
AcDbEntity
  8
0
  6
Continuous
 62
               4
100
AcDbLine
 10
1453.1942375962753
 20
61.673677550555112
 30
0.0
 11
1453.1942375962753
 21
28.341677550555005
 31
0.0
  0
LINE
  5
1F1
100
AcDbEntity
  8
0
  6
Continuous
 62
               4
100
AcDbLine
 10
1453.1942375962753
 20
61.673677550555112
 30
0.0
 11
1203.2042375962753
 21
61.673677550555112
 31
0.0
  0
LINE
  5
1F2
100
AcDbEntity
  8
0
  6
Continuous
 62
               4
100
AcDbLine
 10
35.509845672550007
 20
986.04446947428005
 30
0.0
 11
35.509845672550007
 21
1019.37646947428
 31
0.0
  0
LINE
  5
1F3
100
AcDbEntity
  8
0
  6
Continuous
 62
               4
100
AcDbLine
 10
285.49984567255001
 20
986.04446947428005
 30
0.0
 11
35.509845672550007
 21
986.04446947428005
 31
0.0
  0
LINE
  5
1F4
100
AcDbEntity
  8
0
  6
Continuous
 62
               4
100
AcDbLine
 10
285.49984567255001
 20
1019.37646947428
 30
0.0
 11
285.49984567255001
 21
986.04446947428005
 31
0.0
  0
LINE
  5
1F5
100
AcDbEntity
  8
0
  6
Continuous
 62
               4
100
AcDbLine
 10
285.49984567255001
 20
1019.37646947428
 30
0.0
 11
35.509845672550007
 21
1019.37646947428
 31
0.0
  0
CIRCLE
  5
1F6
100
AcDbEntity
  8
0
  6
Continuous
 62
               4
100
AcDbCircle
 10
548.12059208527103
 20
270.18654545539397
 30
0.0
 40
2.5
  0
CIRCLE
  5
1F7
100
AcDbEntity
  8
0
  6
Continuous
 62
               4
100
AcDbCircle
 10
848.12059208527126
 20
270.18654545539397
 30
0.0
 40
2.5
  0
CIRCLE
  5
1F8
100
AcDbEntity
  8
0
  6
Continuous
 62
               4
100
AcDbCircle
 10
783.0107577422707
 20
511.42813221368363
 30
0.0
 40
2.5
  0
CIRCLE
  5
1F9
100
AcDbEntity
  8
0
  6
Continuous
 62
               4
100
AcDbCircle
 10
783.0107577422707
 20
461.42813221368363
 30
0.0
 40
2.5
  0
CIRCLE
  5
1FA
100
AcDbEntity
  8
0
  6
Continuous
 62
               4
100
AcDbCircle
 10
820.07441027994071
 20
574.16101505902554
 30
0.0
 40
2.5
  0
CIRCLE
  5
1FB
100
AcDbEntity
  8
0
  6
Continuous
 62
               4
100
AcDbCircle
 10
839.82473778125041
 20
575.14853143409107
 30
0.0
 40
2.5
  0
CIRCLE
  5
1FC
100
AcDbEntity
  8
0
  6
Continuous
 62
               4
100
AcDbCircle
 10
839.82473778125041
 20
575.14853143409107
 30
0.0
 40
2.5
  0
CIRCLE
  5
1FD
100
AcDbEntity
  8
0
  6
Continuous
 62
               4
100
AcDbCircle
 10
939.68498414954024
 20
580.14154375250553
 30
0.0
 40
2.5
  0
CIRCLE
  5
1FE
100
AcDbEntity
  8
0
  6
Continuous
 62
               4
100
AcDbCircle
 10
1192.308689847478
 20
562.7352524456503
 30
0.0
 40
2.5
  0
CIRCLE
  5
1FF
100
AcDbEntity
  8
0
  6
Continuous
 62
               4
100
AcDbCircle
 10
1193.8068183557948
 20
532.77268227931495
 30
0.0
 40
2.5
  0
CIRCLE
  5
200
100
AcDbEntity
  8
0
  6
Continuous
 62
               4
100
AcDbCircle
 10
1194.0564780262382
 20
527.7789050614075
 30
0.0
 40
2.5
  0
CIRCLE
  5
201
100
AcDbEntity
  8
0
  6
Continuous
 62
               4
100
AcDbCircle
 10
1197.8017992970299
 20
452.87247964556923
 30
0.0
 40
2.5
  0
CIRCLE
  5
202
100
AcDbEntity
  8
0
  6
Continuous
 62
               7
100
AcDbCircle
 10
913.94968855070522
 20
478.07291708067203
 30
0.0
 40
1.0
  0
CIRCLE
  5
203
100
AcDbEntity
  8
0
  6
Continuous
 62
               7
100
AcDbCircle
 10
916.47029099382712
 20
507.6857233666035
 30
0.0
 40
1.0
  0
CIRCLE
  5
204
100
AcDbEntity
  8
0
  6
Continuous
 62
               7
100
AcDbCircle
 10
915.90090253061805
 20
494.27045245455236
 30
0.0
 40
0.1
  0
CIRCLE
  5
205
100
AcDbEntity
  8
0
  6
Continuous
 62
               7
100
AcDbCircle
 10
919.82712550259657
 20
482.52764255117268
 30
0.0
 40
0.5
  0
CIRCLE
  5
206
100
AcDbEntity
  8
0
  6
Continuous
 62
               7
100
AcDbCircle
 10
909.86806818035132
 20
507.33937134283087
 30
0.0
 40
0.1
  0
CIRCLE
  5
207
100
AcDbEntity
  8
0
  6
Continuous
 62
               7
100
AcDbCircle
 10
930.63522070770966
 20
478.94823861912505
 30
0.0
 40
1.0
  0
CIRCLE
  5
208
100
AcDbEntity
  8
0
  6
Continuous
 62
               7
100
AcDbCircle
 10
924.11048710903799
 20
501.39382695594804
 30
0.0
 40
0.5
  0
CIRCLE
  5
209
100
AcDbEntity
  8
0
  6
Continuous
 62
               7
100
AcDbCircle
 10
933.15582315083157
 20
508.56104490505652
 30
0.0
 40
1.0
  0
CIRCLE
  5
20A
100
AcDbEntity
  8
0
  6
Continuous
 62
               7
100
AcDbCircle
 10
932.58643468762261
 20
495.14577399300538
 30
0.0
 40
0.1
  0
CIRCLE
  5
20B
100
AcDbEntity
  8
0
  6
Continuous
 62
               7
100
AcDbCircle
 10
936.5126576596009
 20
483.4029640896257
 30
0.0
 40
0.5
  0
CIRCLE
  5
20C
100
AcDbEntity
  8
0
  6
Continuous
 62
               7
100
AcDbCircle
 10
924.01376742931257
 20
488.67608240561492
 30
0.0
 40
0.1
  0
CIRCLE
  5
20D
100
AcDbEntity
  8
0
  6
Continuous
 62
               7
100
AcDbCircle
 10
926.55360033735576
 20
508.2146928812839
 30
0.0
 40
0.1
  0
CIRCLE
  5
20E
100
AcDbEntity
  8
0
  6
Continuous
 62
               7
100
AcDbCircle
 10
947.32075286471411
 20
479.82356015757819
 30
0.0
 40
1.0
  0
CIRCLE
  5
20F
100
AcDbEntity
  8
0
  6
Continuous
 62
               7
100
AcDbCircle
 10
940.79601926604244
 20
502.26914849440107
 30
0.0
 40
0.5
  0
CIRCLE
  5
210
100
AcDbEntity
  8
0
  6
Continuous
 62
               7
100
AcDbCircle
 10
949.84135530783612
 20
509.43636644350954
 30
0.0
 40
1.0
  0
CIRCLE
  5
211
100
AcDbEntity
  8
0
  6
Continuous
 62
               7
100
AcDbCircle
 10
949.27196684462706
 20
496.02109553145851
 30
0.0
 40
0.1
  0
CIRCLE
  5
212
100
AcDbEntity
  8
0
  6
Continuous
 62
               7
100
AcDbCircle
 10
953.19818981660558
 20
484.27828562807872
 30
0.0
 40
0.5
  0
CIRCLE
  5
213
100
AcDbEntity
  8
0
  6
Continuous
 62
               7
100
AcDbCircle
 10
940.69929958631712
 20
489.55140394406794
 30
0.0
 40
0.1
  0
CIRCLE
  5
214
100
AcDbEntity
  8
0
  6
Continuous
 62
               7
100
AcDbCircle
 10
943.23913249436021
 20
509.09001441973692
 30
0.0
 40
0.1
  0
CIRCLE
  5
215
100
AcDbEntity
  8
0
  6
Continuous
 62
               7
100
AcDbCircle
 10
964.00628502171867
 20
480.69888169603121
 30
0.0
 40
1.0
  0
CIRCLE
  5
216
100
AcDbEntity
  8
0
  6
Continuous
 62
               7
100
AcDbCircle
 10
957.48155142304699
 20
503.1444700328542
 30
0.0
 40
0.5
  0
CIRCLE
  5
217
100
AcDbEntity
  8
0
  6
Continuous
 62
               7
100
AcDbCircle
 10
966.52688746484057
 20
510.31168798196256
 30
0.0
 40
1.0
  0
CIRCLE
  5
218
100
AcDbEntity
  8
0
  6
Continuous
 62
               7
100
AcDbCircle
 10
965.95749900163162
 20
496.89641706991154
 30
0.0
 40
0.1
  0
CIRCLE
  5
219
100
AcDbEntity
  8
0
  6
Continuous
 62
               7
100
AcDbCircle
 10
969.88372197361002
 20
485.15360716653186
 30
0.0
 40
0.5
  0
CIRCLE
  5
21A
100
AcDbEntity
  8
0
  6
Continuous
 62
               7
100
AcDbCircle
 10
957.38483174332168
 20
490.42672548252108
 30
0.0
 40
0.1
  0
CIRCLE
  5
21B
100
AcDbEntity
  8
0
  6
Continuous
 62
               7
100
AcDbCircle
 10
959.92466465136476
 20
509.96533595819005
 30
0.0
 40
0.1
  0
CIRCLE
  5
21C
100
AcDbEntity
  8
0
  6
Continuous
 62
               7
100
AcDbCircle
 10
980.69181717872323
 20
481.57420323448423
 30
0.0
 40
1.0
  0
CIRCLE
  5
21D
100
AcDbEntity
  8
0
  6
Continuous
 62
               7
100
AcDbCircle
 10
974.16708358005144
 20
504.01979157130722
 30
0.0
 40
0.5
  0
CIRCLE
  5
21E
100
AcDbEntity
  8
0
  6
Continuous
 62
               7
100
AcDbCircle
 10
983.21241962184513
 20
511.1870095204157
 30
0.0
 40
1.0
  0
CIRCLE
  5
21F
100
AcDbEntity
  8
0
  6
Continuous
 62
               7
100
AcDbCircle
 10
982.64303115863606
 20
497.77173860836456
 30
0.0
 40
0.1
  0
CIRCLE
  5
220
100
AcDbEntity
  8
0
  6
Continuous
 62
               7
100
AcDbCircle
 10
986.56925413061458
 20
486.02892870498488
 30
0.0
 40
0.5
  0
CIRCLE
  5
221
100
AcDbEntity
  8
0
  6
Continuous
 62
               7
100
AcDbCircle
 10
974.07036390032624
 20
491.3020470209741
 30
0.0
 40
0.1
  0
CIRCLE
  5
222
100
AcDbEntity
  8
0
  6
Continuous
 62
               7
100
AcDbCircle
 10
976.61019680836932
 20
510.84065749664308
 30
0.0
 40
0.1
  0
CIRCLE
  5
223
100
AcDbEntity
  8
0
  6
Continuous
 62
               7
100
AcDbCircle
 10
997.37734933572767
 20
482.44952477293725
 30
0.0
 40
1.0
  0
CIRCLE
  5
224
100
AcDbEntity
  8
0
  6
Continuous
 62
               7
100
AcDbCircle
 10
990.852615737056
 20
504.89511310976025
 30
0.0
 40
0.5
  0
CIRCLE
  5
225
100
AcDbEntity
  8
0
  6
Continuous
 62
               7
100
AcDbCircle
 10
999.32856331564062
 20
498.64706014681769
 30
0.0
 40
0.1
  0
CIRCLE
  5
226
100
AcDbEntity
  8
0
  6
Continuous
 62
               7
100
AcDbCircle
 10
990.75589605733069
 20
492.17736855942712
 30
0.0
 40
0.1
  0
CIRCLE
  5
227
100
AcDbEntity
  8
0
  6
Continuous
 62
               7
100
AcDbCircle
 10
993.29572896537377
 20
511.7159790350961
 30
0.0
 40
0.1
  0
CIRCLE
  5
228
100
AcDbEntity
  8
0
  6
Continuous
 62
               7
100
AcDbCircle
 10
915.54231840941111
 20
447.71392834996368
 30
0.0
 40
1.0
  0
CIRCLE
  5
229
100
AcDbEntity
  8
0
  6
Continuous
 62
               7
100
AcDbCircle
 10
917.49353238932406
 20
463.91146372384401
 30
0.0
 40
0.1
  0
CIRCLE
  5
22A
100
AcDbEntity
  8
0
  6
Continuous
 62
               7
100
AcDbCircle
 10
921.41975536130246
 20
452.16865382046433
 30
0.0
 40
0.5
  0
CIRCLE
  5
22B
100
AcDbEntity
  8
0
  6
Continuous
 62
               7
100
AcDbCircle
 10
932.22785056641555
 20
448.5892498884167
 30
0.0
 40
1.0
  0
CIRCLE
  5
22C
100
AcDbEntity
  8
0
  6
Continuous
 62
               7
100
AcDbCircle
 10
918.38988554358593
 20
470.65118675275312
 30
0.0
 40
0.5
  0
CIRCLE
  5
22D
100
AcDbEntity
  8
0
  6
Continuous
 62
               7
100
AcDbCircle
 10
934.1790645463285
 20
464.78678526229714
 30
0.0
 40
0.1
  0
CIRCLE
  5
22E
100
AcDbEntity
  8
0
  6
Continuous
 62
               7
100
AcDbCircle
 10
938.10528751830691
 20
453.04397535891735
 30
0.0
 40
0.5
  0
CIRCLE
  5
22F
100
AcDbEntity
  8
0
  6
Continuous
 62
               7
100
AcDbCircle
 10
925.60639728801846
 20
458.31709367490657
 30
0.0
 40
0.1
  0
CIRCLE
  5
230
100
AcDbEntity
  8
0
  6
Continuous
 62
               7
100
AcDbCircle
 10
927.02849830313596
 20
445.77018755634049
 30
0.0
 40
0.1
  0
CIRCLE
  5
231
100
AcDbEntity
  8
0
  6
Continuous
 62
               7
100
AcDbCircle
 10
948.91338272342011
 20
449.46457142686984
 30
0.0
 40
1.0
  0
CIRCLE
  5
232
100
AcDbEntity
  8
0
  6
Continuous
 62
               7
100
AcDbCircle
 10
935.07541770059038
 20
471.52650829120614
 30
0.0
 40
0.5
  0
CIRCLE
  5
233
100
AcDbEntity
  8
0
  6
Continuous
 62
               7
100
AcDbCircle
 10
950.86459670333295
 20
465.66210680075017
 30
0.0
 40
0.1
  0
CIRCLE
  5
234
100
AcDbEntity
  8
0
  6
Continuous
 62
               7
100
AcDbCircle
 10
954.79081967531147
 20
453.91929689737037
 30
0.0
 40
0.5
  0
CIRCLE
  5
235
100
AcDbEntity
  8
0
  6
Continuous
 62
               7
100
AcDbCircle
 10
942.29192944502302
 20
459.1924152133596
 30
0.0
 40
0.1
  0
CIRCLE
  5
236
100
AcDbEntity
  8
0
  6
Continuous
 62
               7
100
AcDbCircle
 10
943.71403046014041
 20
446.64550909479351
 30
0.0
 40
0.1
  0
CIRCLE
  5
237
100
AcDbEntity
  8
0
  6
Continuous
 62
               7
100
AcDbCircle
 10
965.59891488042456
 20
450.33989296532286
 30
0.0
 40
1.0
  0
CIRCLE
  5
238
100
AcDbEntity
  8
0
  6
Continuous
 62
               7
100
AcDbCircle
 10
951.76094985759494
 20
472.40182982965928
 30
0.0
 40
0.5
  0
CIRCLE
  5
239
100
AcDbEntity
  8
0
  6
Continuous
 62
               7
100
AcDbCircle
 10
967.55012886033751
 20
466.53742833920319
 30
0.0
 40
0.1
  0
CIRCLE
  5
23A
100
AcDbEntity
  8
0
  6
Continuous
 62
               7
100
AcDbCircle
 10
971.47635183231591
 20
454.79461843582351
 30
0.0
 40
0.5
  0
CIRCLE
  5
23B
100
AcDbEntity
  8
0
  6
Continuous
 62
               7
100
AcDbCircle
 10
958.97746160202757
 20
460.06773675181262
 30
0.0
 40
0.1
  0
CIRCLE
  5
23C
100
AcDbEntity
  8
0
  6
Continuous
 62
               7
100
AcDbCircle
 10
960.39956261714508
 20
447.52083063324653
 30
0.0
 40
0.1
  0
CIRCLE
  5
23D
100
AcDbEntity
  8
0
  6
Continuous
 62
               7
100
AcDbCircle
 10
982.284447037429
 20
451.21521450377588
 30
0.0
 40
1.0
  0
CIRCLE
  5
23E
100
AcDbEntity
  8
0
  6
Continuous
 62
               7
100
AcDbCircle
 10
968.4464820145995
 20
473.2771513681123
 30
0.0
 40
0.5
  0
CIRCLE
  5
23F
100
AcDbEntity
  8
0
  6
Continuous
 62
               7
100
AcDbCircle
 10
984.23566101734195
 20
467.41274987765621
 30
0.0
 40
0.1
  0
CIRCLE
  5
240
100
AcDbEntity
  8
0
  6
Continuous
 62
               7
100
AcDbCircle
 10
988.16188398932047
 20
455.66993997427653
 30
0.0
 40
0.5
  0
CIRCLE
  5
241
100
AcDbEntity
  8
0
  6
Continuous
 62
               7
100
AcDbCircle
 10
975.66299375903202
 20
460.94305829026575
 30
0.0
 40
0.1
  0
CIRCLE
  5
242
100
AcDbEntity
  8
0
  6
Continuous
 62
               7
100
AcDbCircle
 10
977.08509477414952
 20
448.39615217169967
 30
0.0
 40
0.1
  0
CIRCLE
  5
243
100
AcDbEntity
  8
0
  6
Continuous
 62
               7
100
AcDbCircle
 10
998.96997919443356
 20
452.0905360422289
 30
0.0
 40
1.0
  0
CIRCLE
  5
244
100
AcDbEntity
  8
0
  6
Continuous
 62
               7
100
AcDbCircle
 10
985.13201417160406
 20
474.15247290656532
 30
0.0
 40
0.5
  0
CIRCLE
  5
245
100
AcDbEntity
  8
0
  6
Continuous
 62
               7
100
AcDbCircle
 10
1000.9211931743465
 20
468.28807141610935
 30
0.0
 40
0.1
  0
CIRCLE
  5
246
100
AcDbEntity
  8
0
  6
Continuous
 62
               7
100
AcDbCircle
 10
992.34852591603658
 20
461.81837982871878
 30
0.0
 40
0.1
  0
CIRCLE
  5
247
100
AcDbEntity
  8
0
  6
Continuous
 62
               7
100
AcDbCircle
 10
993.77062693115408
 20
449.27147371015269
 30
0.0
 40
0.1
  0
CIRCLE
  5
248
100
AcDbEntity
  8
0
  6
Continuous
 62
               7
100
AcDbCircle
 10
1008.7990646506614
 20
481.46315809461635
 30
0.0
 40
1.0
  0
CIRCLE
  5
249
100
AcDbEntity
  8
0
  6
Continuous
 62
               7
100
AcDbCircle
 10
1011.3196670937834
 20
511.07596438054782
 30
0.0
 40
1.0
  0
CIRCLE
  5
24A
100
AcDbEntity
  8
0
  6
Continuous
 62
               7
100
AcDbCircle
 10
1010.7502786305744
 20
497.66069346849667
 30
0.0
 40
0.1
  0
CIRCLE
  5
24B
100
AcDbEntity
  8
0
  6
Continuous
 62
               7
100
AcDbCircle
 10
1014.6765016025528
 20
485.91788356511699
 30
0.0
 40
0.5
  0
CIRCLE
  5
24C
100
AcDbEntity
  8
0
  6
Continuous
 62
               7
100
AcDbCircle
 10
1004.7174442803075
 20
510.72961235677519
 30
0.0
 40
0.1
  0
CIRCLE
  5
24D
100
AcDbEntity
  8
0
  6
Continuous
 62
               7
100
AcDbCircle
 10
1025.4845968076659
 20
482.33847963306937
 30
0.0
 40
1.0
  0
CIRCLE
  5
24E
100
AcDbEntity
  8
0
  6
Continuous
 62
               7
100
AcDbCircle
 10
1018.9598632089942
 20
504.78406796989236
 30
0.0
 40
0.5
  0
CIRCLE
  5
24F
100
AcDbEntity
  8
0
  6
Continuous
 62
               7
100
AcDbCircle
 10
1028.0051992507879
 20
511.95128591900084
 30
0.0
 40
1.0
  0
CIRCLE
  5
250
100
AcDbEntity
  8
0
  6
Continuous
 62
               7
100
AcDbCircle
 10
1027.4358107875787
 20
498.53601500694981
 30
0.0
 40
0.1
  0
CIRCLE
  5
251
100
AcDbEntity
  8
0
  6
Continuous
 62
               7
100
AcDbCircle
 10
1031.3620337595571
 20
486.79320510357002
 30
0.0
 40
0.5
  0
CIRCLE
  5
252
100
AcDbEntity
  8
0
  6
Continuous
 62
               7
100
AcDbCircle
 10
1018.8631435292689
 20
492.06632341955924
 30
0.0
 40
0.1
  0
CIRCLE
  5
253
100
AcDbEntity
  8
0
  6
Continuous
 62
               7
100
AcDbCircle
 10
1021.402976437312
 20
511.60493389522821
 30
0.0
 40
0.1
  0
CIRCLE
  5
254
100
AcDbEntity
  8
0
  6
Continuous
 62
               7
100
AcDbCircle
 10
1042.1701289646703
 20
483.2138011715225
 30
0.0
 40
1.0
  0
CIRCLE
  5
255
100
AcDbEntity
  8
0
  6
Continuous
 62
               7
100
AcDbCircle
 10
1035.6453953659986
 20
505.65938950834538
 30
0.0
 40
0.5
  0
CIRCLE
  5
256
100
AcDbEntity
  8
0
  6
Continuous
 62
               7
100
AcDbCircle
 10
1044.6907314077926
 20
512.82660745745386
 30
0.0
 40
1.0
  0
CIRCLE
  5
257
100
AcDbEntity
  8
0
  6
Continuous
 62
               7
100
AcDbCircle
 10
1044.1213429445834
 20
499.41133654540283
 30
0.0
 40
0.1
  0
CIRCLE
  5
258
100
AcDbEntity
  8
0
  6
Continuous
 62
               7
100
AcDbCircle
 10
1048.0475659165618
 20
487.66852664202304
 30
0.0
 40
0.5
  0
CIRCLE
  5
259
100
AcDbEntity
  8
0
  6
Continuous
 62
               7
100
AcDbCircle
 10
1035.5486756862733
 20
492.94164495801226
 30
0.0
 40
0.1
  0
CIRCLE
  5
25A
100
AcDbEntity
  8
0
  6
Continuous
 62
               7
100
AcDbCircle
 10
1038.0885085943164
 20
512.48025543368124
 30
0.0
 40
0.1
  0
CIRCLE
  5
25B
100
AcDbEntity
  8
0
  6
Continuous
 62
               7
100
AcDbCircle
 10
1058.855661121675
 20
484.08912270997553
 30
0.0
 40
1.0
  0
CIRCLE
  5
25C
100
AcDbEntity
  8
0
  6
Continuous
 62
               7
100
AcDbCircle
 10
1052.3309275230031
 20
506.53471104679852
 30
0.0
 40
0.5
  0
CIRCLE
  5
25D
100
AcDbEntity
  8
0
  6
Continuous
 62
               7
100
AcDbCircle
 10
1061.3762635647968
 20
513.70192899590688
 30
0.0
 40
1.0
  0
CIRCLE
  5
25E
100
AcDbEntity
  8
0
  6
Continuous
 62
               7
100
AcDbCircle
 10
1060.806875101588
 20
500.28665808385585
 30
0.0
 40
0.1
  0
CIRCLE
  5
25F
100
AcDbEntity
  8
0
  6
Continuous
 62
               7
100
AcDbCircle
 10
1064.7330980735665
 20
488.54384818047618
 30
0.0
 40
0.5
  0
CIRCLE
  5
260
100
AcDbEntity
  8
0
  6
Continuous
 62
               7
100
AcDbCircle
 10
1052.234207843278
 20
493.81696649646528
 30
0.0
 40
0.1
  0
CIRCLE
  5
261
100
AcDbEntity
  8
0
  6
Continuous
 62
               7
100
AcDbCircle
 10
1054.7740407513211
 20
513.35557697213426
 30
0.0
 40
0.1
  0
CIRCLE
  5
262
100
AcDbEntity
  8
0
  6
Continuous
 62
               7
100
AcDbCircle
 10
1075.5411932786797
 20
484.96444424842855
 30
0.0
 40
1.0
  0
CIRCLE
  5
263
100
AcDbEntity
  8
0
  6
Continuous
 62
               7
100
AcDbCircle
 10
1069.0164596800078
 20
507.41003258525154
 30
0.0
 40
0.5
  0
CIRCLE
  5
264
100
AcDbEntity
  8
0
  6
Continuous
 62
               7
100
AcDbCircle
 10
1078.0617957218014
 20
514.57725053436002
 30
0.0
 40
1.0
  0
CIRCLE
  5
265
100
AcDbEntity
  8
0
  6
Continuous
 62
               7
100
AcDbCircle
 10
1077.4924072585925
 20
501.16197962230888
 30
0.0
 40
0.1
  0
CIRCLE
  5
266
100
AcDbEntity
  8
0
  6
Continuous
 62
               7
100
AcDbCircle
 10
1081.4186302305709
 20
489.4191697189292
 30
0.0
 40
0.5
  0
CIRCLE
  5
267
100
AcDbEntity
  8
0
  6
Continuous
 62
               7
100
AcDbCircle
 10
1068.9197400002827
 20
494.69228803491842
 30
0.0
 40
0.1
  0
CIRCLE
  5
268
100
AcDbEntity
  8
0
  6
Continuous
 62
               7
100
AcDbCircle
 10
1071.4595729083255
 20
514.23089851058739
 30
0.0
 40
0.1
  0
CIRCLE
  5
269
100
AcDbEntity
  8
0
  6
Continuous
 62
               7
100
AcDbCircle
 10
1092.2267254356839
 20
485.83976578688157
 30
0.0
 40
1.0
  0
CIRCLE
  5
26A
100
AcDbEntity
  8
0
  6
Continuous
 62
               7
100
AcDbCircle
 10
1085.7019918370124
 20
508.28535412370456
 30
0.0
 40
0.5
  0
CIRCLE
  5
26B
100
AcDbEntity
  8
0
  6
Continuous
 62
               7
100
AcDbCircle
 10
1094.1779394155969
 20
502.03730116076201
 30
0.0
 40
0.1
  0
CIRCLE
  5
26C
100
AcDbEntity
  8
0
  6
Continuous
 62
               7
100
AcDbCircle
 10
1085.6052721572869
 20
495.56760957337144
 30
0.0
 40
0.1
  0
CIRCLE
  5
26D
100
AcDbEntity
  8
0
  6
Continuous
 62
               7
100
AcDbCircle
 10
1088.1451050653302
 20
515.10622004904042
 30
0.0
 40
0.1
  0
CIRCLE
  5
26E
100
AcDbEntity
  8
0
  6
Continuous
 62
               7
100
AcDbCircle
 10
1010.3916945093673
 20
451.104169363908
 30
0.0
 40
1.0
  0
CIRCLE
  5
26F
100
AcDbEntity
  8
0
  6
Continuous
 62
               7
100
AcDbCircle
 10
1012.3429084892803
 20
467.30170473778833
 30
0.0
 40
0.1
  0
CIRCLE
  5
270
100
AcDbEntity
  8
0
  6
Continuous
 62
               7
100
AcDbCircle
 10
1016.2691314612587
 20
455.55889483440865
 30
0.0
 40
0.5
  0
CIRCLE
  5
271
100
AcDbEntity
  8
0
  6
Continuous
 62
               7
100
AcDbCircle
 10
1027.0772266663716
 20
451.97949090236102
 30
0.0
 40
1.0
  0
CIRCLE
  5
272
100
AcDbEntity
  8
0
  6
Continuous
 62
               7
100
AcDbCircle
 10
1013.2392616435422
 20
474.04142776669744
 30
0.0
 40
0.5
  0
CIRCLE
  5
273
100
AcDbEntity
  8
0
  6
Continuous
 62
               7
100
AcDbCircle
 10
1029.0284406462847
 20
468.17702627624135
 30
0.0
 40
0.1
  0
CIRCLE
  5
274
100
AcDbEntity
  8
0
  6
Continuous
 62
               7
100
AcDbCircle
 10
1032.9546636182631
 20
456.43421637286167
 30
0.0
 40
0.5
  0
CIRCLE
  5
275
100
AcDbEntity
  8
0
  6
Continuous
 62
               7
100
AcDbCircle
 10
1020.4557733879747
 20
461.70733468885089
 30
0.0
 40
0.1
  0
CIRCLE
  5
276
100
AcDbEntity
  8
0
  6
Continuous
 62
               7
100
AcDbCircle
 10
1021.8778744030924
 20
449.16042857028469
 30
0.0
 40
0.1
  0
CIRCLE
  5
277
100
AcDbEntity
  8
0
  6
Continuous
 62
               7
100
AcDbCircle
 10
1043.7627588233763
 20
452.85481244081416
 30
0.0
 40
1.0
  0
CIRCLE
  5
278
100
AcDbEntity
  8
0
  6
Continuous
 62
               7
100
AcDbCircle
 10
1029.9247938005467
 20
474.91674930515046
 30
0.0
 40
0.5
  0
CIRCLE
  5
279
100
AcDbEntity
  8
0
  6
Continuous
 62
               7
100
AcDbCircle
 10
1045.7139728032894
 20
469.05234781469449
 30
0.0
 40
0.1
  0
CIRCLE
  5
27A
100
AcDbEntity
  8
0
  6
Continuous
 62
               7
100
AcDbCircle
 10
1049.6401957752678
 20
457.30953791131469
 30
0.0
 40
0.5
  0
CIRCLE
  5
27B
100
AcDbEntity
  8
0
  6
Continuous
 62
               7
100
AcDbCircle
 10
1037.1413055449793
 20
462.58265622730391
 30
0.0
 40
0.1
  0
CIRCLE
  5
27C
100
AcDbEntity
  8
0
  6
Continuous
 62
               7
100
AcDbCircle
 10
1038.5634065600966
 20
450.03575010873783
 30
0.0
 40
0.1
  0
CIRCLE
  5
27D
100
AcDbEntity
  8
0
  6
Continuous
 62
               7
100
AcDbCircle
 10
1060.448290980381
 20
453.73013397926718
 30
0.0
 40
1.0
  0
CIRCLE
  5
27E
100
AcDbEntity
  8
0
  6
Continuous
 62
               7
100
AcDbCircle
 10
1046.6103259575511
 20
475.7920708436036
 30
0.0
 40
0.5
  0
CIRCLE
  5
27F
100
AcDbEntity
  8
0
  6
Continuous
 62
               7
100
AcDbCircle
 10
1062.3995049602938
 20
469.92766935314751
 30
0.0
 40
0.1
  0
CIRCLE
  5
280
100
AcDbEntity
  8
0
  6
Continuous
 62
               7
100
AcDbCircle
 10
1066.3257279322722
 20
458.18485944976771
 30
0.0
 40
0.5
  0
CIRCLE
  5
281
100
AcDbEntity
  8
0
  6
Continuous
 62
               7
100
AcDbCircle
 10
1053.8268377019838
 20
463.45797776575694
 30
0.0
 40
0.1
  0
CIRCLE
  5
282
100
AcDbEntity
  8
0
  6
Continuous
 62
               7
100
AcDbCircle
 10
1055.2489387171013
 20
450.91107164719085
 30
0.0
 40
0.1
  0
CIRCLE
  5
283
100
AcDbEntity
  8
0
  6
Continuous
 62
               7
100
AcDbCircle
 10
1077.1338231373854
 20
454.6054555177202
 30
0.0
 40
1.0
  0
CIRCLE
  5
284
100
AcDbEntity
  8
0
  6
Continuous
 62
               7
100
AcDbCircle
 10
1063.2958581145558
 20
476.66739238205662
 30
0.0
 40
0.5
  0
CIRCLE
  5
285
100
AcDbEntity
  8
0
  6
Continuous
 62
               7
100
AcDbCircle
 10
1079.0850371172983
 20
470.80299089160053
 30
0.0
 40
0.1
  0
CIRCLE
  5
286
100
AcDbEntity
  8
0
  6
Continuous
 62
               7
100
AcDbCircle
 10
1083.0112600892767
 20
459.06018098822085
 30
0.0
 40
0.5
  0
CIRCLE
  5
287
100
AcDbEntity
  8
0
  6
Continuous
 62
               7
100
AcDbCircle
 10
1070.5123698589882
 20
464.33329930421007
 30
0.0
 40
0.1
  0
CIRCLE
  5
288
100
AcDbEntity
  8
0
  6
Continuous
 62
               7
100
AcDbCircle
 10
1071.934470874106
 20
451.78639318564387
 30
0.0
 40
0.1
  0
CIRCLE
  5
289
100
AcDbEntity
  8
0
  6
Continuous
 62
               7
100
AcDbCircle
 10
1093.8193552943899
 20
455.48077705617322
 30
0.0
 40
1.0
  0
CIRCLE
  5
28A
100
AcDbEntity
  8
0
  6
Continuous
 62
               7
100
AcDbCircle
 10
1079.9813902715605
 20
477.54271392050964
 30
0.0
 40
0.5
  0
CIRCLE
  5
28B
100
AcDbEntity
  8
0
  6
Continuous
 62
               7
100
AcDbCircle
 10
1095.7705692743029
 20
471.67831243005367
 30
0.0
 40
0.1
  0
CIRCLE
  5
28C
100
AcDbEntity
  8
0
  6
Continuous
 62
               7
100
AcDbCircle
 10
1087.1979020159929
 20
465.20862084266309
 30
0.0
 40
0.1
  0
CIRCLE
  5
28D
100
AcDbEntity
  8
0
  6
Continuous
 62
               7
100
AcDbCircle
 10
1088.6200030311104
 20
452.66171472409701
 30
0.0
 40
0.1
  0
CIRCLE
  5
28E
100
AcDbEntity
  8
0
  6
Continuous
 62
               7
100
AcDbCircle
 10
1101.8732844677911
 20
486.34582341892519
 30
0.0
 40
1.0
  0
CIRCLE
  5
28F
100
AcDbEntity
  8
0
  6
Continuous
 62
               7
100
AcDbCircle
 10
1104.3938869109131
 20
515.95862970485666
 30
0.0
 40
1.0
  0
CIRCLE
  5
290
100
AcDbEntity
  8
0
  6
Continuous
 62
               7
100
AcDbCircle
 10
1103.8244984477039
 20
502.54335879280563
 30
0.0
 40
0.1
  0
CIRCLE
  5
291
100
AcDbEntity
  8
0
  6
Continuous
 62
               7
100
AcDbCircle
 10
1107.7507214196823
 20
490.80054888942584
 30
0.0
 40
0.5
  0
CIRCLE
  5
292
100
AcDbEntity
  8
0
  6
Continuous
 62
               7
100
AcDbCircle
 10
1095.7944104724327
 20
515.50750193289275
 30
0.0
 40
0.1
  0
CIRCLE
  5
293
100
AcDbEntity
  8
0
  6
Continuous
 62
               7
100
AcDbCircle
 10
1118.5588166247956
 20
487.22114495737833
 30
0.0
 40
1.0
  0
CIRCLE
  5
294
100
AcDbEntity
  8
0
  6
Continuous
 62
               7
100
AcDbCircle
 10
1112.0340830261239
 20
509.66673329420132
 30
0.0
 40
0.5
  0
CIRCLE
  5
295
100
AcDbEntity
  8
0
  6
Continuous
 62
               7
100
AcDbCircle
 10
1121.0794190679176
 20
516.83395124330968
 30
0.0
 40
1.0
  0
CIRCLE
  5
296
100
AcDbEntity
  8
0
  6
Continuous
 62
               7
100
AcDbCircle
 10
1120.5100306047086
 20
503.41868033125866
 30
0.0
 40
0.1
  0
CIRCLE
  5
297
100
AcDbEntity
  8
0
  6
Continuous
 62
               7
100
AcDbCircle
 10
1124.436253576687
 20
491.67587042787886
 30
0.0
 40
0.5
  0
CIRCLE
  5
298
100
AcDbEntity
  8
0
  6
Continuous
 62
               7
100
AcDbCircle
 10
1111.9373633463986
 20
496.94898874386809
 30
0.0
 40
0.1
  0
CIRCLE
  5
299
100
AcDbEntity
  8
0
  6
Continuous
 62
               7
100
AcDbCircle
 10
1114.4771962544417
 20
516.48759921953706
 30
0.0
 40
0.1
  0
CIRCLE
  5
29A
100
AcDbEntity
  8
0
  6
Continuous
 62
               7
100
AcDbCircle
 10
1135.2443487818002
 20
488.09646649583135
 30
0.0
 40
1.0
  0
CIRCLE
  5
29B
100
AcDbEntity
  8
0
  6
Continuous
 62
               7
100
AcDbCircle
 10
1128.7196151831283
 20
510.54205483265434
 30
0.0
 40
0.5
  0
CIRCLE
  5
29C
100
AcDbEntity
  8
0
  6
Continuous
 62
               7
100
AcDbCircle
 10
1137.764951224922
 20
517.70927278176282
 30
0.0
 40
1.0
  0
CIRCLE
  5
29D
100
AcDbEntity
  8
0
  6
Continuous
 62
               7
100
AcDbCircle
 10
1137.1955627617131
 20
504.29400186971168
 30
0.0
 40
0.1
  0
CIRCLE
  5
29E
100
AcDbEntity
  8
0
  6
Continuous
 62
               7
100
AcDbCircle
 10
1141.1217857336917
 20
492.551191966332
 30
0.0
 40
0.5
  0
CIRCLE
  5
29F
100
AcDbEntity
  8
0
  6
Continuous
 62
               7
100
AcDbCircle
 10
1128.622895503403
 20
497.82431028232122
 30
0.0
 40
0.1
  0
CIRCLE
  5
2A0
100
AcDbEntity
  8
0
  6
Continuous
 62
               7
100
AcDbCircle
 10
1131.1627284114461
 20
517.3629207579902
 30
0.0
 40
0.1
  0
CIRCLE
  5
2A1
100
AcDbEntity
  8
0
  6
Continuous
 62
               7
100
AcDbCircle
 10
1151.9298809388047
 20
488.97178803428437
 30
0.0
 40
1.0
  0
CIRCLE
  5
2A2
100
AcDbEntity
  8
0
  6
Continuous
 62
               7
100
AcDbCircle
 10
1145.405147340133
 20
511.41737637110737
 30
0.0
 40
0.5
  0
CIRCLE
  5
2A3
100
AcDbEntity
  8
0
  6
Continuous
 62
               7
100
AcDbCircle
 10
1154.4504833819267
 20
518.58459432021584
 30
0.0
 40
1.0
  0
CIRCLE
  5
2A4
100
AcDbEntity
  8
0
  6
Continuous
 62
               7
100
AcDbCircle
 10
1153.8810949187177
 20
505.1693234081647
 30
0.0
 40
0.1
  0
CIRCLE
  5
2A5
100
AcDbEntity
  8
0
  6
Continuous
 62
               7
100
AcDbCircle
 10
1157.8073178906961
 20
493.42651350478502
 30
0.0
 40
0.5
  0
CIRCLE
  5
2A6
100
AcDbEntity
  8
0
  6
Continuous
 62
               7
100
AcDbCircle
 10
1145.3084276604077
 20
498.69963182077424
 30
0.0
 40
0.1
  0
CIRCLE
  5
2A7
100
AcDbEntity
  8
0
  6
Continuous
 62
               7
100
AcDbCircle
 10
1147.848260568451
 20
518.23824229644322
 30
0.0
 40
0.1
  0
CIRCLE
  5
2A8
100
AcDbEntity
  8
0
  6
Continuous
 62
               7
100
AcDbCircle
 10
1162.0906794971377
 20
512.2926979095605
 30
0.0
 40
0.5
  0
CIRCLE
  5
2A9
100
AcDbEntity
  8
0
  6
Continuous
 62
               7
100
AcDbCircle
 10
1161.9939598174121
 20
499.57495335922727
 30
0.0
 40
0.1
  0
CIRCLE
  5
2AA
100
AcDbEntity
  8
0
  6
Continuous
 62
               7
100
AcDbCircle
 10
1103.4659143264969
 20
455.98683468821696
 30
0.0
 40
1.0
  0
CIRCLE
  5
2AB
100
AcDbEntity
  8
0
  6
Continuous
 62
               7
100
AcDbCircle
 10
1105.4171283064099
 20
472.18437006209729
 30
0.0
 40
0.1
  0
CIRCLE
  5
2AC
100
AcDbEntity
  8
0
  6
Continuous
 62
               7
100
AcDbCircle
 10
1109.3433512783884
 20
460.44156015871749
 30
0.0
 40
0.5
  0
CIRCLE
  5
2AD
100
AcDbEntity
  8
0
  6
Continuous
 62
               7
100
AcDbCircle
 10
1120.1514464835016
 20
456.86215622666998
 30
0.0
 40
1.0
  0
CIRCLE
  5
2AE
100
AcDbEntity
  8
0
  6
Continuous
 62
               7
100
AcDbCircle
 10
1106.3134814606719
 20
478.92409309100628
 30
0.0
 40
0.5
  0
CIRCLE
  5
2AF
100
AcDbEntity
  8
0
  6
Continuous
 62
               7
100
AcDbCircle
 10
1122.1026604634144
 20
473.05969160055031
 30
0.0
 40
0.1
  0
CIRCLE
  5
2B0
100
AcDbEntity
  8
0
  6
Continuous
 62
               7
100
AcDbCircle
 10
1126.0288834353928
 20
461.31688169717052
 30
0.0
 40
0.5
  0
CIRCLE
  5
2B1
100
AcDbEntity
  8
0
  6
Continuous
 62
               7
100
AcDbCircle
 10
1113.5299932051043
 20
466.59000001315974
 30
0.0
 40
0.1
  0
CIRCLE
  5
2B2
100
AcDbEntity
  8
0
  6
Continuous
 62
               7
100
AcDbCircle
 10
1114.9520942202219
 20
454.04309389459365
 30
0.0
 40
0.1
  0
CIRCLE
  5
2B3
100
AcDbEntity
  8
0
  6
Continuous
 62
               7
100
AcDbCircle
 10
1136.836978640506
 20
457.737477765123
 30
0.0
 40
1.0
  0
CIRCLE
  5
2B4
100
AcDbEntity
  8
0
  6
Continuous
 62
               7
100
AcDbCircle
 10
1122.9990136176764
 20
479.79941462945942
 30
0.0
 40
0.5
  0
CIRCLE
  5
2B5
100
AcDbEntity
  8
0
  6
Continuous
 62
               7
100
AcDbCircle
 10
1138.7881926204191
 20
473.93501313900333
 30
0.0
 40
0.1
  0
CIRCLE
  5
2B6
100
AcDbEntity
  8
0
  6
Continuous
 62
               7
100
AcDbCircle
 10
1142.7144155923975
 20
462.19220323562365
 30
0.0
 40
0.5
  0
CIRCLE
  5
2B7
100
AcDbEntity
  8
0
  6
Continuous
 62
               7
100
AcDbCircle
 10
1130.215525362109
 20
467.46532155161287
 30
0.0
 40
0.1
  0
CIRCLE
  5
2B8
100
AcDbEntity
  8
0
  6
Continuous
 62
               7
100
AcDbCircle
 10
1131.6376263772263
 20
454.91841543304668
 30
0.0
 40
0.1
  0
CIRCLE
  5
2B9
100
AcDbEntity
  8
0
  6
Continuous
 62
               7
100
AcDbCircle
 10
1153.5225107975107
 20
458.61279930357603
 30
0.0
 40
1.0
  0
CIRCLE
  5
2BA
100
AcDbEntity
  8
0
  6
Continuous
 62
               7
100
AcDbCircle
 10
1139.6845457746811
 20
480.67473616791244
 30
0.0
 40
0.5
  0
CIRCLE
  5
2BB
100
AcDbEntity
  8
0
  6
Continuous
 62
               7
100
AcDbCircle
 10
1155.4737247774237
 20
474.81033467745635
 30
0.0
 40
0.1
  0
CIRCLE
  5
2BC
100
AcDbEntity
  8
0
  6
Continuous
 62
               7
100
AcDbCircle
 10
1159.3999477494021
 20
463.06752477407667
 30
0.0
 40
0.5
  0
CIRCLE
  5
2BD
100
AcDbEntity
  8
0
  6
Continuous
 62
               7
100
AcDbCircle
 10
1146.9010575191137
 20
468.3406430900659
 30
0.0
 40
0.1
  0
CIRCLE
  5
2BE
100
AcDbEntity
  8
0
  6
Continuous
 62
               7
100
AcDbCircle
 10
1148.323158534231
 20
455.79373697149981
 30
0.0
 40
0.1
  0
CIRCLE
  5
2BF
100
AcDbEntity
  8
0
  6
Continuous
 62
               7
100
AcDbCircle
 10
1156.3700779316855
 20
481.55005770636558
 30
0.0
 40
0.5
  0
CIRCLE
  5
2C0
100
AcDbEntity
  8
0
  6
Continuous
 62
               7
100
AcDbCircle
 10
1163.5865896761181
 20
469.21596462851892
 30
0.0
 40
0.1
  0
CIRCLE
  5
2C1
100
AcDbEntity
  8
0
  6
Continuous
 62
               7
100
AcDbCircle
 10
1165.0086906912359
 20
456.66905850995283
 30
0.0
 40
0.1
  0
ARC
  5
2C2
100
AcDbEntity
  8
0
  6
Continuous
 62
               7
100
AcDbCircle
 10
647.3287752933503
 20
437.66543648536162
 30
0.0
 40
3.0
100
AcDbArc
 50
0.0
 51
78.792475197113802
  0
ARC
  5
2C3
100
AcDbEntity
  8
0
  6
Continuous
 62
               7
100
AcDbCircle
 10
643.12059208527114
 20
441.55757688760764
 30
0.0
 40
3.0
100
AcDbArc
 50
180.0
 51
258.79247519711373
  0
ARC
  5
2C4
100
AcDbEntity
  8
0
  6
Continuous
 62
               7
100
AcDbCircle
 10
646.8287752933503
 20
437.25478683822791
 30
0.0
 40
0.5
100
AcDbArc
 50
0.0
 51
78.792475197113802
  0
ARC
  5
2C5
100
AcDbEntity
  8
0
  6
Continuous
 62
               7
100
AcDbCircle
 10
644.12059208527114
 20
442.37887618187483
 30
0.0
 40
1.0
100
AcDbArc
 50
180.0
 51
258.79247519711379
  0
ARC
  5
2C6
100
AcDbEntity
  8
0
  6
Continuous
 62
               7
100
AcDbCircle
 10
694.96901317664083
 20
412.38899093773523
 30
0.0
 40
75.976783011025262
100
AcDbArc
 50
92.903422266760472
 51
136.21242316700059
  0
ARC
  5
2C7
100
AcDbEntity
  8
0
  6
Continuous
 62
               7
100
AcDbCircle
 10
694.96901317664083
 20
412.38899093773523
 30
0.0
 40
72.976783011025262
100
AcDbArc
 50
98.506934258743286
 51
135.27384486493932
  0
ARC
  5
2C8
100
AcDbEntity
  8
0
  6
Continuous
 62
               7
100
AcDbCircle
 10
748.91240887719209
 20
437.66543648536162
 30
0.0
 40
3.0
100
AcDbArc
 50
101.2075248028862
 51
180.0
  0
ARC
  5
2C9
100
AcDbEntity
  8
0
  6
Continuous
 62
               7
100
AcDbCircle
 10
753.12059208527137
 20
441.55757688760764
 30
0.0
 40
3.0
100
AcDbArc
 50
281.20752480288621
 51
0.0
  0
ARC
  5
2CA
100
AcDbEntity
  8
0
  6
Continuous
 62
               7
100
AcDbCircle
 10
749.41240887719209
 20
437.25478683822791
 30
0.0
 40
0.5
100
AcDbArc
 50
101.2075248028862
 51
180.0
  0
ARC
  5
2CB
100
AcDbEntity
  8
0
  6
Continuous
 62
               7
100
AcDbCircle
 10
752.12059208527137
 20
442.37887618187483
 30
0.0
 40
1.0
100
AcDbArc
 50
281.20752480288616
 51
0.0
  0
ARC
  5
2CC
100
AcDbEntity
  8
0
  6
Continuous
 62
               7
100
AcDbCircle
 10
701.2721709939018
 20
412.38899093773523
 30
0.0
 40
75.976783011025262
100
AcDbArc
 50
43.78757683299964
 51
87.096577733239457
  0
ARC
  5
2CD
100
AcDbEntity
  8
0
  6
Continuous
 62
               7
100
AcDbCircle
 10
701.2721709939018
 20
412.38899093773523
 30
0.0
 40
72.976783011025262
100
AcDbArc
 50
44.726155135060907
 51
81.493065741256714
  0
ARC
  5
2CE
100
AcDbEntity
  8
0
  6
Continuous
 62
               7
100
AcDbCircle
 10
701.03988121952864
 20
454.37434150027798
 30
0.0
 40
34.580609993741909
100
AcDbArc
 50
106.66918903454548
 51
162.16790860386757
  0
ARC
  5
2CF
100
AcDbEntity
  8
0
  6
Continuous
 62
               7
100
AcDbCircle
 10
701.03988121952864
 20
454.37434150027798
 30
0.0
 40
31.580609993741909
100
AcDbArc
 50
108.30614530663711
 51
161.33290966083095
  0
ARC
  5
2D0
100
AcDbEntity
  8
0
  6
Continuous
 62
               7
100
AcDbCircle
 10
675.70698458702725
 20
437.68320451551688
 30
0.0
 40
1.0
100
AcDbArc
 50
0.0
 51
72.406991098185699
  0
ARC
  5
2D1
100
AcDbEntity
  8
0
  6
Continuous
 62
               7
100
AcDbCircle
 10
670.12059208527114
 20
439.18654545539403
 30
0.0
 40
2.0
100
AcDbArc
 50
180.0
 51
269.99999999999994
  0
ARC
  5
2D2
100
AcDbEntity
  8
0
  6
Continuous
 62
               7
100
AcDbCircle
 10
695.20130295101387
 20
454.37434150027798
 30
0.0
 40
34.580609993741909
100
AcDbArc
 50
17.83209139613367
 51
73.330810965454447
  0
ARC
  5
2D3
100
AcDbEntity
  8
0
  6
Continuous
 62
               7
100
AcDbCircle
 10
695.20130295101387
 20
454.37434150027798
 30
0.0
 40
31.580609993741909
100
AcDbArc
 50
18.667090339170372
 51
77.343864691469733
  0
ARC
  5
2D4
100
AcDbEntity
  8
0
  6
Continuous
 62
               7
100
AcDbCircle
 10
720.53419958351515
 20
437.68320451551688
 30
0.0
 40
1.0
100
AcDbArc
 50
107.5930089018143
 51
180.0
  0
ARC
  5
2D5
100
AcDbEntity
  8
0
  6
Continuous
 62
               7
100
AcDbCircle
 10
726.12059208527126
 20
439.18654545539403
 30
0.0
 40
2.0
100
AcDbArc
 50
269.99999999999994
 51
0.0
  0
ARC
  5
2D6
100
AcDbEntity
  8
0
  6
Continuous
 62
               7
100
AcDbCircle
 10
693.12059208527114
 20
484.18654545539425
 30
0.0
 40
2.0
100
AcDbArc
 50
180.0
 51
269.99999999999994
  0
ARC
  5
2D7
100
AcDbEntity
  8
0
  6
Continuous
 62
               7
100
AcDbCircle
 10
693.12059208527114
 20
488.18654545539425
 30
0.0
 40
2.0
100
AcDbArc
 50
89.999999999999957
 51
180.0
  0
ARC
  5
2D8
100
AcDbEntity
  8
0
  6
Continuous
 62
               7
100
AcDbCircle
 10
703.12059208527137
 20
488.18654545539425
 30
0.0
 40
2.0
100
AcDbArc
 50
0.0
 51
89.999999999999957
  0
ARC
  5
2D9
100
AcDbEntity
  8
0
  6
Continuous
 62
               7
100
AcDbCircle
 10
692.12059208527114
 20
485.69087615377498
 30
0.0
 40
2.0
100
AcDbArc
 50
0.0
 51
104.10575193864145
  0
ARC
  5
2DA
100
AcDbEntity
  8
0
  6
Continuous
 62
               4
100
AcDbCircle
 10
548.62059208527114
 20
584.68654545539414
 30
0.0
 40
0.499999999999972
100
AcDbArc
 50
0.0
 51
180.0
  0
ARC
  5
2DB
100
AcDbEntity
  8
0
  6
Continuous
 62
               7
100
AcDbCircle
 10
551.12059208527103
 20
536.68654545539414
 30
0.0
 40
1.5
100
AcDbArc
 50
180.0
 51
0.0
  0
ARC
  5
2DC
100
AcDbEntity
  8
0
  6
Continuous
 62
               4
100
AcDbCircle
 10
545.4491117339636
 20
748.7732850678226
 30
0.0
 40
2.0
100
AcDbArc
 50
86.987212495815413
 51
176.98721249581766
  0
ARC
  5
2DD
100
AcDbEntity
  8
0
  6
Continuous
 62
               4
100
AcDbCircle
 10
553.90941327635619
 20
748.32800603927581
 30
0.0
 40
2.0
100
AcDbArc
 50
8.0699151912738127
 51
86.987212495815697
  0
ARC
  5
2DE
100
AcDbEntity
  8
0
  6
Continuous
 62
               4
100
AcDbCircle
 10
363.51680174891305
 20
757.3472857201715
 30
0.0
 40
3.0
100
AcDbArc
 50
356.98721249581661
 51
86.987212495815911
  0
ARC
  5
2DF
100
AcDbEntity
  8
0
  6
Continuous
 62
               4
100
AcDbCircle
 10
351.85442778078323
 20
752.95417445785199
 30
0.0
 40
8.0
100
AcDbArc
 50
86.987212495814731
 51
170.03964059994635
  0
ARC
  5
2E0
100
AcDbEntity
  8
0
  6
Continuous
 62
               6
100
AcDbCircle
 10
823.97204128241162
 20
511.22713330548459
 30
0.0
 40
0.750000000000032
100
AcDbArc
 50
92.862405226112585
 51
272.86240522610814
  0
ARC
  5
2E1
100
AcDbEntity
  8
0
  6
Continuous
 62
               7
100
AcDbCircle
 10
824.61373966014071
 20
511.40940560732986
 30
0.0
 40
2.900000000000039
100
AcDbArc
 50
92.862405226111662
 51
272.86240522611047
  0
ARC
  5
2E2
100
AcDbEntity
  8
0
  6
Continuous
 62
               6
100
AcDbCircle
 10
843.61075774227061
 20
461.42813221368374
 30
0.0
 40
0.599999999999966
100
AcDbArc
 50
180.0
 51
0.0
  0
TEXT
  5
2E3
100
AcDbEntity
  8
0
 62
               7
100
AcDbText
 10
598.16492843125673
 20
678.99563053278359
 30
0.0
 40
20.0
  1
力板
 41
0.7695
  7
FontTableH_0
 72
               5
 11
638.16492843125673
 21
678.99563053278359
 31
0.0
100
AcDbText
  0
TEXT
  5
2E4
100
AcDbEntity
  8
0
 62
               7
100
AcDbText
 10
585.86577023660811
 20
497.99026196189857
 30
0.0
 40
20.0
  1
樋
 41
0.7695
  7
FontTableH_0
 72
               5
 11
605.86577023660811
 21
497.99026196189857
 31
0.0
100
AcDbText
  0
TEXT
  5
2E5
100
AcDbEntity
  8
0
 62
               7
100
AcDbText
 10
591.23810527275953
 20
540.69363611357289
 30
0.0
 40
20.0
  1
落し口
 41
0.7695
  7
FontTableH_0
 72
               5
 11
651.23810527275953
 21
540.69363611357289
 31
0.0
100
AcDbText
  0
TEXT
  5
2E6
100
AcDbEntity
  8
0
 62
               7
100
AcDbText
 10
658.12059208527114
 20
270.18654545539397
 30
0.0
 40
20.0
  1
450～600
 41
0.7695
  7
FontTableH_0
 72
               5
 11
738.12059208527114
 21
270.18654545539397
 31
0.0
100
AcDbText
  0
TEXT
  5
2E7
100
AcDbEntity
  8
0
 62
               7
100
AcDbText
 10
1044.2603194411363
 20
362.52382699828718
 30
0.0
 40
19.999999999999716
  1
断熱材
 41
0.7695
  7
FontTableH_0
 72
               5
 11
1104.2603194411363
 21
362.52382699828718
 31
0.0
100
AcDbText
  0
TEXT
  5
2E8
100
AcDbEntity
  8
0
 62
               7
100
AcDbText
 10
549.88376683962201
 20
816.07117113289848
 30
0.0
 40
20.0
  1
アルミ笠木（別途）
 41
0.7695
  7
FontTableH_0
 72
               5
 11
729.88376683962201
 21
816.07117113289848
 31
0.0
100
AcDbText
  0
TEXT
  5
2E9
100
AcDbEntity
  8
0
 62
               7
100
AcDbText
 10
783.0107577422707
 20
476.42813221368363
 30
0.0
 40
20.0
  1
50
 50
90.000000000000028
 41
0.7695
  7
FontTableH_0
 72
               5
 11
783.0107577422707
 21
496.42813221368363
 31
0.0
100
AcDbText
  0
TEXT
  5
2EA
100
AcDbEntity
  8
0
 62
               7
100
AcDbText
 10
819.9620506418172
 20
574.15539707711923
 30
0.0
 40
19.999999999999833
  1
20
 50
2.8624052261126209
 41
0.7695
  7
FontTableH_0
 72
               5
 11
839.93709741937391
 21
575.15414941599738
 31
0.0
100
AcDbText
  0
TEXT
  5
2EB
100
AcDbEntity
  8
0
 62
               7
100
AcDbText
 10
874.77357588222753
 20
576.89597333914003
 30
0.0
 40
19.999999999999805
  1
100
 50
2.862405226111532
 41
0.7695
  7
FontTableH_0
 72
               5
 11
904.73614604856289
 21
578.3941018474568
 31
0.0
100
AcDbText
  0
TEXT
  5
2EC
100
AcDbEntity
  8
0
 62
               7
100
AcDbText
 10
703.01590008051994
 20
587.03287917801867
 30
0.0
 40
20.0
  1
軒先唐草
 41
0.7695
  7
FontTableH_0
 72
               5
 11
783.01590008051994
 21
587.03287917802436
 31
0.0
100
AcDbText
  0
TEXT
  5
2ED
100
AcDbEntity
  8
0
 62
               7
100
AcDbText
 10
1192.5583779321973
 20
557.74149075126093
 30
0.0
 40
20.000000000000401
  1
30
 50
272.86240522611263
 41
0.7695
  7
FontTableH_0
 72
               5
 11
1193.5571302710755
 21
537.76644397370433
 31
0.0
100
AcDbText
  0
TEXT
  5
2EE
100
AcDbEntity
  8
0
 62
               7
100
AcDbText
 10
757.13238419885363
 20
650.00127499355835
 30
0.0
 40
20.0
  1
ハーパーズストロングルーフ385
 41
0.7695
  7
FontTableH_0
 72
               5
 11
1047.1323841988537
 21
650.001274993572
 31
0.0
100
AcDbText
  0
TEXT
  5
2EF
100
AcDbEntity
  8
0
 62
               7
100
AcDbText
 10
1195.4297624921951
 20
500.31321574226678
 30
0.0
 40
20.000000000000401
  1
75
 50
272.86240522611257
 41
0.7695
  7
FontTableH_0
 72
               5
 11
1196.4285148310732
 21
480.33816896470984
 31
0.0
100
AcDbText
  0
TEXT
  5
2F0
100
AcDbEntity
  8
0
 62
               7
100
AcDbText
 10
1253.199237596275
 20
37.507677550555059
 30
0.0
 40
15.0
  1
軒先詳細図 【S=1/5】
 41
0.7695
  7
FontTableH_0
 72
               5
 11
1403.199237596275
 21
37.507677550555059
 31
0.0
100
AcDbText
  0
TEXT
  5
2F1
100
AcDbEntity
  8
0
 62
               7
100
AcDbText
 10
74.254845672550005
 20
995.21046947427999
 30
0.0
 40
15.0
  1
ジンクロン 屋上防水改修
 41
0.7695
  7
FontTableH_0
 72
               5
 11
246.75484567255
 21
995.21046947427999
 31
0.0
100
AcDbText
  0
ENDSEC
  0
SECTION
  2
OBJECTS
  0
DICTIONARY
  5
19
100
AcDbDictionary
  3
ACAD_GROUP
350
1A
  3
ACAD_MLINESTYLE
350
1B
  3
DWGPROPS
350
2F2
  0
DICTIONARY
  5
1A
102
{ACAD_REACTORS
330
19
102
}
100
AcDbDictionary
  0
DICTIONARY
  5
1B
102
{ACAD_REACTORS
330
19
102
}
100
AcDbDictionary
  3
STANDARD
350
1C
  0
MLINESTYLE
  5
1C
102
{ACAD_REACTORS
330
1B
102
}
100
AcDbMlineStyle
  2
Standard
 70
               0
  3

 62
               0
 51
90.0
 52
90.0
 71
               2
 49
0.5
 62
             256
  6
ByLayer
 49
-0.5
 62
             256
  6
ByLayer
  0
XRECORD
  5
2F2
100
AcDbXrecord
  1
DWGPROPS COOKIE
  2

  3

  4

  6

  7

  0
ENDSEC
  0
EOF
