  0
SECTION
  2
HEADER
  9
$ACADVER
  1
AC1014
  9
$ACADMAINTVER
 70
               0
  9
$DWGCODEPAGE
  3
ANSI_932
  9
$INSBASE
 10
0.0
 20
0.0
 30
0.0
  9
$EXTMIN
 10
0.0
 20
0.0
 30
0.0
  9
$EXTMAX
 10
1485.0
 20
1050.0
 30
0.0
  9
$LIMMIN
 10
0.0
 20
0.0
  9
$LIMMAX
 10
1485.0
 20
1050.0
  9
$ORTHOMODE
 70
               0
  9
$REGENMODE
 70
               1
  9
$FILLMODE
 70
               1
  9
$QTEXTMODE
 70
               0
  9
$MIRRTEXT
 70
               1
  9
$DRAGMODE
 70
               2
  9
$LTSCALE
 40
5.0
  9
$OSMODE
 70
               0
  9
$ATTMODE
 70
               1
  9
$TEXTSIZE
 40
0.2
  9
$TRACEWID
 40
0.05
  9
$TEXTSTYLE
  7
Standard
  9
$CLAYER
  8
0
  9
$CELTYPE
  6
Continuous
  9
$CECOLOR
 62
             256
  9
$CELTSCALE
 40
1.0
  9
$DELOBJ
 70
               1
  9
$DISPSILH
 70
               0
  9
$DIMSCALE
 40
1.0
  9
$DIMASZ
 40
0.18
  9
$DIMEXO
 40
0.0625
  9
$DIMDLI
 40
0.38
  9
$DIMRND
 40
0.0
  9
$DIMDLE
 40
0.0
  9
$DIMEXE
 40
0.18
  9
$DIMTP
 40
0.0
  9
$DIMTM
 40
0.0
  9
$DIMTXT
 40
0.18
  9
$DIMCEN
 40
0.09
  9
$DIMTSZ
 40
0.0
  9
$DIMTOL
 70
               0
  9
$DIMLIM
 70
               0
  9
$DIMTIH
 70
               1
  9
$DIMTOH
 70
               1
  9
$DIMSE1
 70
               0
  9
$DIMSE2
 70
               0
  9
$DIMTAD
 70
               0
  9
$DIMZIN
 70
               0
  9
$DIMBLK
  1

  9
$DIMASO
 70
               1
  9
$DIMSHO
 70
               1
  9
$DIMPOST
  1

  9
$DIMAPOST
  1

  9
$DIMALT
 70
               0
  9
$DIMALTD
 70
               2
  9
$DIMALTF
 40
25.399999999999999
  9
$DIMLFAC
 40
1.0
  9
$DIMTOFL
 70
               0
  9
$DIMTVP
 40
0.0
  9
$DIMTIX
 70
               0
  9
$DIMSOXD
 70
               0
  9
$DIMSAH
 70
               0
  9
$DIMBLK1
  1

  9
$DIMBLK2
  1

  9
$DIMSTYLE
  2
Standard
  9
$DIMCLRD
 70
               0
  9
$DIMCLRE
 70
               0
  9
$DIMCLRT
 70
               0
  9
$DIMTFAC
 40
1.0
  9
$DIMGAP
 40
0.09
  9
$DIMJUST
 70
               0
  9
$DIMSD1
 70
               0
  9
$DIMSD2
 70
               0
  9
$DIMTOLJ
 70
               1
  9
$DIMTZIN
 70
               0
  9
$DIMALTZ
 70
               0
  9
$DIMALTTZ
 70
               0
  9
$DIMFIT
 70
               3
  9
$DIMUPT
 70
               0
  9
$DIMUNIT
 70
               2
  9
$DIMDEC
 70
               4
  9
$DIMTDEC
 70
               4
  9
$DIMALTU
 70
               2
  9
$DIMALTTD
 70
               2
  9
$DIMTXSTY
  7
Standard
  9
$DIMAUNIT
 70
               0
  9
$LUNITS
 70
               2
  9
$LUPREC
 70
               4
  9
$SKETCHINC
 40
0.1
  9
$FILLETRAD
 40
0.0
  9
$AUNITS
 70
               0
  9
$AUPREC
 70
               0
  9
$MENU
  1
acad
  9
$ELEVATION
 40
0.0
  9
$PELEVATION
 40
0.0
  9
$THICKNESS
 40
0.0
  9
$LIMCHECK
 70
               0
  9
$BLIPMODE
 70
               1
  9
$CHAMFERA
 40
0.0
  9
$CHAMFERB
 40
0.0
  9
$CHAMFERC
 40
0.0
  9
$CHAMFERD
 40
0.0
  9
$SKPOLY
 70
               0
  9
$TDCREATE
 40
0.000000000
  9
$TDUPDATE
 40
0.000000000
  9
$TDINDWG
 40
0.0000000000
  9
$TDUSRTIMER
 40
0.0000000000
  9
$USRTIMER
 70
               1
  9
$ANGBASE
 50
0.0
  9
$ANGDIR
 70
               0
  9
$PDMODE
 70
               0
  9
$PDSIZE
 40
0.0
  9
$PLINEWID
 40
0.0
  9
$COORDS
 70
               0
  9
$SPLFRAME
 70
               0
  9
$SPLINETYPE
 70
               6
  9
$SPLINESEGS
 70
               8
  9
$ATTDIA
 70
               0
  9
$ATTREQ
 70
               1
  9
$HANDLING
 70
               1
  9
$HANDSEED
  5
351
  9
$SURFTAB1
 70
               6
  9
$SURFTAB2
 70
               6
  9
$SURFTYPE
 70
               6
  9
$SURFU
 70
               6
  9
$SURFV
 70
               6
  9
$UCSNAME
  2

  9
$UCSORG
 10
0.0
 20
0.0
 30
0.0
  9
$UCSXDIR
 10
1.0
 20
0.0
 30
0.0
  9
$UCSYDIR
 10
0.0
 20
1.0
 30
0.0
  9
$PUCSNAME
  2

  9
$PUCSORG
 10
0.0
 20
0.0
 30
0.0
  9
$PUCSXDIR
 10
1.0
 20
0.0
 30
0.0
  9
$PUCSYDIR
 10
0.0
 20
1.0
 30
0.0
  9
$USERI1
 70
               0
  9
$USERI2
 70
               0
  9
$USERI3
 70
               0
  9
$USERI4
 70
               0
  9
$USERI5
 70
               0
  9
$USERR1
 40
0.0
  9
$USERR2
 40
0.0
  9
$USERR3
 40
0.0
  9
$USERR4
 40
0.0
  9
$USERR5
 40
0.0
  9
$WORLDVIEW
 70
               1
  9
$SHADEDGE
 70
               3
  9
$SHADEDIF
 70
              70
  9
$TILEMODE
 70
               1
  9
$MAXACTVP
 70
              16
  9
$PINSBASE
 10
0.0
 20
0.0
 30
0.0
  9
$PLIMCHECK
 70
               0
  9
$PEXTMIN
 10
1.0000000000000000E+20
 20
1.0000000000000000E+20
 30
1.0000000000000000E+20
  9
$PEXTMAX
 10
-1.0000000000000000E+20
 20
-1.0000000000000000E+20
 30
-1.0000000000000000E+20
  9
$PLIMMIN
 10
0.0
 20
0.0
  9
$PLIMMAX
 10
12.0
 20
9.0
  9
$UNITMODE
 70
               0
  9
$VISRETAIN
 70
               0
  9
$PLINEGEN
 70
               1
  9
$PSLTSCALE
 70
               0
  9
$TREEDEPTH
 70
            3020
  9
$PICKSTYLE
 70
               1
  9
$CMLSTYLE
  2
Standard
  9
$CMLJUST
 70
               0
  9
$CMLSCALE
 40
1.0
  9
$PROXYGRAPHICS
 70
               0
  9
$MEASUREMENT
 70
               0
  0
ENDSEC
  0
SECTION
  2
CLASSES
  0
CLASS
  1
LWPOLYLINE
  2
AcDbPolyline
  3
"AutoCAD"
 90
        0
280
               0
281
               1
  0
CLASS
  1
IMAGE
  2
AcDbRasterImage
  3
ISM
 90
      127
280
               0
281
               1
  0
CLASS
  1
OLE2FRAME
  2
AcDbOle2Frame
  3
""
 90
        0
280
               0
281
               1
  0
CLASS
  1
HATCH
  2
AcDbHatch
  3
"ACAD_SEDONA"
 90
        0
280
               0
281
               1
  0
CLASS
  1
DICTIONARYVAR
  2
AcDbDictionaryVar
  3
"AutoCAD"
 90
        0
280
               0
281
               0
  0
CLASS
  1
RASTERVARIABLES
  2
AcDbRasterVariables
  3
ISM
 90
        0
280
               0
281
               0
  0
CLASS
  1
IMAGEDEF
  2
AcDbRasterImageDef
  3
ISM
 90
        0
280
               0
281
               0
  0
CLASS
  1
IMAGEDEF_REACTOR
  2
AcDbRasterImageDefReactor
  3
ISM
 90
        1
280
               0
281
               0
  0
CLASS
  1
IDBUFFER
  2
AcDbIdBuffer
  3
"Acad"
 90
        0
280
               0
281
               0
  0
CLASS
  1
SPATIAL_FILTER
  2
AcDbSpatialFilter
  3
"Acad"
 90
        0
280
               0
281
               0
  0
CLASS
  1
XRECORD
  2
AcDbXrecord
  3
"<Built In>"
 90
        0
280
               0
281
               0
  0
CLASS
  1
SORTENTSTABLE
  2
AcDbSortentsTable
  3
"AutoCAD"
 90
        0
280
               0
281
               0
  0
CLASS
  1
LAYER_INDEX
  2
AcDbLayerIndex
  3
"Acad"
 90
        0
280
               0
281
               0
  0
CLASS
  1
SPATIAL_INDEX
  2
AcDbSpatialIndex
  3
"Acad"
 90
        0
280
               0
281
               0
  0
CLASS
  1
OBJECT_PTR
  2
CAseDLPNTableRecord
  3
"ASE-LPNTableRecord"
 90
        1
280
               0
281
               0
  0
CLASS
  1
LAYOUT
  2
AcDbLayout
  3
"AutoCAD 2000"
 90
        0
280
               0
281
               0
  0
CLASS
  1
PLOTSETTINGS
  2
AcDbPlotSettings
  3
"AutoCAD 2000"
 90
        0
280
               0
281
               0
  0
CLASS
  1
ACDBDICTIONARYWDFLT
  2
AcDbDictionaryWithDefault
  3
"AutoCAD 2000"
 90
        0
280
               0
281
               0
  0
CLASS
  1
ACDBPLACEHOLDER
  2
AcDbPlaceHolder
  3
"AutoCAD 2000"
 90
        0
280
               0
281
               0
  0
CLASS
  1
VBA_PROJECT
  2
AcDbVbaProject
  3
"acadvba"
 90
        0
280
               0
281
               0
  0
CLASS
  1
WIPEOUT
  2
AcDbWipeout
  3
WipeOut|AutoCAD Express Tool|expresstools@autodesk.com
 90
      127
280
               0
281
               1
  0
CLASS
  1
WIPEOUTVARIABLES
  2
AcDbWipeoutVariables
  3
WipeOut|AutoCAD Express Tool|expresstools@autodesk.com
 90
        0
280
               0
281
               0
  0
CLASS
  1
RTEXT
  2
RText
  3
RText|AutoCAD Express Tool|expresstools@autodesk.com
 90
        0
280
               0
281
               1
  0
CLASS
  1
ARCALIGNEDTEXT
  2
AcDbArcAlignedText
  3
ATEXT|AutoCAD Express Tool|expresstools@autodesk.com
 90
        0
280
               0
281
               1
  0
ENDSEC
  0
SECTION
  2
TABLES
  0
TABLE
  2
VPORT
  5
7
100
AcDbSymbolTable
 70
               1
  0
VPORT
  5
15
100
AcDbSymbolTableRecord
100
AcDbViewportTableRecord
  2
*ACTIVE
 70
               0
 10
0.0
 20
0.0
 11
1.0
 21
1.0
 12
742.5
 22
525.0
 13
0.0
 23
0.0
 14
10.0
 24
10.0
 15
10.0
 25
10.0
 16
0.0
 26
0.0
 36
1.0
 17
0.0
 27
0.0
 37
0.0
 40
1050.0
 41
1.4142857142857144
 42
50.0
 43
0.0
 44
0.0
 50
0.0
 51
0.0
 71
               0
 72
             100
 73
               1
 74
               1
 75
               0
 76
               0
 77
               0
 78
               0
  0
ENDTAB
  0
TABLE
  2
LTYPE
  5
4
100
AcDbSymbolTable
 70
              24
  0
LTYPE
  5
11
100
AcDbSymbolTableRecord
100
AcDbLinetypeTableRecord
  2
ByBlock
 70
              64
  3

 72
              65
 73
               0
 40
0.0
  0
LTYPE
  5
12
100
AcDbSymbolTableRecord
100
AcDbLinetypeTableRecord
  2
ByLayer
 70
              64
  3

 72
              65
 73
               0
 40
0.0
  0
LTYPE
  5
13
100
AcDbSymbolTableRecord
100
AcDbLinetypeTableRecord
  2
Continuous
 70
              64
  3
Solid line
 72
              65
 73
               0
 40
0.0
  0
LTYPE
  5
1D
100
AcDbSymbolTableRecord
100
AcDbLinetypeTableRecord
  2
DOT
 70
              64
  3
Dot . . . . . . . . . . . . . . . . . . . . . .
 72
              65
 73
               2
 40
6.3499999999999996
 49
0.35
 74
               0
 49
-6.0
 74
               0
  0
LTYPE
  5
1E
100
AcDbSymbolTableRecord
100
AcDbLinetypeTableRecord
  2
DASHED
 70
              64
  3
Dashed __ __ __ __ __ __ __ __ __ __ __ __ __ _
 72
              65
 73
               2
 40
12.699999999999999
 49
6.3499999999999996
 74
               0
 49
-6.3499999999999996
 74
               0
  0
LTYPE
  5
1F
100
AcDbSymbolTableRecord
100
AcDbLinetypeTableRecord
  2
DASHDOT
 70
              64
  3
Dash dot __ . __ . __ . __ . __ . __ . __ . __
 72
              65
 73
               4
 40
25.399999999999999
 49
12.699999999999999
 74
               0
 49
-6.0
 74
               0
 49
0.7
 74
               0
 49
-6.0
 74
               0
  0
LTYPE
  5
20
100
AcDbSymbolTableRecord
100
AcDbLinetypeTableRecord
  2
DIVIDE
 70
              64
  3
Divide ____ . . ____ . . ____ . . ____ . . ____
 72
              65
 73
               6
 40
31.75
 49
12.699999999999999
 74
               0
 49
-6.0
 74
               0
 49
0.875
 74
               0
 49
-6.0
 74
               0
 49
0.875
 74
               0
 49
-6.0
 74
               0
  0
LTYPE
  5
21
100
AcDbSymbolTableRecord
100
AcDbLinetypeTableRecord
  2
HIDDEN
 70
              64
  3
Hidden __ __ __ __ __ __ __ __ __ __ __ __ __ _
 72
              65
 73
               2
 40
9.5250000000000004
 49
6.3499999999999996
 74
               0
 49
-3.1749999999999998
 74
               0
  0
LTYPE
  5
22
100
AcDbSymbolTableRecord
100
AcDbLinetypeTableRecord
  2
CENTER
 70
              64
  3
Center ____ _ ____ _ ____ _ ____ _ ____ _ ____
 72
              65
 73
               4
 40
50.799999999999997
 49
31.75
 74
               0
 49
-6.3499999999999996
 74
               0
 49
6.3499999999999996
 74
               0
 49
-6.3499999999999996
 74
               0
  0
LTYPE
  5
23
100
AcDbSymbolTableRecord
100
AcDbLinetypeTableRecord
  2
PHANTOM
 70
              64
  3
Phantom ______  __  __  ______  __  __  ______
 72
              65
 73
               6
 40
63.5
 49
31.75
 74
               0
 49
-6.3499999999999996
 74
               0
 49
6.3499999999999996
 74
               0
 49
-6.3499999999999996
 74
               0
 49
6.3499999999999996
 74
               0
 49
-6.3499999999999996
 74
               0
  0
LTYPE
  5
24
100
AcDbSymbolTableRecord
100
AcDbLinetypeTableRecord
  2
ACAD_ISO02W100
 70
              64
  3
ISO dash __ __ __ __ __ __ __ __ __ __ __ __ __
 72
              65
 73
               2
 40
15.0
 49
12.0
 74
               0
 49
-3.0
 74
               0
  0
LTYPE
  5
25
100
AcDbSymbolTableRecord
100
AcDbLinetypeTableRecord
  2
ACAD_ISO03W100
 70
              64
  3
ISO dash space __ __ __ __ __ __ __ __ __ __ __ __ __ __
 72
              65
 73
               2
 40
30.0
 49
12.0
 74
               0
 49
-18.0
 74
               0
  0
LTYPE
  5
26
100
AcDbSymbolTableRecord
100
AcDbLinetypeTableRecord
  2
ACAD_ISO04W100
 70
              64
  3
ISO long-dash dot ____ . ____ . ____ . ____ . _
 72
              65
 73
               4
 40
30.0
 49
24.0
 74
               0
 49
-3.0
 74
               0
 49
0.0
 74
               0
 49
-3.0
 74
               0
  0
LTYPE
  5
27
100
AcDbSymbolTableRecord
100
AcDbLinetypeTableRecord
  2
ACAD_ISO05W100
 70
              64
  3
ISO long-dash double-dot ____ .. ____ .. ____ .
 72
              65
 73
               6
 40
33.0
 49
24.0
 74
               0
 49
-3.0
 74
               0
 49
0.0
 74
               0
 49
-3.0
 74
               0
 49
0.0
 74
               0
 49
-3.0
 74
               0
  0
LTYPE
  5
28
100
AcDbSymbolTableRecord
100
AcDbLinetypeTableRecord
  2
ACAD_ISO06W100
 70
              64
  3
ISO long-dash triple-dot ____ ... ____ ... ____
 72
              65
 73
               8
 40
36.0
 49
24.0
 74
               0
 49
-3.0
 74
               0
 49
0.0
 74
               0
 49
-3.0
 74
               0
 49
0.0
 74
               0
 49
-3.0
 74
               0
 49
0.0
 74
               0
 49
-3.0
 74
               0
  0
LTYPE
  5
29
100
AcDbSymbolTableRecord
100
AcDbLinetypeTableRecord
  2
ACAD_ISO07W100
 70
              64
  3
ISO dot . . . . . . . . . . . . . . . . . . . .
 72
              65
 73
               2
 40
3.0
 49
0.0
 74
               0
 49
-3.0
 74
               0
  0
LTYPE
  5
2A
100
AcDbSymbolTableRecord
100
AcDbLinetypeTableRecord
  2
ACAD_ISO08W100
 70
              64
  3
ISO long-dash short-dash ____ __ ____ __ ____ _
 72
              65
 73
               4
 40
36.0
 49
24.0
 74
               0
 49
-3.0
 74
               0
 49
6.0
 74
               0
 49
-3.0
 74
               0
  0
LTYPE
  5
2B
100
AcDbSymbolTableRecord
100
AcDbLinetypeTableRecord
  2
ACAD_ISO09W100
 70
              64
  3
ISO long-dash double-short-dash ____ __ __ ____
 72
              65
 73
               6
 40
45.0
 49
24.0
 74
               0
 49
-3.0
 74
               0
 49
6.0
 74
               0
 49
-3.0
 74
               0
 49
6.0
 74
               0
 49
-3.0
 74
               0
  0
LTYPE
  5
2C
100
AcDbSymbolTableRecord
100
AcDbLinetypeTableRecord
  2
ACAD_ISO10W100
 70
              64
  3
ISO dash dot __ . __ . __ . __ . __ . __ . __ .
 72
              65
 73
               4
 40
18.0
 49
12.0
 74
               0
 49
-3.0
 74
               0
 49
0.0
 74
               0
 49
-3.0
 74
               0
  0
LTYPE
  5
2D
100
AcDbSymbolTableRecord
100
AcDbLinetypeTableRecord
  2
ACAD_ISO11W100
 70
              64
  3
ISO double-dash dot __ __ . __ __ . __ __ . __ 
 72
              65
 73
               6
 40
33.0
 49
12.0
 74
               0
 49
-3.0
 74
               0
 49
12.0
 74
               0
 49
-3.0
 74
               0
 49
0.0
 74
               0
 49
-3.0
 74
               0
  0
LTYPE
  5
2E
100
AcDbSymbolTableRecord
100
AcDbLinetypeTableRecord
  2
ACAD_ISO12W100
 70
              64
  3
ISO dash double-dot __ . . __ . . __ . . __ . .
 72
              65
 73
               6
 40
21.0
 49
12.0
 74
               0
 49
-3.0
 74
               0
 49
0.0
 74
               0
 49
-3.0
 74
               0
 49
0.0
 74
               0
 49
-3.0
 74
               0
  0
LTYPE
  5
2F
100
AcDbSymbolTableRecord
100
AcDbLinetypeTableRecord
  2
ACAD_ISO13W100
 70
              64
  3
ISO double-dash double-dot __ __ . . __ __ . . 
 72
              65
 73
               8
 40
36.0
 49
12.0
 74
               0
 49
-3.0
 74
               0
 49
12.0
 74
               0
 49
-3.0
 74
               0
 49
0.0
 74
               0
 49
-3.0
 74
               0
 49
0.0
 74
               0
 49
-3.0
 74
               0
  0
LTYPE
  5
30
100
AcDbSymbolTableRecord
100
AcDbLinetypeTableRecord
  2
ACAD_ISO14W100
 70
              64
  3
ISO dash triple-dot __ . . . __ . . . __ . . . 
 72
              65
 73
               8
 40
24.0
 49
12.0
 74
               0
 49
-3.0
 74
               0
 49
0.0
 74
               0
 49
-3.0
 74
               0
 49
0.0
 74
               0
 49
-3.0
 74
               0
 49
0.0
 74
               0
 49
-3.0
 74
               0
  0
LTYPE
  5
31
100
AcDbSymbolTableRecord
100
AcDbLinetypeTableRecord
  2
ACAD_ISO15W100
 70
              64
  3
ISO double-dash double-dot __ __ . . __ __ . . 
 72
              65
 73
              10
 40
39.0
 49
12.0
 74
               0
 49
-3.0
 74
               0
 49
12.0
 74
               0
 49
-3.0
 74
               0
 49
0.0
 74
               0
 49
-3.0
 74
               0
 49
0.0
 74
               0
 49
-3.0
 74
               0
 49
0.0
 74
               0
 49
-3.0
 74
               0
  0
ENDTAB
  0
TABLE
  2
LAYER
  5
2
100
AcDbSymbolTable
 70
             256
  0
LAYER
  5
14
100
AcDbSymbolTableRecord
100
AcDbLayerTableRecord
  2
0
 70
               0
 62
               7
  6
Continuous
  0
LAYER
  5
35
100
AcDbSymbolTableRecord
100
AcDbLayerTableRecord
  2
Layer00001
 70
               0
 62
               7
  6
Continuous
  0
LAYER
  5
36
100
AcDbSymbolTableRecord
100
AcDbLayerTableRecord
  2
Layer00002
 70
               0
 62
               7
  6
Continuous
  0
LAYER
  5
37
100
AcDbSymbolTableRecord
100
AcDbLayerTableRecord
  2
Layer00003
 70
               0
 62
               7
  6
Continuous
  0
LAYER
  5
38
100
AcDbSymbolTableRecord
100
AcDbLayerTableRecord
  2
Layer00004
 70
               0
 62
               7
  6
Continuous
  0
LAYER
  5
39
100
AcDbSymbolTableRecord
100
AcDbLayerTableRecord
  2
Layer00005
 70
               0
 62
               7
  6
Continuous
  0
LAYER
  5
3A
100
AcDbSymbolTableRecord
100
AcDbLayerTableRecord
  2
Layer00006
 70
               0
 62
               7
  6
Continuous
  0
LAYER
  5
3B
100
AcDbSymbolTableRecord
100
AcDbLayerTableRecord
  2
Layer00007
 70
               0
 62
               7
  6
Continuous
  0
LAYER
  5
3C
100
AcDbSymbolTableRecord
100
AcDbLayerTableRecord
  2
Layer00008
 70
               0
 62
               7
  6
Continuous
  0
LAYER
  5
3D
100
AcDbSymbolTableRecord
100
AcDbLayerTableRecord
  2
Layer00009
 70
               0
 62
               7
  6
Continuous
  0
LAYER
  5
3E
100
AcDbSymbolTableRecord
100
AcDbLayerTableRecord
  2
Layer00010
 70
               0
 62
               7
  6
Continuous
  0
LAYER
  5
3F
100
AcDbSymbolTableRecord
100
AcDbLayerTableRecord
  2
Layer00011
 70
               0
 62
               7
  6
Continuous
  0
LAYER
  5
40
100
AcDbSymbolTableRecord
100
AcDbLayerTableRecord
  2
Layer00012
 70
               0
 62
               7
  6
Continuous
  0
LAYER
  5
41
100
AcDbSymbolTableRecord
100
AcDbLayerTableRecord
  2
Layer00013
 70
               0
 62
               7
  6
Continuous
  0
LAYER
  5
42
100
AcDbSymbolTableRecord
100
AcDbLayerTableRecord
  2
Layer00014
 70
               0
 62
               7
  6
Continuous
  0
LAYER
  5
43
100
AcDbSymbolTableRecord
100
AcDbLayerTableRecord
  2
Layer00015
 70
               0
 62
               7
  6
Continuous
  0
LAYER
  5
44
100
AcDbSymbolTableRecord
100
AcDbLayerTableRecord
  2
Layer00016
 70
               0
 62
               7
  6
Continuous
  0
LAYER
  5
45
100
AcDbSymbolTableRecord
100
AcDbLayerTableRecord
  2
Layer00017
 70
               0
 62
               7
  6
Continuous
  0
LAYER
  5
46
100
AcDbSymbolTableRecord
100
AcDbLayerTableRecord
  2
Layer00018
 70
               0
 62
               7
  6
Continuous
  0
LAYER
  5
47
100
AcDbSymbolTableRecord
100
AcDbLayerTableRecord
  2
Layer00019
 70
               0
 62
               7
  6
Continuous
  0
LAYER
  5
48
100
AcDbSymbolTableRecord
100
AcDbLayerTableRecord
  2
Layer00020
 70
               0
 62
               7
  6
Continuous
  0
LAYER
  5
49
100
AcDbSymbolTableRecord
100
AcDbLayerTableRecord
  2
Layer00021
 70
               0
 62
               7
  6
Continuous
  0
LAYER
  5
4A
100
AcDbSymbolTableRecord
100
AcDbLayerTableRecord
  2
Layer00022
 70
               0
 62
               7
  6
Continuous
  0
LAYER
  5
4B
100
AcDbSymbolTableRecord
100
AcDbLayerTableRecord
  2
Layer00023
 70
               0
 62
               7
  6
Continuous
  0
LAYER
  5
4C
100
AcDbSymbolTableRecord
100
AcDbLayerTableRecord
  2
Layer00024
 70
               0
 62
               7
  6
Continuous
  0
LAYER
  5
4D
100
AcDbSymbolTableRecord
100
AcDbLayerTableRecord
  2
Layer00025
 70
               0
 62
               7
  6
Continuous
  0
LAYER
  5
4E
100
AcDbSymbolTableRecord
100
AcDbLayerTableRecord
  2
Layer00026
 70
               0
 62
               7
  6
Continuous
  0
LAYER
  5
4F
100
AcDbSymbolTableRecord
100
AcDbLayerTableRecord
  2
Layer00027
 70
               0
 62
               7
  6
Continuous
  0
LAYER
  5
50
100
AcDbSymbolTableRecord
100
AcDbLayerTableRecord
  2
Layer00028
 70
               0
 62
               7
  6
Continuous
  0
LAYER
  5
51
100
AcDbSymbolTableRecord
100
AcDbLayerTableRecord
  2
Layer00029
 70
               0
 62
               7
  6
Continuous
  0
LAYER
  5
52
100
AcDbSymbolTableRecord
100
AcDbLayerTableRecord
  2
Layer00030
 70
               0
 62
               7
  6
Continuous
  0
LAYER
  5
53
100
AcDbSymbolTableRecord
100
AcDbLayerTableRecord
  2
Layer00031
 70
               0
 62
               7
  6
Continuous
  0
LAYER
  5
54
100
AcDbSymbolTableRecord
100
AcDbLayerTableRecord
  2
Layer00032
 70
               0
 62
               7
  6
Continuous
  0
LAYER
  5
55
100
AcDbSymbolTableRecord
100
AcDbLayerTableRecord
  2
Layer00033
 70
               0
 62
               7
  6
Continuous
  0
LAYER
  5
56
100
AcDbSymbolTableRecord
100
AcDbLayerTableRecord
  2
Layer00034
 70
               0
 62
               7
  6
Continuous
  0
LAYER
  5
57
100
AcDbSymbolTableRecord
100
AcDbLayerTableRecord
  2
Layer00035
 70
               0
 62
               7
  6
Continuous
  0
LAYER
  5
58
100
AcDbSymbolTableRecord
100
AcDbLayerTableRecord
  2
Layer00036
 70
               0
 62
               7
  6
Continuous
  0
LAYER
  5
59
100
AcDbSymbolTableRecord
100
AcDbLayerTableRecord
  2
Layer00037
 70
               0
 62
               7
  6
Continuous
  0
LAYER
  5
5A
100
AcDbSymbolTableRecord
100
AcDbLayerTableRecord
  2
Layer00038
 70
               0
 62
               7
  6
Continuous
  0
LAYER
  5
5B
100
AcDbSymbolTableRecord
100
AcDbLayerTableRecord
  2
Layer00039
 70
               0
 62
               7
  6
Continuous
  0
LAYER
  5
5C
100
AcDbSymbolTableRecord
100
AcDbLayerTableRecord
  2
Layer00040
 70
               0
 62
               7
  6
Continuous
  0
LAYER
  5
5D
100
AcDbSymbolTableRecord
100
AcDbLayerTableRecord
  2
Layer00041
 70
               0
 62
               7
  6
Continuous
  0
LAYER
  5
5E
100
AcDbSymbolTableRecord
100
AcDbLayerTableRecord
  2
Layer00042
 70
               0
 62
               7
  6
Continuous
  0
LAYER
  5
5F
100
AcDbSymbolTableRecord
100
AcDbLayerTableRecord
  2
Layer00043
 70
               0
 62
               7
  6
Continuous
  0
LAYER
  5
60
100
AcDbSymbolTableRecord
100
AcDbLayerTableRecord
  2
Layer00044
 70
               0
 62
               7
  6
Continuous
  0
LAYER
  5
61
100
AcDbSymbolTableRecord
100
AcDbLayerTableRecord
  2
Layer00045
 70
               0
 62
               7
  6
Continuous
  0
LAYER
  5
62
100
AcDbSymbolTableRecord
100
AcDbLayerTableRecord
  2
Layer00046
 70
               0
 62
               7
  6
Continuous
  0
LAYER
  5
63
100
AcDbSymbolTableRecord
100
AcDbLayerTableRecord
  2
Layer00047
 70
               0
 62
               7
  6
Continuous
  0
LAYER
  5
64
100
AcDbSymbolTableRecord
100
AcDbLayerTableRecord
  2
Layer00048
 70
               0
 62
               7
  6
Continuous
  0
LAYER
  5
65
100
AcDbSymbolTableRecord
100
AcDbLayerTableRecord
  2
Layer00049
 70
               0
 62
               7
  6
Continuous
  0
LAYER
  5
66
100
AcDbSymbolTableRecord
100
AcDbLayerTableRecord
  2
Layer00050
 70
               0
 62
               7
  6
Continuous
  0
LAYER
  5
67
100
AcDbSymbolTableRecord
100
AcDbLayerTableRecord
  2
Layer00051
 70
               0
 62
               7
  6
Continuous
  0
LAYER
  5
68
100
AcDbSymbolTableRecord
100
AcDbLayerTableRecord
  2
Layer00052
 70
               0
 62
               7
  6
Continuous
  0
LAYER
  5
69
100
AcDbSymbolTableRecord
100
AcDbLayerTableRecord
  2
Layer00053
 70
               0
 62
               7
  6
Continuous
  0
LAYER
  5
6A
100
AcDbSymbolTableRecord
100
AcDbLayerTableRecord
  2
Layer00054
 70
               0
 62
               7
  6
Continuous
  0
LAYER
  5
6B
100
AcDbSymbolTableRecord
100
AcDbLayerTableRecord
  2
Layer00055
 70
               0
 62
               7
  6
Continuous
  0
LAYER
  5
6C
100
AcDbSymbolTableRecord
100
AcDbLayerTableRecord
  2
Layer00056
 70
               0
 62
               7
  6
Continuous
  0
LAYER
  5
6D
100
AcDbSymbolTableRecord
100
AcDbLayerTableRecord
  2
Layer00057
 70
               0
 62
               7
  6
Continuous
  0
LAYER
  5
6E
100
AcDbSymbolTableRecord
100
AcDbLayerTableRecord
  2
Layer00058
 70
               0
 62
               7
  6
Continuous
  0
LAYER
  5
6F
100
AcDbSymbolTableRecord
100
AcDbLayerTableRecord
  2
Layer00059
 70
               0
 62
               7
  6
Continuous
  0
LAYER
  5
70
100
AcDbSymbolTableRecord
100
AcDbLayerTableRecord
  2
Layer00060
 70
               0
 62
               7
  6
Continuous
  0
LAYER
  5
71
100
AcDbSymbolTableRecord
100
AcDbLayerTableRecord
  2
Layer00061
 70
               0
 62
               7
  6
Continuous
  0
LAYER
  5
72
100
AcDbSymbolTableRecord
100
AcDbLayerTableRecord
  2
Layer00062
 70
               0
 62
               7
  6
Continuous
  0
LAYER
  5
73
100
AcDbSymbolTableRecord
100
AcDbLayerTableRecord
  2
Layer00063
 70
               0
 62
               7
  6
Continuous
  0
LAYER
  5
74
100
AcDbSymbolTableRecord
100
AcDbLayerTableRecord
  2
Layer00064
 70
               0
 62
               7
  6
Continuous
  0
LAYER
  5
75
100
AcDbSymbolTableRecord
100
AcDbLayerTableRecord
  2
Layer00065
 70
               0
 62
               7
  6
Continuous
  0
LAYER
  5
76
100
AcDbSymbolTableRecord
100
AcDbLayerTableRecord
  2
Layer00066
 70
               0
 62
               7
  6
Continuous
  0
LAYER
  5
77
100
AcDbSymbolTableRecord
100
AcDbLayerTableRecord
  2
Layer00067
 70
               0
 62
               7
  6
Continuous
  0
LAYER
  5
78
100
AcDbSymbolTableRecord
100
AcDbLayerTableRecord
  2
Layer00068
 70
               0
 62
               7
  6
Continuous
  0
LAYER
  5
79
100
AcDbSymbolTableRecord
100
AcDbLayerTableRecord
  2
Layer00069
 70
               0
 62
               7
  6
Continuous
  0
LAYER
  5
7A
100
AcDbSymbolTableRecord
100
AcDbLayerTableRecord
  2
Layer00070
 70
               0
 62
               7
  6
Continuous
  0
LAYER
  5
7B
100
AcDbSymbolTableRecord
100
AcDbLayerTableRecord
  2
Layer00071
 70
               0
 62
               7
  6
Continuous
  0
LAYER
  5
7C
100
AcDbSymbolTableRecord
100
AcDbLayerTableRecord
  2
Layer00072
 70
               0
 62
               7
  6
Continuous
  0
LAYER
  5
7D
100
AcDbSymbolTableRecord
100
AcDbLayerTableRecord
  2
Layer00073
 70
               0
 62
               7
  6
Continuous
  0
LAYER
  5
7E
100
AcDbSymbolTableRecord
100
AcDbLayerTableRecord
  2
Layer00074
 70
               0
 62
               7
  6
Continuous
  0
LAYER
  5
7F
100
AcDbSymbolTableRecord
100
AcDbLayerTableRecord
  2
Layer00075
 70
               0
 62
               7
  6
Continuous
  0
LAYER
  5
80
100
AcDbSymbolTableRecord
100
AcDbLayerTableRecord
  2
Layer00076
 70
               0
 62
               7
  6
Continuous
  0
LAYER
  5
81
100
AcDbSymbolTableRecord
100
AcDbLayerTableRecord
  2
Layer00077
 70
               0
 62
               7
  6
Continuous
  0
LAYER
  5
82
100
AcDbSymbolTableRecord
100
AcDbLayerTableRecord
  2
Layer00078
 70
               0
 62
               7
  6
Continuous
  0
LAYER
  5
83
100
AcDbSymbolTableRecord
100
AcDbLayerTableRecord
  2
Layer00079
 70
               0
 62
               7
  6
Continuous
  0
LAYER
  5
84
100
AcDbSymbolTableRecord
100
AcDbLayerTableRecord
  2
Layer00080
 70
               0
 62
               7
  6
Continuous
  0
LAYER
  5
85
100
AcDbSymbolTableRecord
100
AcDbLayerTableRecord
  2
Layer00081
 70
               0
 62
               7
  6
Continuous
  0
LAYER
  5
86
100
AcDbSymbolTableRecord
100
AcDbLayerTableRecord
  2
Layer00082
 70
               0
 62
               7
  6
Continuous
  0
LAYER
  5
87
100
AcDbSymbolTableRecord
100
AcDbLayerTableRecord
  2
Layer00083
 70
               0
 62
               7
  6
Continuous
  0
LAYER
  5
88
100
AcDbSymbolTableRecord
100
AcDbLayerTableRecord
  2
Layer00084
 70
               0
 62
               7
  6
Continuous
  0
LAYER
  5
89
100
AcDbSymbolTableRecord
100
AcDbLayerTableRecord
  2
Layer00085
 70
               0
 62
               7
  6
Continuous
  0
LAYER
  5
8A
100
AcDbSymbolTableRecord
100
AcDbLayerTableRecord
  2
Layer00086
 70
               0
 62
               7
  6
Continuous
  0
LAYER
  5
8B
100
AcDbSymbolTableRecord
100
AcDbLayerTableRecord
  2
Layer00087
 70
               0
 62
               7
  6
Continuous
  0
LAYER
  5
8C
100
AcDbSymbolTableRecord
100
AcDbLayerTableRecord
  2
Layer00088
 70
               0
 62
               7
  6
Continuous
  0
LAYER
  5
8D
100
AcDbSymbolTableRecord
100
AcDbLayerTableRecord
  2
Layer00089
 70
               0
 62
               7
  6
Continuous
  0
LAYER
  5
8E
100
AcDbSymbolTableRecord
100
AcDbLayerTableRecord
  2
Layer00090
 70
               0
 62
               7
  6
Continuous
  0
LAYER
  5
8F
100
AcDbSymbolTableRecord
100
AcDbLayerTableRecord
  2
Layer00091
 70
               0
 62
               7
  6
Continuous
  0
LAYER
  5
90
100
AcDbSymbolTableRecord
100
AcDbLayerTableRecord
  2
Layer00092
 70
               0
 62
               7
  6
Continuous
  0
LAYER
  5
91
100
AcDbSymbolTableRecord
100
AcDbLayerTableRecord
  2
Layer00093
 70
               0
 62
               7
  6
Continuous
  0
LAYER
  5
92
100
AcDbSymbolTableRecord
100
AcDbLayerTableRecord
  2
Layer00094
 70
               0
 62
               7
  6
Continuous
  0
LAYER
  5
93
100
AcDbSymbolTableRecord
100
AcDbLayerTableRecord
  2
Layer00095
 70
               0
 62
               7
  6
Continuous
  0
LAYER
  5
94
100
AcDbSymbolTableRecord
100
AcDbLayerTableRecord
  2
Layer00096
 70
               0
 62
               7
  6
Continuous
  0
LAYER
  5
95
100
AcDbSymbolTableRecord
100
AcDbLayerTableRecord
  2
Layer00097
 70
               0
 62
               7
  6
Continuous
  0
LAYER
  5
96
100
AcDbSymbolTableRecord
100
AcDbLayerTableRecord
  2
Layer00098
 70
               0
 62
               7
  6
Continuous
  0
LAYER
  5
97
100
AcDbSymbolTableRecord
100
AcDbLayerTableRecord
  2
Layer00099
 70
               0
 62
               7
  6
Continuous
  0
LAYER
  5
98
100
AcDbSymbolTableRecord
100
AcDbLayerTableRecord
  2
Layer00100
 70
               0
 62
               7
  6
Continuous
  0
LAYER
  5
99
100
AcDbSymbolTableRecord
100
AcDbLayerTableRecord
  2
Layer00101
 70
               0
 62
               7
  6
Continuous
  0
LAYER
  5
9A
100
AcDbSymbolTableRecord
100
AcDbLayerTableRecord
  2
Layer00102
 70
               0
 62
               7
  6
Continuous
  0
LAYER
  5
9B
100
AcDbSymbolTableRecord
100
AcDbLayerTableRecord
  2
Layer00103
 70
               0
 62
               7
  6
Continuous
  0
LAYER
  5
9C
100
AcDbSymbolTableRecord
100
AcDbLayerTableRecord
  2
Layer00104
 70
               0
 62
               7
  6
Continuous
  0
LAYER
  5
9D
100
AcDbSymbolTableRecord
100
AcDbLayerTableRecord
  2
Layer00105
 70
               0
 62
               7
  6
Continuous
  0
LAYER
  5
9E
100
AcDbSymbolTableRecord
100
AcDbLayerTableRecord
  2
Layer00106
 70
               0
 62
               7
  6
Continuous
  0
LAYER
  5
9F
100
AcDbSymbolTableRecord
100
AcDbLayerTableRecord
  2
Layer00107
 70
               0
 62
               7
  6
Continuous
  0
LAYER
  5
A0
100
AcDbSymbolTableRecord
100
AcDbLayerTableRecord
  2
Layer00108
 70
               0
 62
               7
  6
Continuous
  0
LAYER
  5
A1
100
AcDbSymbolTableRecord
100
AcDbLayerTableRecord
  2
Layer00109
 70
               0
 62
               7
  6
Continuous
  0
LAYER
  5
A2
100
AcDbSymbolTableRecord
100
AcDbLayerTableRecord
  2
Layer00110
 70
               0
 62
               7
  6
Continuous
  0
LAYER
  5
A3
100
AcDbSymbolTableRecord
100
AcDbLayerTableRecord
  2
Layer00111
 70
               0
 62
               7
  6
Continuous
  0
LAYER
  5
A4
100
AcDbSymbolTableRecord
100
AcDbLayerTableRecord
  2
Layer00112
 70
               0
 62
               7
  6
Continuous
  0
LAYER
  5
A5
100
AcDbSymbolTableRecord
100
AcDbLayerTableRecord
  2
Layer00113
 70
               0
 62
               7
  6
Continuous
  0
LAYER
  5
A6
100
AcDbSymbolTableRecord
100
AcDbLayerTableRecord
  2
Layer00114
 70
               0
 62
               7
  6
Continuous
  0
LAYER
  5
A7
100
AcDbSymbolTableRecord
100
AcDbLayerTableRecord
  2
Layer00115
 70
               0
 62
               7
  6
Continuous
  0
LAYER
  5
A8
100
AcDbSymbolTableRecord
100
AcDbLayerTableRecord
  2
Layer00116
 70
               0
 62
               7
  6
Continuous
  0
LAYER
  5
A9
100
AcDbSymbolTableRecord
100
AcDbLayerTableRecord
  2
Layer00117
 70
               0
 62
               7
  6
Continuous
  0
LAYER
  5
AA
100
AcDbSymbolTableRecord
100
AcDbLayerTableRecord
  2
Layer00118
 70
               0
 62
               7
  6
Continuous
  0
LAYER
  5
AB
100
AcDbSymbolTableRecord
100
AcDbLayerTableRecord
  2
Layer00119
 70
               0
 62
               7
  6
Continuous
  0
LAYER
  5
AC
100
AcDbSymbolTableRecord
100
AcDbLayerTableRecord
  2
Layer00120
 70
               0
 62
               7
  6
Continuous
  0
LAYER
  5
AD
100
AcDbSymbolTableRecord
100
AcDbLayerTableRecord
  2
Layer00121
 70
               0
 62
               7
  6
Continuous
  0
LAYER
  5
AE
100
AcDbSymbolTableRecord
100
AcDbLayerTableRecord
  2
Layer00122
 70
               0
 62
               7
  6
Continuous
  0
LAYER
  5
AF
100
AcDbSymbolTableRecord
100
AcDbLayerTableRecord
  2
Layer00123
 70
               0
 62
               7
  6
Continuous
  0
LAYER
  5
B0
100
AcDbSymbolTableRecord
100
AcDbLayerTableRecord
  2
Layer00124
 70
               0
 62
               7
  6
Continuous
  0
LAYER
  5
B1
100
AcDbSymbolTableRecord
100
AcDbLayerTableRecord
  2
Layer00125
 70
               0
 62
               7
  6
Continuous
  0
LAYER
  5
B2
100
AcDbSymbolTableRecord
100
AcDbLayerTableRecord
  2
Layer00126
 70
               0
 62
               7
  6
Continuous
  0
LAYER
  5
B3
100
AcDbSymbolTableRecord
100
AcDbLayerTableRecord
  2
Layer00127
 70
               0
 62
               7
  6
Continuous
  0
LAYER
  5
B4
100
AcDbSymbolTableRecord
100
AcDbLayerTableRecord
  2
Layer00128
 70
               0
 62
               7
  6
Continuous
  0
LAYER
  5
B5
100
AcDbSymbolTableRecord
100
AcDbLayerTableRecord
  2
Layer00129
 70
               0
 62
               7
  6
Continuous
  0
LAYER
  5
B6
100
AcDbSymbolTableRecord
100
AcDbLayerTableRecord
  2
Layer00130
 70
               0
 62
               7
  6
Continuous
  0
LAYER
  5
B7
100
AcDbSymbolTableRecord
100
AcDbLayerTableRecord
  2
Layer00131
 70
               0
 62
               7
  6
Continuous
  0
LAYER
  5
B8
100
AcDbSymbolTableRecord
100
AcDbLayerTableRecord
  2
Layer00132
 70
               0
 62
               7
  6
Continuous
  0
LAYER
  5
B9
100
AcDbSymbolTableRecord
100
AcDbLayerTableRecord
  2
Layer00133
 70
               0
 62
               7
  6
Continuous
  0
LAYER
  5
BA
100
AcDbSymbolTableRecord
100
AcDbLayerTableRecord
  2
Layer00134
 70
               0
 62
               7
  6
Continuous
  0
LAYER
  5
BB
100
AcDbSymbolTableRecord
100
AcDbLayerTableRecord
  2
Layer00135
 70
               0
 62
               7
  6
Continuous
  0
LAYER
  5
BC
100
AcDbSymbolTableRecord
100
AcDbLayerTableRecord
  2
Layer00136
 70
               0
 62
               7
  6
Continuous
  0
LAYER
  5
BD
100
AcDbSymbolTableRecord
100
AcDbLayerTableRecord
  2
Layer00137
 70
               0
 62
               7
  6
Continuous
  0
LAYER
  5
BE
100
AcDbSymbolTableRecord
100
AcDbLayerTableRecord
  2
Layer00138
 70
               0
 62
               7
  6
Continuous
  0
LAYER
  5
BF
100
AcDbSymbolTableRecord
100
AcDbLayerTableRecord
  2
Layer00139
 70
               0
 62
               7
  6
Continuous
  0
LAYER
  5
C0
100
AcDbSymbolTableRecord
100
AcDbLayerTableRecord
  2
Layer00140
 70
               0
 62
               7
  6
Continuous
  0
LAYER
  5
C1
100
AcDbSymbolTableRecord
100
AcDbLayerTableRecord
  2
Layer00141
 70
               0
 62
               7
  6
Continuous
  0
LAYER
  5
C2
100
AcDbSymbolTableRecord
100
AcDbLayerTableRecord
  2
Layer00142
 70
               0
 62
               7
  6
Continuous
  0
LAYER
  5
C3
100
AcDbSymbolTableRecord
100
AcDbLayerTableRecord
  2
Layer00143
 70
               0
 62
               7
  6
Continuous
  0
LAYER
  5
C4
100
AcDbSymbolTableRecord
100
AcDbLayerTableRecord
  2
Layer00144
 70
               0
 62
               7
  6
Continuous
  0
LAYER
  5
C5
100
AcDbSymbolTableRecord
100
AcDbLayerTableRecord
  2
Layer00145
 70
               0
 62
               7
  6
Continuous
  0
LAYER
  5
C6
100
AcDbSymbolTableRecord
100
AcDbLayerTableRecord
  2
Layer00146
 70
               0
 62
               7
  6
Continuous
  0
LAYER
  5
C7
100
AcDbSymbolTableRecord
100
AcDbLayerTableRecord
  2
Layer00147
 70
               0
 62
               7
  6
Continuous
  0
LAYER
  5
C8
100
AcDbSymbolTableRecord
100
AcDbLayerTableRecord
  2
Layer00148
 70
               0
 62
               7
  6
Continuous
  0
LAYER
  5
C9
100
AcDbSymbolTableRecord
100
AcDbLayerTableRecord
  2
Layer00149
 70
               0
 62
               7
  6
Continuous
  0
LAYER
  5
CA
100
AcDbSymbolTableRecord
100
AcDbLayerTableRecord
  2
Layer00150
 70
               0
 62
               7
  6
Continuous
  0
LAYER
  5
CB
100
AcDbSymbolTableRecord
100
AcDbLayerTableRecord
  2
Layer00151
 70
               0
 62
               7
  6
Continuous
  0
LAYER
  5
CC
100
AcDbSymbolTableRecord
100
AcDbLayerTableRecord
  2
Layer00152
 70
               0
 62
               7
  6
Continuous
  0
LAYER
  5
CD
100
AcDbSymbolTableRecord
100
AcDbLayerTableRecord
  2
Layer00153
 70
               0
 62
               7
  6
Continuous
  0
LAYER
  5
CE
100
AcDbSymbolTableRecord
100
AcDbLayerTableRecord
  2
Layer00154
 70
               0
 62
               7
  6
Continuous
  0
LAYER
  5
CF
100
AcDbSymbolTableRecord
100
AcDbLayerTableRecord
  2
Layer00155
 70
               0
 62
               7
  6
Continuous
  0
LAYER
  5
D0
100
AcDbSymbolTableRecord
100
AcDbLayerTableRecord
  2
Layer00156
 70
               0
 62
               7
  6
Continuous
  0
LAYER
  5
D1
100
AcDbSymbolTableRecord
100
AcDbLayerTableRecord
  2
Layer00157
 70
               0
 62
               7
  6
Continuous
  0
LAYER
  5
D2
100
AcDbSymbolTableRecord
100
AcDbLayerTableRecord
  2
Layer00158
 70
               0
 62
               7
  6
Continuous
  0
LAYER
  5
D3
100
AcDbSymbolTableRecord
100
AcDbLayerTableRecord
  2
Layer00159
 70
               0
 62
               7
  6
Continuous
  0
LAYER
  5
D4
100
AcDbSymbolTableRecord
100
AcDbLayerTableRecord
  2
Layer00160
 70
               0
 62
               7
  6
Continuous
  0
LAYER
  5
D5
100
AcDbSymbolTableRecord
100
AcDbLayerTableRecord
  2
Layer00161
 70
               0
 62
               7
  6
Continuous
  0
LAYER
  5
D6
100
AcDbSymbolTableRecord
100
AcDbLayerTableRecord
  2
Layer00162
 70
               0
 62
               7
  6
Continuous
  0
LAYER
  5
D7
100
AcDbSymbolTableRecord
100
AcDbLayerTableRecord
  2
Layer00163
 70
               0
 62
               7
  6
Continuous
  0
LAYER
  5
D8
100
AcDbSymbolTableRecord
100
AcDbLayerTableRecord
  2
Layer00164
 70
               0
 62
               7
  6
Continuous
  0
LAYER
  5
D9
100
AcDbSymbolTableRecord
100
AcDbLayerTableRecord
  2
Layer00165
 70
               0
 62
               7
  6
Continuous
  0
LAYER
  5
DA
100
AcDbSymbolTableRecord
100
AcDbLayerTableRecord
  2
Layer00166
 70
               0
 62
               7
  6
Continuous
  0
LAYER
  5
DB
100
AcDbSymbolTableRecord
100
AcDbLayerTableRecord
  2
Layer00167
 70
               0
 62
               7
  6
Continuous
  0
LAYER
  5
DC
100
AcDbSymbolTableRecord
100
AcDbLayerTableRecord
  2
Layer00168
 70
               0
 62
               7
  6
Continuous
  0
LAYER
  5
DD
100
AcDbSymbolTableRecord
100
AcDbLayerTableRecord
  2
Layer00169
 70
               0
 62
               7
  6
Continuous
  0
LAYER
  5
DE
100
AcDbSymbolTableRecord
100
AcDbLayerTableRecord
  2
Layer00170
 70
               0
 62
               7
  6
Continuous
  0
LAYER
  5
DF
100
AcDbSymbolTableRecord
100
AcDbLayerTableRecord
  2
Layer00171
 70
               0
 62
               7
  6
Continuous
  0
LAYER
  5
E0
100
AcDbSymbolTableRecord
100
AcDbLayerTableRecord
  2
Layer00172
 70
               0
 62
               7
  6
Continuous
  0
LAYER
  5
E1
100
AcDbSymbolTableRecord
100
AcDbLayerTableRecord
  2
Layer00173
 70
               0
 62
               7
  6
Continuous
  0
LAYER
  5
E2
100
AcDbSymbolTableRecord
100
AcDbLayerTableRecord
  2
Layer00174
 70
               0
 62
               7
  6
Continuous
  0
LAYER
  5
E3
100
AcDbSymbolTableRecord
100
AcDbLayerTableRecord
  2
Layer00175
 70
               0
 62
               7
  6
Continuous
  0
LAYER
  5
E4
100
AcDbSymbolTableRecord
100
AcDbLayerTableRecord
  2
Layer00176
 70
               0
 62
               7
  6
Continuous
  0
LAYER
  5
E5
100
AcDbSymbolTableRecord
100
AcDbLayerTableRecord
  2
Layer00177
 70
               0
 62
               7
  6
Continuous
  0
LAYER
  5
E6
100
AcDbSymbolTableRecord
100
AcDbLayerTableRecord
  2
Layer00178
 70
               0
 62
               7
  6
Continuous
  0
LAYER
  5
E7
100
AcDbSymbolTableRecord
100
AcDbLayerTableRecord
  2
Layer00179
 70
               0
 62
               7
  6
Continuous
  0
LAYER
  5
E8
100
AcDbSymbolTableRecord
100
AcDbLayerTableRecord
  2
Layer00180
 70
               0
 62
               7
  6
Continuous
  0
LAYER
  5
E9
100
AcDbSymbolTableRecord
100
AcDbLayerTableRecord
  2
Layer00181
 70
               0
 62
               7
  6
Continuous
  0
LAYER
  5
EA
100
AcDbSymbolTableRecord
100
AcDbLayerTableRecord
  2
Layer00182
 70
               0
 62
               7
  6
Continuous
  0
LAYER
  5
EB
100
AcDbSymbolTableRecord
100
AcDbLayerTableRecord
  2
Layer00183
 70
               0
 62
               7
  6
Continuous
  0
LAYER
  5
EC
100
AcDbSymbolTableRecord
100
AcDbLayerTableRecord
  2
Layer00184
 70
               0
 62
               7
  6
Continuous
  0
LAYER
  5
ED
100
AcDbSymbolTableRecord
100
AcDbLayerTableRecord
  2
Layer00185
 70
               0
 62
               7
  6
Continuous
  0
LAYER
  5
EE
100
AcDbSymbolTableRecord
100
AcDbLayerTableRecord
  2
Layer00186
 70
               0
 62
               7
  6
Continuous
  0
LAYER
  5
EF
100
AcDbSymbolTableRecord
100
AcDbLayerTableRecord
  2
Layer00187
 70
               0
 62
               7
  6
Continuous
  0
LAYER
  5
F0
100
AcDbSymbolTableRecord
100
AcDbLayerTableRecord
  2
Layer00188
 70
               0
 62
               7
  6
Continuous
  0
LAYER
  5
F1
100
AcDbSymbolTableRecord
100
AcDbLayerTableRecord
  2
Layer00189
 70
               0
 62
               7
  6
Continuous
  0
LAYER
  5
F2
100
AcDbSymbolTableRecord
100
AcDbLayerTableRecord
  2
Layer00190
 70
               0
 62
               7
  6
Continuous
  0
LAYER
  5
F3
100
AcDbSymbolTableRecord
100
AcDbLayerTableRecord
  2
Layer00191
 70
               0
 62
               7
  6
Continuous
  0
LAYER
  5
F4
100
AcDbSymbolTableRecord
100
AcDbLayerTableRecord
  2
Layer00192
 70
               0
 62
               7
  6
Continuous
  0
LAYER
  5
F5
100
AcDbSymbolTableRecord
100
AcDbLayerTableRecord
  2
Layer00193
 70
               0
 62
               7
  6
Continuous
  0
LAYER
  5
F6
100
AcDbSymbolTableRecord
100
AcDbLayerTableRecord
  2
Layer00194
 70
               0
 62
               7
  6
Continuous
  0
LAYER
  5
F7
100
AcDbSymbolTableRecord
100
AcDbLayerTableRecord
  2
Layer00195
 70
               0
 62
               7
  6
Continuous
  0
LAYER
  5
F8
100
AcDbSymbolTableRecord
100
AcDbLayerTableRecord
  2
Layer00196
 70
               0
 62
               7
  6
Continuous
  0
LAYER
  5
F9
100
AcDbSymbolTableRecord
100
AcDbLayerTableRecord
  2
Layer00197
 70
               0
 62
               7
  6
Continuous
  0
LAYER
  5
FA
100
AcDbSymbolTableRecord
100
AcDbLayerTableRecord
  2
Layer00198
 70
               0
 62
               7
  6
Continuous
  0
LAYER
  5
FB
100
AcDbSymbolTableRecord
100
AcDbLayerTableRecord
  2
Layer00199
 70
               0
 62
               7
  6
Continuous
  0
LAYER
  5
FC
100
AcDbSymbolTableRecord
100
AcDbLayerTableRecord
  2
Layer00200
 70
               0
 62
               7
  6
Continuous
  0
LAYER
  5
FD
100
AcDbSymbolTableRecord
100
AcDbLayerTableRecord
  2
Layer00201
 70
               0
 62
               7
  6
Continuous
  0
LAYER
  5
FE
100
AcDbSymbolTableRecord
100
AcDbLayerTableRecord
  2
Layer00202
 70
               0
 62
               7
  6
Continuous
  0
LAYER
  5
FF
100
AcDbSymbolTableRecord
100
AcDbLayerTableRecord
  2
Layer00203
 70
               0
 62
               7
  6
Continuous
  0
LAYER
  5
100
100
AcDbSymbolTableRecord
100
AcDbLayerTableRecord
  2
Layer00204
 70
               0
 62
               7
  6
Continuous
  0
LAYER
  5
101
100
AcDbSymbolTableRecord
100
AcDbLayerTableRecord
  2
Layer00205
 70
               0
 62
               7
  6
Continuous
  0
LAYER
  5
102
100
AcDbSymbolTableRecord
100
AcDbLayerTableRecord
  2
Layer00206
 70
               0
 62
               7
  6
Continuous
  0
LAYER
  5
103
100
AcDbSymbolTableRecord
100
AcDbLayerTableRecord
  2
Layer00207
 70
               0
 62
               7
  6
Continuous
  0
LAYER
  5
104
100
AcDbSymbolTableRecord
100
AcDbLayerTableRecord
  2
Layer00208
 70
               0
 62
               7
  6
Continuous
  0
LAYER
  5
105
100
AcDbSymbolTableRecord
100
AcDbLayerTableRecord
  2
Layer00209
 70
               0
 62
               7
  6
Continuous
  0
LAYER
  5
106
100
AcDbSymbolTableRecord
100
AcDbLayerTableRecord
  2
Layer00210
 70
               0
 62
               7
  6
Continuous
  0
LAYER
  5
107
100
AcDbSymbolTableRecord
100
AcDbLayerTableRecord
  2
Layer00211
 70
               0
 62
               7
  6
Continuous
  0
LAYER
  5
108
100
AcDbSymbolTableRecord
100
AcDbLayerTableRecord
  2
Layer00212
 70
               0
 62
               7
  6
Continuous
  0
LAYER
  5
109
100
AcDbSymbolTableRecord
100
AcDbLayerTableRecord
  2
Layer00213
 70
               0
 62
               7
  6
Continuous
  0
LAYER
  5
10A
100
AcDbSymbolTableRecord
100
AcDbLayerTableRecord
  2
Layer00214
 70
               0
 62
               7
  6
Continuous
  0
LAYER
  5
10B
100
AcDbSymbolTableRecord
100
AcDbLayerTableRecord
  2
Layer00215
 70
               0
 62
               7
  6
Continuous
  0
LAYER
  5
10C
100
AcDbSymbolTableRecord
100
AcDbLayerTableRecord
  2
Layer00216
 70
               0
 62
               7
  6
Continuous
  0
LAYER
  5
10D
100
AcDbSymbolTableRecord
100
AcDbLayerTableRecord
  2
Layer00217
 70
               0
 62
               7
  6
Continuous
  0
LAYER
  5
10E
100
AcDbSymbolTableRecord
100
AcDbLayerTableRecord
  2
Layer00218
 70
               0
 62
               7
  6
Continuous
  0
LAYER
  5
10F
100
AcDbSymbolTableRecord
100
AcDbLayerTableRecord
  2
Layer00219
 70
               0
 62
               7
  6
Continuous
  0
LAYER
  5
110
100
AcDbSymbolTableRecord
100
AcDbLayerTableRecord
  2
Layer00220
 70
               0
 62
               7
  6
Continuous
  0
LAYER
  5
111
100
AcDbSymbolTableRecord
100
AcDbLayerTableRecord
  2
Layer00221
 70
               0
 62
               7
  6
Continuous
  0
LAYER
  5
112
100
AcDbSymbolTableRecord
100
AcDbLayerTableRecord
  2
Layer00222
 70
               0
 62
               7
  6
Continuous
  0
LAYER
  5
113
100
AcDbSymbolTableRecord
100
AcDbLayerTableRecord
  2
Layer00223
 70
               0
 62
               7
  6
Continuous
  0
LAYER
  5
114
100
AcDbSymbolTableRecord
100
AcDbLayerTableRecord
  2
Layer00224
 70
               0
 62
               7
  6
Continuous
  0
LAYER
  5
115
100
AcDbSymbolTableRecord
100
AcDbLayerTableRecord
  2
Layer00225
 70
               0
 62
               7
  6
Continuous
  0
LAYER
  5
116
100
AcDbSymbolTableRecord
100
AcDbLayerTableRecord
  2
Layer00226
 70
               0
 62
               7
  6
Continuous
  0
LAYER
  5
117
100
AcDbSymbolTableRecord
100
AcDbLayerTableRecord
  2
Layer00227
 70
               0
 62
               7
  6
Continuous
  0
LAYER
  5
118
100
AcDbSymbolTableRecord
100
AcDbLayerTableRecord
  2
Layer00228
 70
               0
 62
               7
  6
Continuous
  0
LAYER
  5
119
100
AcDbSymbolTableRecord
100
AcDbLayerTableRecord
  2
Layer00229
 70
               0
 62
               7
  6
Continuous
  0
LAYER
  5
11A
100
AcDbSymbolTableRecord
100
AcDbLayerTableRecord
  2
Layer00230
 70
               0
 62
               7
  6
Continuous
  0
LAYER
  5
11B
100
AcDbSymbolTableRecord
100
AcDbLayerTableRecord
  2
Layer00231
 70
               0
 62
               7
  6
Continuous
  0
LAYER
  5
11C
100
AcDbSymbolTableRecord
100
AcDbLayerTableRecord
  2
Layer00232
 70
               0
 62
               7
  6
Continuous
  0
LAYER
  5
11D
100
AcDbSymbolTableRecord
100
AcDbLayerTableRecord
  2
Layer00233
 70
               0
 62
               7
  6
Continuous
  0
LAYER
  5
11E
100
AcDbSymbolTableRecord
100
AcDbLayerTableRecord
  2
Layer00234
 70
               0
 62
               7
  6
Continuous
  0
LAYER
  5
11F
100
AcDbSymbolTableRecord
100
AcDbLayerTableRecord
  2
Layer00235
 70
               0
 62
               7
  6
Continuous
  0
LAYER
  5
120
100
AcDbSymbolTableRecord
100
AcDbLayerTableRecord
  2
Layer00236
 70
               0
 62
               7
  6
Continuous
  0
LAYER
  5
121
100
AcDbSymbolTableRecord
100
AcDbLayerTableRecord
  2
Layer00237
 70
               0
 62
               7
  6
Continuous
  0
LAYER
  5
122
100
AcDbSymbolTableRecord
100
AcDbLayerTableRecord
  2
Layer00238
 70
               0
 62
               7
  6
Continuous
  0
LAYER
  5
123
100
AcDbSymbolTableRecord
100
AcDbLayerTableRecord
  2
Layer00239
 70
               0
 62
               7
  6
Continuous
  0
LAYER
  5
124
100
AcDbSymbolTableRecord
100
AcDbLayerTableRecord
  2
Layer00240
 70
               0
 62
               7
  6
Continuous
  0
LAYER
  5
125
100
AcDbSymbolTableRecord
100
AcDbLayerTableRecord
  2
Layer00241
 70
               0
 62
               7
  6
Continuous
  0
LAYER
  5
126
100
AcDbSymbolTableRecord
100
AcDbLayerTableRecord
  2
Layer00242
 70
               0
 62
               7
  6
Continuous
  0
LAYER
  5
127
100
AcDbSymbolTableRecord
100
AcDbLayerTableRecord
  2
Layer00243
 70
               0
 62
               7
  6
Continuous
  0
LAYER
  5
128
100
AcDbSymbolTableRecord
100
AcDbLayerTableRecord
  2
Layer00244
 70
               0
 62
               7
  6
Continuous
  0
LAYER
  5
129
100
AcDbSymbolTableRecord
100
AcDbLayerTableRecord
  2
Layer00245
 70
               0
 62
               7
  6
Continuous
  0
LAYER
  5
12A
100
AcDbSymbolTableRecord
100
AcDbLayerTableRecord
  2
Layer00246
 70
               0
 62
               7
  6
Continuous
  0
LAYER
  5
12B
100
AcDbSymbolTableRecord
100
AcDbLayerTableRecord
  2
Layer00247
 70
               0
 62
               7
  6
Continuous
  0
LAYER
  5
12C
100
AcDbSymbolTableRecord
100
AcDbLayerTableRecord
  2
Layer00248
 70
               0
 62
               7
  6
Continuous
  0
LAYER
  5
12D
100
AcDbSymbolTableRecord
100
AcDbLayerTableRecord
  2
Layer00249
 70
               0
 62
               7
  6
Continuous
  0
LAYER
  5
12E
100
AcDbSymbolTableRecord
100
AcDbLayerTableRecord
  2
Layer00250
 70
               0
 62
               7
  6
Continuous
  0
LAYER
  5
12F
100
AcDbSymbolTableRecord
100
AcDbLayerTableRecord
  2
Layer00251
 70
               0
 62
               7
  6
Continuous
  0
LAYER
  5
130
100
AcDbSymbolTableRecord
100
AcDbLayerTableRecord
  2
Layer00252
 70
               0
 62
               7
  6
Continuous
  0
LAYER
  5
131
100
AcDbSymbolTableRecord
100
AcDbLayerTableRecord
  2
Layer00253
 70
               0
 62
               7
  6
Continuous
  0
LAYER
  5
132
100
AcDbSymbolTableRecord
100
AcDbLayerTableRecord
  2
Layer00254
 70
               0
 62
               7
  6
Continuous
  0
LAYER
  5
133
100
AcDbSymbolTableRecord
100
AcDbLayerTableRecord
  2
Layer00255
 70
               0
 62
               7
  6
Continuous
  0
ENDTAB
  0
TABLE
  2
STYLE
  5
3
100
AcDbSymbolTable
 70
               4
  0
STYLE
  5
17
100
AcDbSymbolTableRecord
100
AcDbTextStyleTableRecord
  2
Standard
 70
               0
 40
0.0
 41
1.0
 50
0.0
 71
               0
 42
0.0
  3
txt.shx
  4
bigfont.shx
  0
STYLE
  5
32
100
AcDbSymbolTableRecord
100
AcDbTextStyleTableRecord
  2
STANDARD_T
 70
               4
 40
0.0
 41
1.0
 50
0.0
 71
               0
 42
0.0
  3
txt.shx
  4
bigfont.shx
  0
STYLE
  5
33
100
AcDbSymbolTableRecord
100
AcDbTextStyleTableRecord
  2
FontTableH_0
 70
               0
 40
0.0
 41
1.0
 50
0.0
 71
               0
 42
0.0
  3
MS Gothic.ttf
  4

1001
ACAD
1000
MS Gothic
1071
    32817
  0
STYLE
  5
34
100
AcDbSymbolTableRecord
100
AcDbTextStyleTableRecord
  2
FontTableV_0
 70
               0
 40
0.0
 41
1.0
 50
0.0
 71
               0
 42
0.0
  3
@MS Gothic.ttf
  4

1001
ACAD
1000
@MS Gothic
1071
    32817
  0
ENDTAB
  0
TABLE
  2
VIEW
  5
5
100
AcDbSymbolTable
 70
               0
  0
ENDTAB
  0
TABLE
  2
UCS
  5
6
100
AcDbSymbolTable
 70
               0
  0
ENDTAB
  0
TABLE
  2
APPID
  5
8
100
AcDbSymbolTable
 70
               1
  0
APPID
  5
16
100
AcDbSymbolTableRecord
100
AcDbRegAppTableRecord
  2
ACAD
 70
               0
  0
ENDTAB
  0
TABLE
  2
DIMSTYLE
  5
9
100
AcDbSymbolTable
 70
               1
  0
DIMSTYLE
105
18
100
AcDbSymbolTableRecord
100
AcDbDimStyleTableRecord
  2
Standard
 70
               0
  3

  4

  5

  6

  7

 40
1.0
 41
0.18
 42
0.0625
 43
0.38
 44
0.18
 45
0.0
 46
0.0
 47
0.0
 48
0.0
 71
               0
 72
               0
 73
               1
 74
               1
 75
               0
 76
               0
 77
               0
 78
               0
140
0.18
141
0.09
142
0.0
143
25.399999999999999
144
1.0
145
0.0
146
1.0
147
0.09
170
               0
171
               2
172
               0
173
               0
174
               0
175
               0
176
               0
177
               0
178
               0
270
               2
271
               4
272
               4
273
               2
274
               2
275
               0
280
               0
281
               0
282
               0
283
               1
284
               0
285
               0
286
               0
287
               0
288
               0
340
17
  0
ENDTAB
  0
TABLE
  2
BLOCK_RECORD
  5
1
100
AcDbSymbolTable
 70
               0
  0
BLOCK_RECORD
  5
A
100
AcDbSymbolTableRecord
100
AcDbBlockTableRecord
  2
*MODEL_SPACE
  0
BLOCK_RECORD
  5
B
100
AcDbSymbolTableRecord
100
AcDbBlockTableRecord
  2
*PAPER_SPACE
  0
ENDTAB
  0
ENDSEC
  0
SECTION
  2
BLOCKS
  0
BLOCK
  5
D
100
AcDbEntity
  8
0
100
AcDbBlockBegin
  2
*MODEL_SPACE
 70
               0
 10
0.0
 20
0.0
 30
0.0
  3
*MODEL_SPACE
  1

  0
ENDBLK
  5
E
100
AcDbEntity
  8
0
100
AcDbBlockEnd
  0
BLOCK
  5
F
100
AcDbEntity
 67
               1
  8
0
100
AcDbBlockBegin
  2
*PAPER_SPACE
 70
               0
 10
0.0
 20
0.0
 30
0.0
  3
*PAPER_SPACE
  1

  0
ENDBLK
  5
10
100
AcDbEntity
 67
               1
  8
0
100
AcDbBlockEnd
  0
ENDSEC
  0
SECTION
  2
ENTITIES
  0
LINE
  5
134
100
AcDbEntity
  8
0
  6
Continuous
 62
               4
100
AcDbLine
 10
734.24725340220834
 20
485.30486507191858
 30
0.0
 11
789.24725340220834
 21
485.30486507191858
 31
0.0
  0
LINE
  5
135
100
AcDbEntity
  8
0
  6
Continuous
 62
               4
100
AcDbLine
 10
784.24725340220834
 20
485.30486507191858
 30
0.0
 11
784.24725340220834
 21
455.30486507191858
 31
0.0
  0
LINE
  5
136
100
AcDbEntity
  8
0
  6
Continuous
 62
               4
100
AcDbLine
 10
726.74725340220834
 20
492.80486507191858
 30
0.0
 11
726.74725340220834
 21
535.30486507191858
 31
0.0
  0
LINE
  5
137
100
AcDbEntity
  8
0
  6
Continuous
 62
               4
100
AcDbLine
 10
701.74725340220857
 20
491.80486507191881
 30
0.0
 11
701.74725340220857
 21
535.30486507191858
 31
0.0
  0
LINE
  5
138
100
AcDbEntity
  8
0
  6
Continuous
 62
               4
100
AcDbLine
 10
726.74725340220834
 20
530.30486507191858
 30
0.0
 11
701.74725340220857
 21
530.30486507191858
 31
0.0
  0
LINE
  5
139
100
AcDbEntity
  8
0
  6
Continuous
 62
               4
100
AcDbLine
 10
726.74725340220834
 20
492.80486507191858
 30
0.0
 11
726.74725340220834
 21
565.30486507191858
 31
0.0
  0
LINE
  5
13A
100
AcDbEntity
  8
0
  6
Continuous
 62
               4
100
AcDbLine
 10
626.74725340220834
 20
560.30486507191858
 30
0.0
 11
726.74725340220834
 21
560.30486507191858
 31
0.0
  0
LINE
  5
13B
100
AcDbEntity
  8
0
  6
Continuous
 62
               4
100
AcDbLine
 10
872.7697229885332
 20
493.6166038217516
 30
0.0
 11
872.7697229885332
 21
565.30486507191858
 31
0.0
  0
LINE
  5
13C
100
AcDbEntity
  8
0
  6
Continuous
 62
               4
100
AcDbLine
 10
726.74725340220834
 20
560.30486507191858
 30
0.0
 11
872.7697229885332
 21
560.30486507191858
 31
0.0
  0
LINE
  5
13D
100
AcDbEntity
  8
0
  6
Continuous
 62
               4
100
AcDbLine
 10
872.7697229885332
 20
560.30486507191858
 30
0.0
 11
1065.2697229885339
 21
560.30486507191858
 31
0.0
  0
LINE
  5
13E
100
AcDbEntity
  8
0
  6
Continuous
 62
               4
100
AcDbLine
 10
701.74725340220834
 20
471.05486507191881
 30
0.0
 11
748.103249435218
 21
517.41086110492824
 31
0.0
  0
LINE
  5
13F
100
AcDbEntity
  8
0
  6
Continuous
 62
               4
100
AcDbLine
 10
748.103249435218
 20
517.41086110492824
 30
0.0
 11
790.94407787096475
 21
517.41086110492824
 31
0.0
  0
LINE
  5
140
100
AcDbEntity
  8
0
  6
Continuous
 62
               4
100
AcDbLine
 10
701.74725340220834
 20
471.05486507191881
 30
0.0
 11
710.35089994747386
 21
483.34214573625354
 31
0.0
  0
LINE
  5
141
100
AcDbEntity
  8
0
  6
Continuous
 62
               4
100
AcDbLine
 10
701.74725340220834
 20
471.05486507191881
 30
0.0
 11
714.0345340665433
 21
479.65851161718433
 31
0.0
  0
LINE
  5
142
100
AcDbEntity
  8
0
  6
Continuous
 62
               4
100
AcDbLine
 10
645.89377745785168
 20
485.30486507191858
 30
0.0
 11
718.79402696882084
 21
611.5718011093652
 31
0.0
  0
LINE
  5
143
100
AcDbEntity
  8
0
  6
Continuous
 62
               4
100
AcDbLine
 10
718.79402696882084
 20
611.5718011093652
 30
0.0
 11
781.47874970631119
 21
611.5718011093652
 31
0.0
  0
LINE
  5
144
100
AcDbEntity
  8
0
  6
Continuous
 62
               4
100
AcDbLine
 10
645.89377745785168
 20
485.30486507191858
 30
0.0
 11
651.02407960773667
 21
499.40025438370731
 31
0.0
  0
LINE
  5
145
100
AcDbEntity
  8
0
  6
Continuous
 62
               4
100
AcDbLine
 10
645.89377745785168
 20
485.30486507191858
 30
0.0
 11
655.53559160314967
 21
496.79553171870339
 31
0.0
  0
LINE
  5
146
100
AcDbEntity
  8
0
  6
Continuous
 62
               4
100
AcDbLine
 10
588.98999373760739
 20
711.21445929743095
 30
0.0
 11
620.71061031730233
 21
766.15617886087398
 31
0.0
  0
LINE
  5
147
100
AcDbEntity
  8
0
  6
Continuous
 62
               4
100
AcDbLine
 10
620.71061031730233
 20
766.15617886087398
 30
0.0
 11
804.61042815655969
 21
766.15617886087398
 31
0.0
  0
LINE
  5
148
100
AcDbEntity
  8
0
  6
Continuous
 62
               4
100
AcDbLine
 10
588.98999373760739
 20
711.21445929743095
 30
0.0
 11
594.1202958874926
 21
725.30984860921944
 31
0.0
  0
LINE
  5
149
100
AcDbEntity
  8
0
  6
Continuous
 62
               4
100
AcDbLine
 10
588.98999373760739
 20
711.21445929743095
 30
0.0
 11
598.6318078829056
 21
722.70512594421552
 31
0.0
  0
LINE
  5
14A
100
AcDbEntity
  8
0
  6
Continuous
 62
               4
100
AcDbLine
 10
1035.3291008357664
 20
455.30486507191858
 30
0.0
 11
980.93434104834591
 21
658.30887226407526
 31
0.0
  0
LINE
  5
14B
100
AcDbEntity
  8
0
  6
Continuous
 62
               4
100
AcDbLine
 10
980.93434104834591
 20
658.30887226407526
 30
0.0
 11
685.55804210315455
 21
658.30887226407526
 31
0.0
  0
LINE
  5
14C
100
AcDbEntity
  8
0
  6
Continuous
 62
               4
100
AcDbLine
 10
1035.3291008357664
 20
455.30486507191858
 30
0.0
 11
1028.9898269096561
 21
468.89948187746836
 31
0.0
  0
LINE
  5
14D
100
AcDbEntity
  8
0
  6
Continuous
 62
               4
100
AcDbLine
 10
1035.3291008357664
 20
455.30486507191858
 30
0.0
 11
1034.0217646945516
 21
470.24778554329487
 31
0.0
  0
LINE
  5
14E
100
AcDbEntity
  8
0
  6
Continuous
 62
               4
100
AcDbLine
 10
1075.2697229885339
 20
485.30486507191881
 30
0.0
 11
1115.2697229885341
 21
485.30486507191881
 31
0.0
  0
LINE
  5
14F
100
AcDbEntity
  8
0
  6
Continuous
 62
               4
100
AcDbLine
 10
1075.2697229885339
 20
455.30486507191858
 30
0.0
 11
1115.2697229885341
 21
455.30486507191858
 31
0.0
  0
LINE
  5
150
100
AcDbEntity
  8
0
  6
Continuous
 62
               4
100
AcDbLine
 10
1110.2697229885341
 20
485.30486507191881
 30
0.0
 11
1110.2697229885341
 21
455.30486507191858
 31
0.0
  0
LINE
  5
151
100
AcDbEntity
  8
0
  6
Continuous
 62
               4
100
AcDbLine
 10
1075.2697229885341
 20
452.30486507191847
 30
0.0
 11
1115.2697229885341
 21
452.30486507191847
 31
0.0
  0
LINE
  5
152
100
AcDbEntity
  8
0
  6
Continuous
 62
               4
100
AcDbLine
 10
1075.2697229885341
 20
377.30486507191847
 30
0.0
 11
1115.2697229885341
 21
377.30486507191847
 31
0.0
  0
LINE
  5
153
100
AcDbEntity
  8
0
  6
Continuous
 62
               4
100
AcDbLine
 10
1110.2697229885341
 20
452.30486507191847
 30
0.0
 11
1110.2697229885341
 21
377.30486507191847
 31
0.0
  0
LINE
  5
154
100
AcDbEntity
  8
0
  6
Continuous
 62
               7
100
AcDbLine
 10
623.34725340220871
 20
455.30486507191858
 30
0.0
 11
623.34725340220871
 21
554.55486507191904
 31
0.0
  0
LINE
  5
155
100
AcDbEntity
  8
0
  6
Continuous
 62
               4
100
AcDbLine
 10
624.34725340220871
 20
452.30486507191858
 30
0.0
 11
870.76972298853457
 21
452.30486507191858
 31
0.0
  0
LINE
  5
156
100
AcDbEntity
  8
0
  6
Continuous
 62
               7
100
AcDbLine
 10
623.34725340220871
 20
455.30486507191858
 30
0.0
 11
842.26972298853184
 21
455.30486507191858
 31
0.0
  0
LINE
  5
157
100
AcDbEntity
  8
0
  6
Continuous
 62
               7
100
AcDbLine
 10
626.74725340220834
 20
485.30486507191881
 30
0.0
 11
724.24725340220834
 21
485.30486507191881
 31
0.0
  0
LINE
  5
158
100
AcDbEntity
  8
0
  6
Continuous
 62
               6
100
AcDbLine
 10
624.04704519888014
 20
481.10486507191877
 30
0.0
 11
624.04724754282756
 21
532.90486507191872
 31
0.0
  0
LINE
  5
159
100
AcDbEntity
  8
0
  6
Continuous
 62
               6
100
AcDbLine
 10
625.24725340220834
 20
482.30486507191881
 30
0.0
 11
625.24725340220834
 21
532.90486507191872
 31
0.0
  0
LINE
  5
15A
100
AcDbEntity
  8
0
  6
Continuous
 62
               6
100
AcDbLine
 10
624.04724754282756
 20
532.90486507191872
 30
0.0
 11
625.24725340220834
 21
532.90486507191872
 31
0.0
  0
LINE
  5
15B
100
AcDbEntity
  8
0
  6
Continuous
 62
               7
100
AcDbLine
 10
626.74725340220834
 20
485.30486507191881
 30
0.0
 11
626.74725340220834
 21
571.2160926448073
 31
0.0
  0
LINE
  5
15C
100
AcDbEntity
  8
0
  6
Continuous
 62
               4
100
AcDbLine
 10
724.49725340220834
 20
483.30486507191881
 30
0.0
 11
657.33362681617996
 21
483.30486507191881
 31
0.0
  0
LINE
  5
15D
100
AcDbEntity
  8
0
  6
Continuous
 62
               4
100
AcDbLine
 10
701.74725340220834
 20
481.80486507191881
 30
0.0
 11
724.49725340220834
 21
481.80486507191881
 31
0.0
  0
LINE
  5
15E
100
AcDbEntity
  8
0
  6
Continuous
 62
               6
100
AcDbLine
 10
625.24725340220834
 20
482.30486507191881
 30
0.0
 11
700.49725340220834
 21
482.30486507191881
 31
0.0
  0
LINE
  5
15F
100
AcDbEntity
  8
0
  6
Continuous
 62
               6
100
AcDbLine
 10
624.04704519888014
 20
481.10486507191877
 30
0.0
 11
699.29725340220853
 21
481.10486507191877
 31
0.0
  0
LINE
  5
160
100
AcDbEntity
  8
0
  6
Continuous
 62
               4
100
AcDbLine
 10
701.74725340220834
 20
481.80486507191881
 30
0.0
 11
701.74725340220834
 21
460.30486507191858
 31
0.0
  0
LINE
  5
161
100
AcDbEntity
  8
0
  6
Continuous
 62
               6
100
AcDbLine
 10
700.49725340220834
 20
482.30486507191881
 30
0.0
 11
700.49725340220834
 21
458.55486507191858
 31
0.0
  0
LINE
  5
162
100
AcDbEntity
  8
0
  6
Continuous
 62
               6
100
AcDbLine
 10
699.29725340220853
 20
481.10486507191877
 30
0.0
 11
699.29725340220853
 21
457.35486507191854
 31
0.0
  0
LINE
  5
163
100
AcDbEntity
  8
0
  6
Continuous
 62
               4
100
AcDbLine
 10
701.74725340220834
 20
460.30486507191858
 30
0.0
 11
730.99725340220834
 21
458.30486507191858
 31
0.0
  0
LINE
  5
164
100
AcDbEntity
  8
0
  6
Continuous
 62
               4
100
AcDbLine
 10
730.99725340220834
 20
456.80486507191858
 30
0.0
 11
721.74725340220834
 21
455.80486507191858
 31
0.0
  0
LINE
  5
165
100
AcDbEntity
  8
0
  6
Continuous
 62
               6
100
AcDbLine
 10
699.29725340220853
 20
457.35486507191854
 30
0.0
 11
719.29725340220853
 21
457.35486507191854
 31
0.0
  0
LINE
  5
166
100
AcDbEntity
  8
0
  6
Continuous
 62
               6
100
AcDbLine
 10
700.49725340220834
 20
458.55486507191858
 30
0.0
 11
719.29725340220853
 21
458.55486507191858
 31
0.0
  0
LINE
  5
167
100
AcDbEntity
  8
0
  6
DASHDOT
 62
               4
100
AcDbLine
 10
626.27042543554785
 20
511.57663887560125
 30
0.0
 11
589.68076667192759
 21
511.57663887560125
 31
0.0
  0
LINE
  5
168
100
AcDbEntity
  8
0
  6
Continuous
 62
               7
100
AcDbLine
 10
626.74725340220834
 20
571.2160926448073
 30
0.0
 11
624.49184077723999
 21
625.62865808067863
 31
0.0
  0
LINE
  5
169
100
AcDbEntity
  8
0
  6
Continuous
 62
               6
100
AcDbLine
 10
719.29725340220853
 20
458.55486507191858
 30
0.0
 11
719.29725340220853
 21
457.35486507191854
 31
0.0
  0
LINE
  5
16A
100
AcDbEntity
  8
0
  6
Continuous
 62
               4
100
AcDbLine
 10
629.34725340220871
 20
516.79852534029828
 30
0.0
 11
628.35323183190826
 21
529.05812470733213
 31
0.0
  0
LINE
  5
16B
100
AcDbEntity
  8
0
  6
Continuous
 62
               7
100
AcDbLine
 10
885.48527490298352
 20
454.30486507191836
 30
0.0
 11
900.26972298853502
 21
454.30486507191858
 31
0.0
  0
LINE
  5
16C
100
AcDbEntity
  8
0
  6
Continuous
 62
               7
100
AcDbLine
 10
845.26972298853411
 20
454.3048650719179
 30
0.0
 11
860.05417107408425
 21
454.30486507191836
 31
0.0
  0
LINE
  5
16D
100
AcDbEntity
  8
0
  6
Continuous
 62
               7
100
AcDbLine
 10
842.26972298853184
 20
455.30486507191858
 30
0.0
 11
845.26972298853411
 21
454.3048650719179
 31
0.0
  0
LINE
  5
16E
100
AcDbEntity
  8
0
  6
Continuous
 62
               7
100
AcDbLine
 10
900.26972298853502
 20
454.30486507191858
 30
0.0
 11
903.26972298853457
 21
455.30486507191858
 31
0.0
  0
LINE
  5
16F
100
AcDbEntity
  8
0
  6
Continuous
 62
               7
100
AcDbLine
 10
869.7697229885332
 20
483.30486507191836
 30
0.0
 11
869.76972298853411
 21
473.05486507191836
 31
0.0
  0
LINE
  5
170
100
AcDbEntity
  8
0
  6
Continuous
 62
               7
100
AcDbLine
 10
873.7697229885332
 20
483.30486507191836
 30
0.0
 11
873.76972298853411
 21
465.19172503856089
 31
0.0
  0
LINE
  5
171
100
AcDbEntity
  8
0
  6
Continuous
 62
               7
100
AcDbLine
 10
871.76972298853411
 20
465.19172503856089
 30
0.0
 11
871.7697229885332
 21
483.89723535277108
 31
0.0
  0
LINE
  5
172
100
AcDbEntity
  8
0
  6
Continuous
 62
               4
100
AcDbLine
 10
870.2697229885332
 20
483.6166038217516
 30
0.0
 11
870.26972298853411
 21
473.05486507191836
 31
0.0
  0
LINE
  5
173
100
AcDbEntity
  8
0
  6
Continuous
 62
               7
100
AcDbLine
 10
870.7697229885332
 20
483.89723535277108
 30
0.0
 11
870.76972298853411
 21
473.05486507191836
 31
0.0
  0
LINE
  5
174
100
AcDbEntity
  8
0
  6
Continuous
 62
               7
100
AcDbLine
 10
871.2697229885332
 20
483.7697112681667
 30
0.0
 11
871.26972298853411
 21
473.05486507191836
 31
0.0
  0
LINE
  5
175
100
AcDbEntity
  8
0
  6
Continuous
 62
               6
100
AcDbLine
 10
630.84947236185712
 20
516.74086420119988
 30
0.0
 11
627.72738976579399
 21
597.83874384585988
 31
0.0
  0
LINE
  5
176
100
AcDbEntity
  8
0
  6
DASHDOT
 62
               4
100
AcDbLine
 10
629.12292380082431
 20
578.7788336878225
 30
0.0
 11
589.68076667192759
 21
578.7788336878225
 31
0.0
  0
LINE
  5
177
100
AcDbEntity
  8
0
  6
Continuous
 62
               7
100
AcDbLine
 10
719.76322117338373
 20
456.48960444105523
 30
0.0
 11
718.57848180424685
 21
455.30486507191858
 31
0.0
  0
LINE
  5
178
100
AcDbEntity
  8
0
  6
Continuous
 62
               7
100
AcDbLine
 10
719.2142682418737
 20
457.35486507191854
 30
0.0
 11
717.16426824187397
 21
455.30486507191858
 31
0.0
  0
LINE
  5
179
100
AcDbEntity
  8
0
  6
Continuous
 62
               7
100
AcDbLine
 10
717.80005467950082
 20
457.35486507191854
 30
0.0
 11
715.75005467950064
 21
455.30486507191858
 31
0.0
  0
LINE
  5
17A
100
AcDbEntity
  8
0
  6
Continuous
 62
               7
100
AcDbLine
 10
716.38584111712748
 20
457.35486507191854
 30
0.0
 11
714.33584111712776
 21
455.30486507191858
 31
0.0
  0
LINE
  5
17B
100
AcDbEntity
  8
0
  6
Continuous
 62
               7
100
AcDbLine
 10
714.9716275547546
 20
457.35486507191854
 30
0.0
 11
712.92162755475442
 21
455.30486507191858
 31
0.0
  0
LINE
  5
17C
100
AcDbEntity
  8
0
  6
Continuous
 62
               7
100
AcDbLine
 10
713.55741399238127
 20
457.35486507191854
 30
0.0
 11
711.50741399238154
 21
455.30486507191858
 31
0.0
  0
LINE
  5
17D
100
AcDbEntity
  8
0
  6
Continuous
 62
               7
100
AcDbLine
 10
712.14320043000839
 20
457.35486507191854
 30
0.0
 11
710.09320043000821
 21
455.30486507191858
 31
0.0
  0
LINE
  5
17E
100
AcDbEntity
  8
0
  6
Continuous
 62
               7
100
AcDbLine
 10
710.72898686763506
 20
457.35486507191854
 30
0.0
 11
708.67898686763533
 21
455.30486507191858
 31
0.0
  0
LINE
  5
17F
100
AcDbEntity
  8
0
  6
Continuous
 62
               7
100
AcDbLine
 10
709.31477330526218
 20
457.35486507191854
 30
0.0
 11
707.264773305262
 21
455.30486507191858
 31
0.0
  0
LINE
  5
180
100
AcDbEntity
  8
0
  6
Continuous
 62
               7
100
AcDbLine
 10
707.90055974288884
 20
457.35486507191854
 30
0.0
 11
705.85055974288912
 21
455.30486507191858
 31
0.0
  0
LINE
  5
181
100
AcDbEntity
  8
0
  6
Continuous
 62
               7
100
AcDbLine
 10
706.48634618051597
 20
457.35486507191854
 30
0.0
 11
704.43634618051578
 21
455.30486507191858
 31
0.0
  0
LINE
  5
182
100
AcDbEntity
  8
0
  6
Continuous
 62
               7
100
AcDbLine
 10
705.07213261814263
 20
457.35486507191854
 30
0.0
 11
703.0221326181429
 21
455.30486507191858
 31
0.0
  0
LINE
  5
183
100
AcDbEntity
  8
0
  6
Continuous
 62
               7
100
AcDbLine
 10
703.65791905576975
 20
457.35486507191854
 30
0.0
 11
701.60791905576957
 21
455.30486507191858
 31
0.0
  0
LINE
  5
184
100
AcDbEntity
  8
0
  6
Continuous
 62
               7
100
AcDbLine
 10
702.24370549339642
 20
457.35486507191854
 30
0.0
 11
700.19370549339669
 21
455.30486507191858
 31
0.0
  0
LINE
  5
185
100
AcDbEntity
  8
0
  6
Continuous
 62
               7
100
AcDbLine
 10
700.82949193102354
 20
457.35486507191854
 30
0.0
 11
699.0522774830913
 21
455.57765062398607
 31
0.0
  0
LINE
  5
186
100
AcDbEntity
  8
0
  6
Continuous
 62
               7
100
AcDbLine
 10
699.41527836865021
 20
457.35486507191854
 30
0.0
 11
698.93901693350813
 21
456.87860363677646
 31
0.0
  0
LINE
  5
187
100
AcDbEntity
  8
0
  6
Continuous
 62
               4
100
AcDbLine
 10
626.34725340220871
 20
639.04404572595013
 30
0.0
 11
629.20900076863404
 21
596.81760460435271
 31
0.0
  0
LINE
  5
188
100
AcDbEntity
  8
0
  6
Continuous
 62
               4
100
AcDbLine
 10
689.96710534394674
 20
483.30486507191881
 30
0.0
 11
689.96710534394674
 21
481.10486507191831
 31
0.0
  0
LINE
  5
189
100
AcDbEntity
  8
0
  6
Continuous
 62
               4
100
AcDbLine
 10
694.16710534394656
 20
483.30486507191881
 30
0.0
 11
694.16710534394701
 21
481.10486507191763
 31
0.0
  0
LINE
  5
18A
100
AcDbEntity
  8
0
  6
Continuous
 62
               4
100
AcDbLine
 10
690.17989246939828
 20
485.25243498451641
 30
0.0
 11
688.11710534394638
 21
483.80486507191881
 31
0.0
  0
LINE
  5
18B
100
AcDbEntity
  8
0
  6
Continuous
 62
               4
100
AcDbLine
 10
693.95431821849456
 20
485.25243498451641
 30
0.0
 11
696.01710534394647
 21
483.80486507191858
 31
0.0
  0
LINE
  5
18C
100
AcDbEntity
  8
0
  6
Continuous
 62
               4
100
AcDbLine
 10
692.06710534394665
 20
479.15092587050185
 30
0.0
 11
692.99294806782495
 21
479.66528293932311
 31
0.0
  0
LINE
  5
18D
100
AcDbEntity
  8
0
  6
Continuous
 62
               4
100
AcDbLine
 10
691.14126262006789
 20
479.66528293932311
 30
0.0
 11
692.06710534394665
 21
479.15092587050185
 31
0.0
  0
LINE
  5
18E
100
AcDbEntity
  8
0
  6
Continuous
 62
               4
100
AcDbLine
 10
690.96710534394674
 20
484.84315663828534
 30
0.0
 11
690.96710534394674
 21
483.80486507191881
 31
0.0
  0
LINE
  5
18F
100
AcDbEntity
  8
0
  6
Continuous
 62
               4
100
AcDbLine
 10
693.16710534394656
 20
484.84315663828534
 30
0.0
 11
693.16710534394656
 21
483.80486507191881
 31
0.0
  0
LINE
  5
190
100
AcDbEntity
  8
0
  6
Continuous
 62
               4
100
AcDbLine
 10
688.11710534394638
 20
483.80486507191881
 30
0.0
 11
696.01710534394647
 21
483.80486507191858
 31
0.0
  0
LINE
  5
191
100
AcDbEntity
  8
0
  6
Continuous
 62
               4
100
AcDbLine
 10
688.11710534394638
 20
483.30486507191881
 30
0.0
 11
696.01710534394647
 21
483.30486507191881
 31
0.0
  0
LINE
  5
192
100
AcDbEntity
  8
0
  6
Continuous
 62
               4
100
AcDbLine
 10
688.11708092988397
 20
483.80486507191881
 30
0.0
 11
688.11710534394638
 21
483.30486507191881
 31
0.0
  0
LINE
  5
193
100
AcDbEntity
  8
0
  6
Continuous
 62
               4
100
AcDbLine
 10
696.01710534394647
 20
483.80486507191858
 30
0.0
 11
696.01710534394647
 21
483.30486507191881
 31
0.0
  0
LINE
  5
194
100
AcDbEntity
  8
0
  6
Continuous
 62
               7
100
AcDbLine
 10
724.24725340220834
 20
480.30486507191881
 30
0.0
 11
709.33484788476085
 21
478.61179624199417
 31
0.0
  0
LINE
  5
195
100
AcDbEntity
  8
0
  6
Continuous
 62
               4
100
AcDbLine
 10
1065.2697229885341
 20
452.30486507191858
 30
0.0
 11
874.76972298853457
 21
452.30486507191858
 31
0.0
  0
LINE
  5
196
100
AcDbEntity
  8
0
  6
Continuous
 62
               7
100
AcDbLine
 10
1065.2697229885337
 20
455.30486507191858
 30
0.0
 11
903.26972298853457
 21
455.30486507191858
 31
0.0
  0
LINE
  5
197
100
AcDbEntity
  8
0
  6
DASHDOT
 62
               4
100
AcDbLine
 10
570.58574064792151
 20
688.90041015531801
 30
0.0
 11
568.20433582638475
 21
643.65371854611203
 31
0.0
  0
LINE
  5
198
100
AcDbEntity
  8
0
  6
Continuous
 62
               4
100
AcDbLine
 10
641.34725340220871
 20
653.45881405192495
 30
0.0
 11
641.34725340220871
 21
708.45881405192517
 31
0.0
  0
LINE
  5
199
100
AcDbEntity
  8
0
  6
Continuous
 62
               4
100
AcDbLine
 10
641.34725340220871
 20
653.45881405192495
 30
0.0
 11
636.34725340220871
 21
653.45881405192495
 31
0.0
  0
LINE
  5
19A
100
AcDbEntity
  8
0
  6
Continuous
 62
               4
100
AcDbLine
 10
636.34725340220871
 20
653.45881405192495
 30
0.0
 11
636.34725340220871
 21
654.95881405192495
 31
0.0
  0
LINE
  5
19B
100
AcDbEntity
  8
0
  6
Continuous
 62
               4
100
AcDbLine
 10
639.84725340220871
 20
707.03568529478503
 30
0.0
 11
639.84725340220871
 21
654.95881405192495
 31
0.0
  0
LINE
  5
19C
100
AcDbEntity
  8
0
  6
Continuous
 62
               4
100
AcDbLine
 10
639.84725340220871
 20
654.95881405192495
 30
0.0
 11
636.34725340220871
 21
654.95881405192495
 31
0.0
  0
LINE
  5
19D
100
AcDbEntity
  8
0
  6
Continuous
 62
               4
100
AcDbLine
 10
612.60730108122357
 20
707.26770609544042
 30
0.0
 11
612.2919480824869
 21
701.27599911944594
 31
0.0
  0
LINE
  5
19E
100
AcDbEntity
  8
0
  6
Continuous
 62
               4
100
AcDbLine
 10
612.60730108122334
 20
707.26770609544087
 30
0.0
 11
632.57965766787333
 21
706.21652943298545
 31
0.0
  0
LINE
  5
19F
100
AcDbEntity
  8
0
  6
Continuous
 62
               4
100
AcDbLine
 10
618.17853739223597
 20
698.96341046204338
 30
0.0
 11
618.12597855911349
 21
697.96479263271181
 31
0.0
  0
LINE
  5
1A0
100
AcDbEntity
  8
0
  6
Continuous
 62
               4
100
AcDbLine
 10
632.57965766787333
 20
706.21652943298545
 30
0.0
 11
639.84725340220871
 21
654.95881405192495
 31
0.0
  0
LINE
  5
1A1
100
AcDbEntity
  8
0
  6
Continuous
 62
               4
100
AcDbLine
 10
628.7411922595395
 20
700.41024942591616
 30
0.0
 11
620.28089071714703
 21
700.85552845446341
 31
0.0
  0
LINE
  5
1A2
100
AcDbEntity
  8
0
  6
Continuous
 62
               4
100
AcDbLine
 10
630.61626960430931
 20
698.69377651112723
 30
0.0
 11
636.81724879830722
 21
654.95881405192495
 31
0.0
  0
LINE
  5
1A3
100
AcDbEntity
  8
0
  6
Continuous
 62
               4
100
AcDbLine
 10
406.34725340220916
 20
728.45881405192517
 30
0.0
 11
406.34725340220916
 21
658.45881405192517
 31
0.0
  0
LINE
  5
1A4
100
AcDbEntity
  8
0
  6
Continuous
 62
               4
100
AcDbLine
 10
406.34725340220916
 20
728.45881405192517
 30
0.0
 11
419.62345141263177
 21
727.76006678821864
 31
0.0
  0
LINE
  5
1A5
100
AcDbEntity
  8
0
  6
Continuous
 62
               4
100
AcDbLine
 10
421.75003117998699
 20
720.01656258993694
 30
0.0
 11
419.62345141263177
 21
727.76006678821864
 31
0.0
  0
LINE
  5
1A6
100
AcDbEntity
  8
0
  6
Continuous
 62
               4
100
AcDbLine
 10
406.34725340220916
 20
658.45881405192517
 30
0.0
 11
412.34725340220916
 21
658.45881405192517
 31
0.0
  0
LINE
  5
1A7
100
AcDbEntity
  8
0
  6
Continuous
 62
               4
100
AcDbLine
 10
412.34725340220916
 20
658.45881405192517
 30
0.0
 11
412.34725340220916
 21
659.95881405192517
 31
0.0
  0
LINE
  5
1A8
100
AcDbEntity
  8
0
  6
Continuous
 62
               4
100
AcDbLine
 10
412.34725340220916
 20
659.95881405192517
 30
0.0
 11
407.84725340220916
 21
659.95881405192517
 31
0.0
  0
LINE
  5
1A9
100
AcDbEntity
  8
0
  6
Continuous
 62
               4
100
AcDbLine
 10
407.84725340220916
 20
659.95881405192517
 30
0.0
 11
407.84725340220916
 21
726.87779055794294
 31
0.0
  0
LINE
  5
1AA
100
AcDbEntity
  8
0
  6
Continuous
 62
               4
100
AcDbLine
 10
407.84725340220916
 20
726.87779055794294
 30
0.0
 11
418.46366213910301
 21
726.31903220336994
 31
0.0
  0
LINE
  5
1AB
100
AcDbEntity
  8
0
  6
Continuous
 62
               4
100
AcDbLine
 10
418.46366213910301
 20
726.31903220336994
 30
0.0
 11
420.590241906458
 21
718.57552800508824
 31
0.0
  0
LINE
  5
1AC
100
AcDbEntity
  8
0
  6
Continuous
 62
               4
100
AcDbLine
 10
447.70405302794802
 20
715.94682441403461
 30
0.0
 11
425.52026045337311
 21
717.11439244427561
 31
0.0
  0
LINE
  5
1AD
100
AcDbEntity
  8
0
  6
Continuous
 62
               4
100
AcDbLine
 10
448.72895027384152
 20
706.88042570035509
 30
0.0
 11
448.52286432291271
 21
702.96479263271135
 31
0.0
  0
LINE
  5
1AE
100
AcDbEntity
  8
0
  6
Continuous
 62
               4
100
AcDbLine
 10
441.23931655384808
 20
707.27461694877843
 30
0.0
 11
441.0124836951079
 21
702.96479263271181
 31
0.0
  0
LINE
  5
1AF
100
AcDbEntity
  8
0
  6
Continuous
 62
               4
100
AcDbLine
 10
448.52286432291271
 20
702.96479263271135
 30
0.0
 11
441.0124836951079
 21
702.96479263271181
 31
0.0
  0
LINE
  5
1B0
100
AcDbEntity
  8
0
  6
Continuous
 62
               4
100
AcDbLine
 10
447.70405302794802
 20
715.94682441403279
 30
0.0
 11
447.38870002921135
 21
709.95511743803877
 31
0.0
  0
LINE
  5
1B1
100
AcDbEntity
  8
0
  6
Continuous
 62
               4
100
AcDbLine
 10
425.52026045337311
 20
717.11439244427561
 30
0.0
 11
416.49559280552694
 21
709.20519691970298
 31
0.0
  0
LINE
  5
1B2
100
AcDbEntity
  8
0
  6
Continuous
 62
               4
100
AcDbLine
 10
416.49559280557764
 20
709.2051969197471
 30
0.0
 11
407.84725340220916
 21
659.95881405192517
 31
0.0
  0
LINE
  5
1B3
100
AcDbEntity
  8
0
  6
Continuous
 62
               4
100
AcDbLine
 10
418.7016678388693
 20
704.42291649036611
 30
0.0
 11
410.89316238607489
 21
659.95881405192517
 31
0.0
  0
LINE
  5
1B4
100
AcDbEntity
  8
0
  6
Continuous
 62
               4
100
AcDbLine
 10
427.00155976270321
 20
711.02812482048716
 30
0.0
 11
438.40113956521918
 21
710.42814693614378
 31
0.0
  0
LINE
  5
1B5
100
AcDbEntity
  8
0
  6
Continuous
 62
               4
100
AcDbLine
 10
420.590241906458
 20
718.57552800508847
 30
0.0
 11
639.84725340220871
 21
707.03568529478503
 31
0.0
  0
LINE
  5
1B6
100
AcDbEntity
  8
0
  6
Continuous
 62
               4
100
AcDbLine
 10
421.75003117998699
 20
720.01656258993694
 30
0.0
 11
641.34725340220871
 21
708.45881405192517
 31
0.0
  0
LINE
  5
1B7
100
AcDbEntity
  8
0
  6
Continuous
 62
               4
100
AcDbLine
 10
447.38870002921135
 20
709.95511743803991
 30
0.0
 11
612.2919480824869
 21
701.27599911944594
 31
0.0
  0
LINE
  5
1B8
100
AcDbEntity
  8
0
  6
Continuous
 62
               4
100
AcDbLine
 10
448.72895027384129
 20
706.88042570035191
 30
0.0
 11
618.12597855911349
 21
697.96479263271181
 31
0.0
  0
LINE
  5
1B9
100
AcDbEntity
  8
0
  6
Continuous
 62
               7
100
AcDbLine
 10
621.34725340220871
 20
683.44523739389706
 30
0.0
 11
421.34725340220871
 21
693.97155318337082
 31
0.0
  0
LINE
  5
1BA
100
AcDbEntity
  8
0
  6
Continuous
 62
               7
100
AcDbLine
 10
626.34725340220871
 20
685.1848476665748
 30
0.0
 11
526.4854704689576
 21
690.44073097885143
 31
0.0
  0
LINE
  5
1BB
100
AcDbEntity
  8
0
  6
Continuous
 62
               4
100
AcDbLine
 10
626.34725340220871
 20
685.1848476665748
 30
0.0
 11
626.34725340220871
 21
639.04404572595013
 31
0.0
  0
LINE
  5
1BC
100
AcDbEntity
  8
0
  6
Continuous
 62
               4
100
AcDbLine
 10
1065.2697229885339
 20
560.30486507191858
 30
0.0
 11
1050.4976066933507
 21
557.70014240691467
 31
0.0
  0
LINE
  5
1BD
100
AcDbEntity
  8
0
  6
Continuous
 62
               4
100
AcDbLine
 10
1065.2697229885339
 20
560.30486507191858
 30
0.0
 11
1050.4976066933507
 21
562.90958773692273
 31
0.0
  0
LINE
  5
1BE
100
AcDbEntity
  8
0
  6
Continuous
 62
               7
100
AcDbLine
 10
421.34725340220871
 20
279.82717706591052
 30
0.0
 11
421.34725340220871
 21
693.97155318337082
 31
0.0
  0
LINE
  5
1BF
100
AcDbEntity
  8
0
  6
Continuous
 62
               7
100
AcDbLine
 10
621.34725340220871
 20
414.2392656579882
 30
0.0
 11
486.93516481013103
 21
279.8271770659104
 31
0.0
  0
LINE
  5
1C0
100
AcDbEntity
  8
0
  6
Continuous
 62
               7
100
AcDbLine
 10
621.34725340220871
 20
428.38140128171915
 30
0.0
 11
472.79302918639996
 21
279.8271770659104
 31
0.0
  0
LINE
  5
1C1
100
AcDbEntity
  8
0
  6
Continuous
 62
               7
100
AcDbLine
 10
621.34725340220871
 20
442.5235369054501
 30
0.0
 11
458.6508935626689
 21
279.8271770659104
 31
0.0
  0
LINE
  5
1C2
100
AcDbEntity
  8
0
  6
Continuous
 62
               7
100
AcDbLine
 10
581.5222920153451
 20
685.54128799320563
 30
0.0
 11
421.34725340220871
 21
525.36624938006901
 31
0.0
  0
LINE
  5
1C3
100
AcDbEntity
  8
0
  6
Continuous
 62
               7
100
AcDbLine
 10
594.95732085788927
 20
684.83418121201908
 30
0.0
 11
421.34725340220871
 21
511.22411375633828
 31
0.0
  0
LINE
  5
1C4
100
AcDbEntity
  8
0
  6
Continuous
 62
               7
100
AcDbLine
 10
608.3923497004339
 20
684.12707443083241
 30
0.0
 11
421.34725340220871
 21
497.08197813260745
 31
0.0
  0
LINE
  5
1C5
100
AcDbEntity
  8
0
  6
Continuous
 62
               7
100
AcDbLine
 10
1065.2697229885339
 20
292.47631029507522
 30
0.0
 11
1052.6205897593691
 21
279.8271770659104
 31
0.0
  0
LINE
  5
1C6
100
AcDbEntity
  8
0
  6
Continuous
 62
               7
100
AcDbLine
 10
1065.2697229885339
 20
306.61844591880617
 30
0.0
 11
1038.4784541356385
 21
279.8271770659104
 31
0.0
  0
LINE
  5
1C7
100
AcDbEntity
  8
0
  6
Continuous
 62
               7
100
AcDbLine
 10
1065.2697229885341
 20
320.76058154253678
 30
0.0
 11
1024.3363185119076
 21
279.8271770659104
 31
0.0
  0
LINE
  5
1C8
100
AcDbEntity
  8
0
  6
Continuous
 62
               4
100
AcDbLine
 10
632.27137388059032
 20
517.26956765573971
 30
0.0
 11
629.20900076863404
 21
596.81760460435271
 31
0.0
  0
LINE
  5
1C9
100
AcDbEntity
  8
0
  6
Continuous
 62
               4
100
AcDbLine
 10
1065.2697229885341
 20
377.30486507191847
 30
0.0
 11
874.76972298853457
 21
377.30486507191847
 31
0.0
  0
LINE
  5
1CA
100
AcDbEntity
  8
0
  6
Continuous
 62
               4
100
AcDbLine
 10
874.76972298853457
 20
377.30486507191847
 30
0.0
 11
874.76972298853457
 21
452.30486507191847
 31
0.0
  0
LINE
  5
1CB
100
AcDbEntity
  8
0
  6
Continuous
 62
               4
100
AcDbLine
 10
870.76972298853457
 20
377.30486507191847
 30
0.0
 11
870.76972298853457
 21
452.30486507191847
 31
0.0
  0
LINE
  5
1CC
100
AcDbEntity
  8
0
  6
Continuous
 62
               4
100
AcDbLine
 10
624.34725340220848
 20
377.30486507191847
 30
0.0
 11
870.76972298853457
 21
377.30486507191847
 31
0.0
  0
LINE
  5
1CD
100
AcDbEntity
  8
0
  6
Continuous
 62
               4
100
AcDbLine
 10
624.34725340220848
 20
377.30486507191847
 30
0.0
 11
624.34725340220848
 21
452.30486507191847
 31
0.0
  0
LINE
  5
1CE
100
AcDbEntity
  8
0
  6
DASHED
 62
               6
100
AcDbLine
 10
622.34725340220871
 20
374.10486507191843
 30
0.0
 11
622.34725340220871
 21
683.39260581494977
 31
0.0
  0
LINE
  5
1CF
100
AcDbEntity
  8
0
  6
DASHED
 62
               6
100
AcDbLine
 10
622.34725340220871
 20
374.10486507191843
 30
0.0
 11
1065.2697229885337
 21
374.1048650719182
 31
0.0
  0
LINE
  5
1D0
100
AcDbEntity
  8
0
  6
Continuous
 62
               7
100
AcDbLine
 10
621.34725340220893
 20
372.60486507191843
 30
0.0
 11
1065.2697229885337
 21
372.60486507191843
 31
0.0
  0
LINE
  5
1D1
100
AcDbEntity
  8
0
  6
Continuous
 62
               7
100
AcDbLine
 10
621.34725340220893
 20
372.60486507191843
 30
0.0
 11
621.34725340220871
 21
683.44523739389706
 31
0.0
  0
LINE
  5
1D2
100
AcDbEntity
  8
0
  6
Continuous
 62
               7
100
AcDbLine
 10
862.5555652907583
 20
372.60486507191843
 30
0.0
 11
769.7778772847505
 21
279.8271770659104
 31
0.0
  0
LINE
  5
1D3
100
AcDbEntity
  8
0
  6
Continuous
 62
               7
100
AcDbLine
 10
848.41342966702723
 20
372.60486507191843
 30
0.0
 11
755.63574166101944
 21
279.8271770659104
 31
0.0
  0
LINE
  5
1D4
100
AcDbEntity
  8
0
  6
Continuous
 62
               7
100
AcDbLine
 10
834.27129404329662
 20
372.60486507191843
 30
0.0
 11
741.49360603728837
 21
279.8271770659104
 31
0.0
  0
LINE
  5
1D5
100
AcDbEntity
  8
0
  6
DASHDOT
 62
               4
100
AcDbLine
 10
887.76972298853502
 20
376.10918306310089
 30
0.0
 11
887.76972298853502
 21
318.11499830517039
 31
0.0
  0
LINE
  5
1D6
100
AcDbEntity
  8
0
  6
DASHDOT
 62
               4
100
AcDbLine
 10
889.76972298853502
 20
376.10918306310089
 30
0.0
 11
885.76972298853502
 21
376.10918306310089
 31
0.0
  0
LINE
  5
1D7
100
AcDbEntity
  8
0
  6
Continuous
 62
               4
100
AcDbLine
 10
872.7697229885348
 20
375.10918306310089
 30
0.0
 11
872.7697229885348
 21
483.6207222453545
 31
0.0
  0
LINE
  5
1D8
100
AcDbEntity
  8
0
  6
Continuous
 62
               4
100
AcDbLine
 10
902.7697229885348
 20
375.10918306310089
 30
0.0
 11
872.7697229885348
 21
375.10918306310089
 31
0.0
  0
LINE
  5
1D9
100
AcDbEntity
  8
0
  6
Continuous
 62
               4
100
AcDbLine
 10
1203.2042375962753
 20
28.341677550555005
 30
0.0
 11
1203.2042375962753
 21
61.673677550555112
 31
0.0
  0
LINE
  5
1DA
100
AcDbEntity
  8
0
  6
Continuous
 62
               4
100
AcDbLine
 10
1453.1942375962753
 20
28.341677550555005
 30
0.0
 11
1203.2042375962753
 21
28.341677550555005
 31
0.0
  0
LINE
  5
1DB
100
AcDbEntity
  8
0
  6
Continuous
 62
               4
100
AcDbLine
 10
1453.1942375962753
 20
61.673677550555112
 30
0.0
 11
1453.1942375962753
 21
28.341677550555005
 31
0.0
  0
LINE
  5
1DC
100
AcDbEntity
  8
0
  6
Continuous
 62
               4
100
AcDbLine
 10
1453.1942375962753
 20
61.673677550555112
 30
0.0
 11
1203.2042375962753
 21
61.673677550555112
 31
0.0
  0
LINE
  5
1DD
100
AcDbEntity
  8
0
  6
Continuous
 62
               4
100
AcDbLine
 10
35.509845672550007
 20
986.04446947428005
 30
0.0
 11
35.509845672550007
 21
1019.37646947428
 31
0.0
  0
LINE
  5
1DE
100
AcDbEntity
  8
0
  6
Continuous
 62
               4
100
AcDbLine
 10
285.49984567255001
 20
986.04446947428005
 30
0.0
 11
35.509845672550007
 21
986.04446947428005
 31
0.0
  0
LINE
  5
1DF
100
AcDbEntity
  8
0
  6
Continuous
 62
               4
100
AcDbLine
 10
285.49984567255001
 20
1019.37646947428
 30
0.0
 11
285.49984567255001
 21
986.04446947428005
 31
0.0
  0
LINE
  5
1E0
100
AcDbEntity
  8
0
  6
Continuous
 62
               4
100
AcDbLine
 10
285.49984567255001
 20
1019.37646947428
 30
0.0
 11
35.509845672550007
 21
1019.37646947428
 31
0.0
  0
CIRCLE
  5
1E1
100
AcDbEntity
  8
0
  6
Continuous
 62
               4
100
AcDbCircle
 10
784.24725340220834
 20
485.30486507191858
 30
0.0
 40
2.5
  0
CIRCLE
  5
1E2
100
AcDbEntity
  8
0
  6
Continuous
 62
               4
100
AcDbCircle
 10
784.24725340220834
 20
455.30486507191858
 30
0.0
 40
2.5
  0
CIRCLE
  5
1E3
100
AcDbEntity
  8
0
  6
Continuous
 62
               4
100
AcDbCircle
 10
726.74725340220834
 20
530.30486507191858
 30
0.0
 40
2.5
  0
CIRCLE
  5
1E4
100
AcDbEntity
  8
0
  6
Continuous
 62
               4
100
AcDbCircle
 10
701.74725340220857
 20
530.30486507191858
 30
0.0
 40
2.5
  0
CIRCLE
  5
1E5
100
AcDbEntity
  8
0
  6
Continuous
 62
               4
100
AcDbCircle
 10
626.74725340220834
 20
560.30486507191858
 30
0.0
 40
2.5
  0
CIRCLE
  5
1E6
100
AcDbEntity
  8
0
  6
Continuous
 62
               4
100
AcDbCircle
 10
726.74725340220834
 20
560.30486507191858
 30
0.0
 40
2.5
  0
CIRCLE
  5
1E7
100
AcDbEntity
  8
0
  6
Continuous
 62
               4
100
AcDbCircle
 10
726.74725340220834
 20
560.30486507191858
 30
0.0
 40
2.5
  0
CIRCLE
  5
1E8
100
AcDbEntity
  8
0
  6
Continuous
 62
               4
100
AcDbCircle
 10
872.7697229885332
 20
560.30486507191858
 30
0.0
 40
2.5
  0
CIRCLE
  5
1E9
100
AcDbEntity
  8
0
  6
Continuous
 62
               4
100
AcDbCircle
 10
872.7697229885332
 20
560.30486507191858
 30
0.0
 40
2.5
  0
CIRCLE
  5
1EA
100
AcDbEntity
  8
0
  6
Continuous
 62
               4
100
AcDbCircle
 10
1110.2697229885341
 20
485.30486507191881
 30
0.0
 40
2.5
  0
CIRCLE
  5
1EB
100
AcDbEntity
  8
0
  6
Continuous
 62
               4
100
AcDbCircle
 10
1110.2697229885341
 20
455.30486507191858
 30
0.0
 40
2.5
  0
CIRCLE
  5
1EC
100
AcDbEntity
  8
0
  6
Continuous
 62
               4
100
AcDbCircle
 10
1110.2697229885341
 20
452.30486507191847
 30
0.0
 40
2.5
  0
CIRCLE
  5
1ED
100
AcDbEntity
  8
0
  6
Continuous
 62
               4
100
AcDbCircle
 10
1110.2697229885341
 20
377.30486507191847
 30
0.0
 40
2.5
  0
CIRCLE
  5
1EE
100
AcDbEntity
  8
0
  6
Continuous
 62
               7
100
AcDbCircle
 10
881.97581616174443
 20
415.71990380028763
 30
0.0
 40
1.0
  0
CIRCLE
  5
1EF
100
AcDbEntity
  8
0
  6
Continuous
 62
               7
100
AcDbCircle
 10
886.04430931242928
 20
445.15999714740872
 30
0.0
 40
1.0
  0
CIRCLE
  5
1F0
100
AcDbEntity
  8
0
  6
Continuous
 62
               7
100
AcDbCircle
 10
884.77290520284009
 20
431.7929769687795
 30
0.0
 40
0.1
  0
CIRCLE
  5
1F1
100
AcDbEntity
  8
0
  6
Continuous
 62
               7
100
AcDbCircle
 10
888.0785558877717
 20
419.86060567042421
 30
0.0
 40
0.5
  0
CIRCLE
  5
1F2
100
AcDbEntity
  8
0
  6
Continuous
 62
               7
100
AcDbCircle
 10
879.43300794256606
 20
445.15999714740872
 30
0.0
 40
0.1
  0
CIRCLE
  5
1F3
100
AcDbEntity
  8
0
  6
Continuous
 62
               7
100
AcDbCircle
 10
898.68429218914184
 20
415.71990380028763
 30
0.0
 40
1.0
  0
CIRCLE
  5
1F4
100
AcDbEntity
  8
0
  6
Continuous
 62
               7
100
AcDbCircle
 10
893.34439492886781
 20
438.47648705809422
 30
0.0
 40
0.5
  0
CIRCLE
  5
1F5
100
AcDbEntity
  8
0
  6
Continuous
 62
               7
100
AcDbCircle
 10
902.75278533982669
 20
445.15999714740872
 30
0.0
 40
1.0
  0
CIRCLE
  5
1F6
100
AcDbEntity
  8
0
  6
Continuous
 62
               7
100
AcDbCircle
 10
901.4813812302375
 20
431.7929769687795
 30
0.0
 40
0.1
  0
CIRCLE
  5
1F7
100
AcDbEntity
  8
0
  6
Continuous
 62
               7
100
AcDbCircle
 10
904.78703191516911
 20
419.86060567042421
 30
0.0
 40
0.5
  0
CIRCLE
  5
1F8
100
AcDbEntity
  8
0
  6
Continuous
 62
               7
100
AcDbCircle
 10
892.58155246311412
 20
425.78127329398524
 30
0.0
 40
0.1
  0
CIRCLE
  5
1F9
100
AcDbEntity
  8
0
  6
Continuous
 62
               7
100
AcDbCircle
 10
896.14148396996347
 20
445.15999714740872
 30
0.0
 40
0.1
  0
CIRCLE
  5
1FA
100
AcDbEntity
  8
0
  6
Continuous
 62
               7
100
AcDbCircle
 10
915.39276821653925
 20
415.71990380028763
 30
0.0
 40
1.0
  0
CIRCLE
  5
1FB
100
AcDbEntity
  8
0
  6
Continuous
 62
               7
100
AcDbCircle
 10
910.05287095626477
 20
438.47648705809422
 30
0.0
 40
0.5
  0
CIRCLE
  5
1FC
100
AcDbEntity
  8
0
  6
Continuous
 62
               7
100
AcDbCircle
 10
919.4612613672241
 20
445.15999714740872
 30
0.0
 40
1.0
  0
CIRCLE
  5
1FD
100
AcDbEntity
  8
0
  6
Continuous
 62
               7
100
AcDbCircle
 10
918.18985725763491
 20
431.7929769687795
 30
0.0
 40
0.1
  0
CIRCLE
  5
1FE
100
AcDbEntity
  8
0
  6
Continuous
 62
               7
100
AcDbCircle
 10
921.49550794256652
 20
419.86060567042421
 30
0.0
 40
0.5
  0
CIRCLE
  5
1FF
100
AcDbEntity
  8
0
  6
Continuous
 62
               7
100
AcDbCircle
 10
909.29002849051153
 20
425.78127329398524
 30
0.0
 40
0.1
  0
CIRCLE
  5
200
100
AcDbEntity
  8
0
  6
Continuous
 62
               7
100
AcDbCircle
 10
912.84995999736088
 20
445.15999714740872
 30
0.0
 40
0.1
  0
CIRCLE
  5
201
100
AcDbEntity
  8
0
  6
Continuous
 62
               7
100
AcDbCircle
 10
932.10124424393621
 20
415.71990380028763
 30
0.0
 40
1.0
  0
CIRCLE
  5
202
100
AcDbEntity
  8
0
  6
Continuous
 62
               7
100
AcDbCircle
 10
926.76134698366263
 20
438.47648705809422
 30
0.0
 40
0.5
  0
CIRCLE
  5
203
100
AcDbEntity
  8
0
  6
Continuous
 62
               7
100
AcDbCircle
 10
936.16973739462151
 20
445.15999714740872
 30
0.0
 40
1.0
  0
CIRCLE
  5
204
100
AcDbEntity
  8
0
  6
Continuous
 62
               7
100
AcDbCircle
 10
934.89833328503232
 20
431.7929769687795
 30
0.0
 40
0.1
  0
CIRCLE
  5
205
100
AcDbEntity
  8
0
  6
Continuous
 62
               7
100
AcDbCircle
 10
938.20398396996393
 20
419.86060567042421
 30
0.0
 40
0.5
  0
CIRCLE
  5
206
100
AcDbEntity
  8
0
  6
Continuous
 62
               7
100
AcDbCircle
 10
925.99850451790894
 20
425.78127329398524
 30
0.0
 40
0.1
  0
CIRCLE
  5
207
100
AcDbEntity
  8
0
  6
Continuous
 62
               7
100
AcDbCircle
 10
929.55843602475829
 20
445.15999714740872
 30
0.0
 40
0.1
  0
CIRCLE
  5
208
100
AcDbEntity
  8
0
  6
Continuous
 62
               7
100
AcDbCircle
 10
948.80972027133362
 20
415.71990380028763
 30
0.0
 40
1.0
  0
CIRCLE
  5
209
100
AcDbEntity
  8
0
  6
Continuous
 62
               7
100
AcDbCircle
 10
943.46982301105959
 20
438.47648705809422
 30
0.0
 40
0.5
  0
CIRCLE
  5
20A
100
AcDbEntity
  8
0
  6
Continuous
 62
               7
100
AcDbCircle
 10
952.87821342201892
 20
445.15999714740872
 30
0.0
 40
1.0
  0
CIRCLE
  5
20B
100
AcDbEntity
  8
0
  6
Continuous
 62
               7
100
AcDbCircle
 10
951.60680931242973
 20
431.7929769687795
 30
0.0
 40
0.1
  0
CIRCLE
  5
20C
100
AcDbEntity
  8
0
  6
Continuous
 62
               7
100
AcDbCircle
 10
954.91245999736134
 20
419.86060567042421
 30
0.0
 40
0.5
  0
CIRCLE
  5
20D
100
AcDbEntity
  8
0
  6
Continuous
 62
               7
100
AcDbCircle
 10
942.70698054530635
 20
425.78127329398524
 30
0.0
 40
0.1
  0
CIRCLE
  5
20E
100
AcDbEntity
  8
0
  6
Continuous
 62
               7
100
AcDbCircle
 10
946.2669120521557
 20
445.15999714740872
 30
0.0
 40
0.1
  0
CIRCLE
  5
20F
100
AcDbEntity
  8
0
  6
Continuous
 62
               7
100
AcDbCircle
 10
965.51819629873103
 20
415.71990380028763
 30
0.0
 40
1.0
  0
CIRCLE
  5
210
100
AcDbEntity
  8
0
  6
Continuous
 62
               7
100
AcDbCircle
 10
960.17829903845745
 20
438.47648705809422
 30
0.0
 40
0.5
  0
CIRCLE
  5
211
100
AcDbEntity
  8
0
  6
Continuous
 62
               7
100
AcDbCircle
 10
968.31528533982714
 20
431.7929769687795
 30
0.0
 40
0.1
  0
CIRCLE
  5
212
100
AcDbEntity
  8
0
  6
Continuous
 62
               7
100
AcDbCircle
 10
959.41545657270376
 20
425.78127329398524
 30
0.0
 40
0.1
  0
CIRCLE
  5
213
100
AcDbEntity
  8
0
  6
Continuous
 62
               7
100
AcDbCircle
 10
962.97538807955311
 20
445.15999714740872
 30
0.0
 40
0.1
  0
CIRCLE
  5
214
100
AcDbEntity
  8
0
  6
Continuous
 62
               7
100
AcDbCircle
 10
881.97581616174443
 20
385.31916916084003
 30
0.0
 40
1.0
  0
CIRCLE
  5
215
100
AcDbEntity
  8
0
  6
Continuous
 62
               7
100
AcDbCircle
 10
884.77290520284009
 20
401.39224232933191
 30
0.0
 40
0.1
  0
CIRCLE
  5
216
100
AcDbEntity
  8
0
  6
Continuous
 62
               7
100
AcDbCircle
 10
888.0785558877717
 20
389.45987103097639
 30
0.0
 40
0.5
  0
CIRCLE
  5
217
100
AcDbEntity
  8
0
  6
Continuous
 62
               7
100
AcDbCircle
 10
898.68429218914184
 20
385.31916916084003
 30
0.0
 40
1.0
  0
CIRCLE
  5
218
100
AcDbEntity
  8
0
  6
Continuous
 62
               7
100
AcDbCircle
 10
886.02110725763464
 20
408.0757524186464
 30
0.0
 40
0.5
  0
CIRCLE
  5
219
100
AcDbEntity
  8
0
  6
Continuous
 62
               7
100
AcDbCircle
 10
901.4813812302375
 20
401.39224232933191
 30
0.0
 40
0.1
  0
CIRCLE
  5
21A
100
AcDbEntity
  8
0
  6
Continuous
 62
               7
100
AcDbCircle
 10
904.78703191516911
 20
389.45987103097639
 30
0.0
 40
0.5
  0
CIRCLE
  5
21B
100
AcDbEntity
  8
0
  6
Continuous
 62
               7
100
AcDbCircle
 10
892.58155246311412
 20
395.38053865453765
 30
0.0
 40
0.1
  0
CIRCLE
  5
21C
100
AcDbEntity
  8
0
  6
Continuous
 62
               7
100
AcDbCircle
 10
893.34439492886781
 20
382.77636094166189
 30
0.0
 40
0.1
  0
CIRCLE
  5
21D
100
AcDbEntity
  8
0
  6
Continuous
 62
               7
100
AcDbCircle
 10
915.39276821653925
 20
385.31916916084003
 30
0.0
 40
1.0
  0
CIRCLE
  5
21E
100
AcDbEntity
  8
0
  6
Continuous
 62
               7
100
AcDbCircle
 10
902.72958328503205
 20
408.0757524186464
 30
0.0
 40
0.5
  0
CIRCLE
  5
21F
100
AcDbEntity
  8
0
  6
Continuous
 62
               7
100
AcDbCircle
 10
918.18985725763491
 20
401.39224232933191
 30
0.0
 40
0.1
  0
CIRCLE
  5
220
100
AcDbEntity
  8
0
  6
Continuous
 62
               7
100
AcDbCircle
 10
921.49550794256652
 20
389.45987103097639
 30
0.0
 40
0.5
  0
CIRCLE
  5
221
100
AcDbEntity
  8
0
  6
Continuous
 62
               7
100
AcDbCircle
 10
909.29002849051153
 20
395.38053865453765
 30
0.0
 40
0.1
  0
CIRCLE
  5
222
100
AcDbEntity
  8
0
  6
Continuous
 62
               7
100
AcDbCircle
 10
910.05287095626477
 20
382.77636094166189
 30
0.0
 40
0.1
  0
CIRCLE
  5
223
100
AcDbEntity
  8
0
  6
Continuous
 62
               7
100
AcDbCircle
 10
932.10124424393621
 20
385.31916916084003
 30
0.0
 40
1.0
  0
CIRCLE
  5
224
100
AcDbEntity
  8
0
  6
Continuous
 62
               7
100
AcDbCircle
 10
919.43805931242946
 20
408.0757524186464
 30
0.0
 40
0.5
  0
CIRCLE
  5
225
100
AcDbEntity
  8
0
  6
Continuous
 62
               7
100
AcDbCircle
 10
934.89833328503232
 20
401.39224232933191
 30
0.0
 40
0.1
  0
CIRCLE
  5
226
100
AcDbEntity
  8
0
  6
Continuous
 62
               7
100
AcDbCircle
 10
938.20398396996393
 20
389.45987103097639
 30
0.0
 40
0.5
  0
CIRCLE
  5
227
100
AcDbEntity
  8
0
  6
Continuous
 62
               7
100
AcDbCircle
 10
925.99850451790894
 20
395.38053865453765
 30
0.0
 40
0.1
  0
CIRCLE
  5
228
100
AcDbEntity
  8
0
  6
Continuous
 62
               7
100
AcDbCircle
 10
926.76134698366263
 20
382.77636094166189
 30
0.0
 40
0.1
  0
CIRCLE
  5
229
100
AcDbEntity
  8
0
  6
Continuous
 62
               7
100
AcDbCircle
 10
948.80972027133362
 20
385.31916916084003
 30
0.0
 40
1.0
  0
CIRCLE
  5
22A
100
AcDbEntity
  8
0
  6
Continuous
 62
               7
100
AcDbCircle
 10
936.14653533982687
 20
408.0757524186464
 30
0.0
 40
0.5
  0
CIRCLE
  5
22B
100
AcDbEntity
  8
0
  6
Continuous
 62
               7
100
AcDbCircle
 10
951.60680931242973
 20
401.39224232933191
 30
0.0
 40
0.1
  0
CIRCLE
  5
22C
100
AcDbEntity
  8
0
  6
Continuous
 62
               7
100
AcDbCircle
 10
954.91245999736134
 20
389.45987103097639
 30
0.0
 40
0.5
  0
CIRCLE
  5
22D
100
AcDbEntity
  8
0
  6
Continuous
 62
               7
100
AcDbCircle
 10
942.70698054530635
 20
395.38053865453765
 30
0.0
 40
0.1
  0
CIRCLE
  5
22E
100
AcDbEntity
  8
0
  6
Continuous
 62
               7
100
AcDbCircle
 10
943.46982301105959
 20
382.77636094166189
 30
0.0
 40
0.1
  0
CIRCLE
  5
22F
100
AcDbEntity
  8
0
  6
Continuous
 62
               7
100
AcDbCircle
 10
965.51819629873103
 20
385.31916916084003
 30
0.0
 40
1.0
  0
CIRCLE
  5
230
100
AcDbEntity
  8
0
  6
Continuous
 62
               7
100
AcDbCircle
 10
952.85501136722428
 20
408.0757524186464
 30
0.0
 40
0.5
  0
CIRCLE
  5
231
100
AcDbEntity
  8
0
  6
Continuous
 62
               7
100
AcDbCircle
 10
968.31528533982714
 20
401.39224232933191
 30
0.0
 40
0.1
  0
CIRCLE
  5
232
100
AcDbEntity
  8
0
  6
Continuous
 62
               7
100
AcDbCircle
 10
959.41545657270376
 20
395.38053865453765
 30
0.0
 40
0.1
  0
CIRCLE
  5
233
100
AcDbEntity
  8
0
  6
Continuous
 62
               7
100
AcDbCircle
 10
960.17829903845745
 20
382.77636094166189
 30
0.0
 40
0.1
  0
CIRCLE
  5
234
100
AcDbEntity
  8
0
  6
Continuous
 62
               7
100
AcDbCircle
 10
976.87255380363172
 20
414.13653220448316
 30
0.0
 40
1.0
  0
CIRCLE
  5
235
100
AcDbEntity
  8
0
  6
Continuous
 62
               7
100
AcDbCircle
 10
980.94104695431702
 20
443.57662555160425
 30
0.0
 40
1.0
  0
CIRCLE
  5
236
100
AcDbEntity
  8
0
  6
Continuous
 62
               7
100
AcDbCircle
 10
979.66964284472783
 20
430.20960537297503
 30
0.0
 40
0.1
  0
CIRCLE
  5
237
100
AcDbEntity
  8
0
  6
Continuous
 62
               7
100
AcDbCircle
 10
982.97529352965944
 20
418.27723407461951
 30
0.0
 40
0.5
  0
CIRCLE
  5
238
100
AcDbEntity
  8
0
  6
Continuous
 62
               7
100
AcDbCircle
 10
974.3297455844538
 20
443.57662555160425
 30
0.0
 40
0.1
  0
CIRCLE
  5
239
100
AcDbEntity
  8
0
  6
Continuous
 62
               7
100
AcDbCircle
 10
993.58102983102913
 20
414.13653220448316
 30
0.0
 40
1.0
  0
CIRCLE
  5
23A
100
AcDbEntity
  8
0
  6
Continuous
 62
               7
100
AcDbCircle
 10
988.2411325707551
 20
436.89311546228953
 30
0.0
 40
0.5
  0
CIRCLE
  5
23B
100
AcDbEntity
  8
0
  6
Continuous
 62
               7
100
AcDbCircle
 10
997.64952298171397
 20
443.57662555160425
 30
0.0
 40
1.0
  0
CIRCLE
  5
23C
100
AcDbEntity
  8
0
  6
Continuous
 62
               7
100
AcDbCircle
 10
996.37811887212524
 20
430.20960537297503
 30
0.0
 40
0.1
  0
CIRCLE
  5
23D
100
AcDbEntity
  8
0
  6
Continuous
 62
               7
100
AcDbCircle
 10
999.68376955705639
 20
418.27723407461951
 30
0.0
 40
0.5
  0
CIRCLE
  5
23E
100
AcDbEntity
  8
0
  6
Continuous
 62
               7
100
AcDbCircle
 10
987.47829010500186
 20
424.19790169818077
 30
0.0
 40
0.1
  0
CIRCLE
  5
23F
100
AcDbEntity
  8
0
  6
Continuous
 62
               7
100
AcDbCircle
 10
991.03822161185121
 20
443.57662555160425
 30
0.0
 40
0.1
  0
CIRCLE
  5
240
100
AcDbEntity
  8
0
  6
Continuous
 62
               7
100
AcDbCircle
 10
1010.2895058584265
 20
414.13653220448316
 30
0.0
 40
1.0
  0
CIRCLE
  5
241
100
AcDbEntity
  8
0
  6
Continuous
 62
               7
100
AcDbCircle
 10
1004.9496085981525
 20
436.89311546228953
 30
0.0
 40
0.5
  0
CIRCLE
  5
242
100
AcDbEntity
  8
0
  6
Continuous
 62
               7
100
AcDbCircle
 10
1014.3579990091114
 20
443.57662555160425
 30
0.0
 40
1.0
  0
CIRCLE
  5
243
100
AcDbEntity
  8
0
  6
Continuous
 62
               7
100
AcDbCircle
 10
1013.0865948995222
 20
430.20960537297503
 30
0.0
 40
0.1
  0
CIRCLE
  5
244
100
AcDbEntity
  8
0
  6
Continuous
 62
               7
100
AcDbCircle
 10
1016.3922455844538
 20
418.27723407461951
 30
0.0
 40
0.5
  0
CIRCLE
  5
245
100
AcDbEntity
  8
0
  6
Continuous
 62
               7
100
AcDbCircle
 10
1004.1867661323993
 20
424.19790169818077
 30
0.0
 40
0.1
  0
CIRCLE
  5
246
100
AcDbEntity
  8
0
  6
Continuous
 62
               7
100
AcDbCircle
 10
1007.7466976392482
 20
443.57662555160425
 30
0.0
 40
0.1
  0
CIRCLE
  5
247
100
AcDbEntity
  8
0
  6
Continuous
 62
               7
100
AcDbCircle
 10
1026.9979818858239
 20
414.13653220448316
 30
0.0
 40
1.0
  0
CIRCLE
  5
248
100
AcDbEntity
  8
0
  6
Continuous
 62
               7
100
AcDbCircle
 10
1021.6580846255499
 20
436.89311546228953
 30
0.0
 40
0.5
  0
CIRCLE
  5
249
100
AcDbEntity
  8
0
  6
Continuous
 62
               7
100
AcDbCircle
 10
1031.0664750365088
 20
443.57662555160425
 30
0.0
 40
1.0
  0
CIRCLE
  5
24A
100
AcDbEntity
  8
0
  6
Continuous
 62
               7
100
AcDbCircle
 10
1029.7950709269201
 20
430.20960537297503
 30
0.0
 40
0.1
  0
CIRCLE
  5
24B
100
AcDbEntity
  8
0
  6
Continuous
 62
               7
100
AcDbCircle
 10
1033.1007216118512
 20
418.27723407461951
 30
0.0
 40
0.5
  0
CIRCLE
  5
24C
100
AcDbEntity
  8
0
  6
Continuous
 62
               7
100
AcDbCircle
 10
1020.8952421597962
 20
424.19790169818077
 30
0.0
 40
0.1
  0
CIRCLE
  5
24D
100
AcDbEntity
  8
0
  6
Continuous
 62
               7
100
AcDbCircle
 10
1024.455173666646
 20
443.57662555160425
 30
0.0
 40
0.1
  0
CIRCLE
  5
24E
100
AcDbEntity
  8
0
  6
Continuous
 62
               7
100
AcDbCircle
 10
1043.7064579132214
 20
414.13653220448316
 30
0.0
 40
1.0
  0
CIRCLE
  5
24F
100
AcDbEntity
  8
0
  6
Continuous
 62
               7
100
AcDbCircle
 10
1038.3665606529473
 20
436.89311546228953
 30
0.0
 40
0.5
  0
CIRCLE
  5
250
100
AcDbEntity
  8
0
  6
Continuous
 62
               7
100
AcDbCircle
 10
1047.7749510639062
 20
443.57662555160425
 30
0.0
 40
1.0
  0
CIRCLE
  5
251
100
AcDbEntity
  8
0
  6
Continuous
 62
               7
100
AcDbCircle
 10
1046.5035469543175
 20
430.20960537297503
 30
0.0
 40
0.1
  0
CIRCLE
  5
252
100
AcDbEntity
  8
0
  6
Continuous
 62
               7
100
AcDbCircle
 10
1049.8091976392486
 20
418.27723407461951
 30
0.0
 40
0.5
  0
CIRCLE
  5
253
100
AcDbEntity
  8
0
  6
Continuous
 62
               7
100
AcDbCircle
 10
1037.6037181871941
 20
424.19790169818077
 30
0.0
 40
0.1
  0
CIRCLE
  5
254
100
AcDbEntity
  8
0
  6
Continuous
 62
               7
100
AcDbCircle
 10
1041.1636496940434
 20
443.57662555160425
 30
0.0
 40
0.1
  0
CIRCLE
  5
255
100
AcDbEntity
  8
0
  6
Continuous
 62
               7
100
AcDbCircle
 10
1060.4149339406188
 20
414.13653220448316
 30
0.0
 40
1.0
  0
CIRCLE
  5
256
100
AcDbEntity
  8
0
  6
Continuous
 62
               7
100
AcDbCircle
 10
1055.0750366803447
 20
436.89311546228953
 30
0.0
 40
0.5
  0
CIRCLE
  5
257
100
AcDbEntity
  8
0
  6
Continuous
 62
               7
100
AcDbCircle
 10
1063.2120229817144
 20
430.20960537297503
 30
0.0
 40
0.1
  0
CIRCLE
  5
258
100
AcDbEntity
  8
0
  6
Continuous
 62
               7
100
AcDbCircle
 10
1054.312194214591
 20
424.19790169818077
 30
0.0
 40
0.1
  0
CIRCLE
  5
259
100
AcDbEntity
  8
0
  6
Continuous
 62
               7
100
AcDbCircle
 10
1057.8721257214409
 20
443.57662555160425
 30
0.0
 40
0.1
  0
CIRCLE
  5
25A
100
AcDbEntity
  8
0
  6
Continuous
 62
               7
100
AcDbCircle
 10
976.87255380363172
 20
383.73579756503534
 30
0.0
 40
1.0
  0
CIRCLE
  5
25B
100
AcDbEntity
  8
0
  6
Continuous
 62
               7
100
AcDbCircle
 10
979.66964284472783
 20
399.80887073352721
 30
0.0
 40
0.1
  0
CIRCLE
  5
25C
100
AcDbEntity
  8
0
  6
Continuous
 62
               7
100
AcDbCircle
 10
982.97529352965944
 20
387.87649943517192
 30
0.0
 40
0.5
  0
CIRCLE
  5
25D
100
AcDbEntity
  8
0
  6
Continuous
 62
               7
100
AcDbCircle
 10
993.58102983102913
 20
383.73579756503534
 30
0.0
 40
1.0
  0
CIRCLE
  5
25E
100
AcDbEntity
  8
0
  6
Continuous
 62
               7
100
AcDbCircle
 10
980.91784489952238
 20
406.49238082284171
 30
0.0
 40
0.5
  0
CIRCLE
  5
25F
100
AcDbEntity
  8
0
  6
Continuous
 62
               7
100
AcDbCircle
 10
996.37811887212524
 20
399.80887073352721
 30
0.0
 40
0.1
  0
CIRCLE
  5
260
100
AcDbEntity
  8
0
  6
Continuous
 62
               7
100
AcDbCircle
 10
999.68376955705639
 20
387.87649943517192
 30
0.0
 40
0.5
  0
CIRCLE
  5
261
100
AcDbEntity
  8
0
  6
Continuous
 62
               7
100
AcDbCircle
 10
987.47829010500186
 20
393.79716705873295
 30
0.0
 40
0.1
  0
CIRCLE
  5
262
100
AcDbEntity
  8
0
  6
Continuous
 62
               7
100
AcDbCircle
 10
988.2411325707551
 20
381.1929893458572
 30
0.0
 40
0.1
  0
CIRCLE
  5
263
100
AcDbEntity
  8
0
  6
Continuous
 62
               7
100
AcDbCircle
 10
1010.2895058584265
 20
383.73579756503534
 30
0.0
 40
1.0
  0
CIRCLE
  5
264
100
AcDbEntity
  8
0
  6
Continuous
 62
               7
100
AcDbCircle
 10
997.62632092691979
 20
406.49238082284171
 30
0.0
 40
0.5
  0
CIRCLE
  5
265
100
AcDbEntity
  8
0
  6
Continuous
 62
               7
100
AcDbCircle
 10
1013.0865948995222
 20
399.80887073352721
 30
0.0
 40
0.1
  0
CIRCLE
  5
266
100
AcDbEntity
  8
0
  6
Continuous
 62
               7
100
AcDbCircle
 10
1016.3922455844538
 20
387.87649943517192
 30
0.0
 40
0.5
  0
CIRCLE
  5
267
100
AcDbEntity
  8
0
  6
Continuous
 62
               7
100
AcDbCircle
 10
1004.1867661323993
 20
393.79716705873295
 30
0.0
 40
0.1
  0
CIRCLE
  5
268
100
AcDbEntity
  8
0
  6
Continuous
 62
               7
100
AcDbCircle
 10
1004.9496085981525
 20
381.1929893458572
 30
0.0
 40
0.1
  0
CIRCLE
  5
269
100
AcDbEntity
  8
0
  6
Continuous
 62
               7
100
AcDbCircle
 10
1026.9979818858239
 20
383.73579756503534
 30
0.0
 40
1.0
  0
CIRCLE
  5
26A
100
AcDbEntity
  8
0
  6
Continuous
 62
               7
100
AcDbCircle
 10
1014.3347969543172
 20
406.49238082284171
 30
0.0
 40
0.5
  0
CIRCLE
  5
26B
100
AcDbEntity
  8
0
  6
Continuous
 62
               7
100
AcDbCircle
 10
1029.7950709269201
 20
399.80887073352721
 30
0.0
 40
0.1
  0
CIRCLE
  5
26C
100
AcDbEntity
  8
0
  6
Continuous
 62
               7
100
AcDbCircle
 10
1033.1007216118512
 20
387.87649943517192
 30
0.0
 40
0.5
  0
CIRCLE
  5
26D
100
AcDbEntity
  8
0
  6
Continuous
 62
               7
100
AcDbCircle
 10
1020.8952421597962
 20
393.79716705873295
 30
0.0
 40
0.1
  0
CIRCLE
  5
26E
100
AcDbEntity
  8
0
  6
Continuous
 62
               7
100
AcDbCircle
 10
1021.6580846255499
 20
381.1929893458572
 30
0.0
 40
0.1
  0
CIRCLE
  5
26F
100
AcDbEntity
  8
0
  6
Continuous
 62
               7
100
AcDbCircle
 10
1043.7064579132214
 20
383.73579756503534
 30
0.0
 40
1.0
  0
CIRCLE
  5
270
100
AcDbEntity
  8
0
  6
Continuous
 62
               7
100
AcDbCircle
 10
1031.0432729817146
 20
406.49238082284171
 30
0.0
 40
0.5
  0
CIRCLE
  5
271
100
AcDbEntity
  8
0
  6
Continuous
 62
               7
100
AcDbCircle
 10
1046.5035469543175
 20
399.80887073352721
 30
0.0
 40
0.1
  0
CIRCLE
  5
272
100
AcDbEntity
  8
0
  6
Continuous
 62
               7
100
AcDbCircle
 10
1049.8091976392486
 20
387.87649943517192
 30
0.0
 40
0.5
  0
CIRCLE
  5
273
100
AcDbEntity
  8
0
  6
Continuous
 62
               7
100
AcDbCircle
 10
1037.6037181871941
 20
393.79716705873295
 30
0.0
 40
0.1
  0
CIRCLE
  5
274
100
AcDbEntity
  8
0
  6
Continuous
 62
               7
100
AcDbCircle
 10
1038.3665606529473
 20
381.1929893458572
 30
0.0
 40
0.1
  0
CIRCLE
  5
275
100
AcDbEntity
  8
0
  6
Continuous
 62
               7
100
AcDbCircle
 10
1060.4149339406188
 20
383.73579756503534
 30
0.0
 40
1.0
  0
CIRCLE
  5
276
100
AcDbEntity
  8
0
  6
Continuous
 62
               7
100
AcDbCircle
 10
1047.751749009112
 20
406.49238082284171
 30
0.0
 40
0.5
  0
CIRCLE
  5
277
100
AcDbEntity
  8
0
  6
Continuous
 62
               7
100
AcDbCircle
 10
1063.2120229817144
 20
399.80887073352721
 30
0.0
 40
0.1
  0
CIRCLE
  5
278
100
AcDbEntity
  8
0
  6
Continuous
 62
               7
100
AcDbCircle
 10
1054.312194214591
 20
393.79716705873295
 30
0.0
 40
0.1
  0
CIRCLE
  5
279
100
AcDbEntity
  8
0
  6
Continuous
 62
               7
100
AcDbCircle
 10
1055.0750366803447
 20
381.1929893458572
 30
0.0
 40
0.1
  0
CIRCLE
  5
27A
100
AcDbEntity
  8
0
  6
Continuous
 62
               7
100
AcDbCircle
 10
629.35799900911093
 20
443.57662555160425
 30
0.0
 40
1.0
  0
CIRCLE
  5
27B
100
AcDbEntity
  8
0
  6
Continuous
 62
               7
100
AcDbCircle
 10
628.08659489952174
 20
430.20960537297503
 30
0.0
 40
0.1
  0
CIRCLE
  5
27C
100
AcDbEntity
  8
0
  6
Continuous
 62
               7
100
AcDbCircle
 10
631.39224558445335
 20
418.27723407461951
 30
0.0
 40
0.5
  0
CIRCLE
  5
27D
100
AcDbEntity
  8
0
  6
Continuous
 62
               7
100
AcDbCircle
 10
641.99798188582349
 20
414.13653220448316
 30
0.0
 40
1.0
  0
CIRCLE
  5
27E
100
AcDbEntity
  8
0
  6
Continuous
 62
               7
100
AcDbCircle
 10
636.65808462554901
 20
436.89311546228953
 30
0.0
 40
0.5
  0
CIRCLE
  5
27F
100
AcDbEntity
  8
0
  6
Continuous
 62
               7
100
AcDbCircle
 10
646.06647503650834
 20
443.57662555160425
 30
0.0
 40
1.0
  0
CIRCLE
  5
280
100
AcDbEntity
  8
0
  6
Continuous
 62
               7
100
AcDbCircle
 10
644.79507092691915
 20
430.20960537297503
 30
0.0
 40
0.1
  0
CIRCLE
  5
281
100
AcDbEntity
  8
0
  6
Continuous
 62
               7
100
AcDbCircle
 10
648.10072161185076
 20
418.27723407461951
 30
0.0
 40
0.5
  0
CIRCLE
  5
282
100
AcDbEntity
  8
0
  6
Continuous
 62
               7
100
AcDbCircle
 10
635.89524215979577
 20
424.19790169818077
 30
0.0
 40
0.1
  0
CIRCLE
  5
283
100
AcDbEntity
  8
0
  6
Continuous
 62
               7
100
AcDbCircle
 10
639.45517366664512
 20
443.57662555160425
 30
0.0
 40
0.1
  0
CIRCLE
  5
284
100
AcDbEntity
  8
0
  6
Continuous
 62
               7
100
AcDbCircle
 10
658.70645791322045
 20
414.13653220448316
 30
0.0
 40
1.0
  0
CIRCLE
  5
285
100
AcDbEntity
  8
0
  6
Continuous
 62
               7
100
AcDbCircle
 10
653.36656065294642
 20
436.89311546228953
 30
0.0
 40
0.5
  0
CIRCLE
  5
286
100
AcDbEntity
  8
0
  6
Continuous
 62
               7
100
AcDbCircle
 10
662.77495106390575
 20
443.57662555160425
 30
0.0
 40
1.0
  0
CIRCLE
  5
287
100
AcDbEntity
  8
0
  6
Continuous
 62
               7
100
AcDbCircle
 10
661.50354695431656
 20
430.20960537297503
 30
0.0
 40
0.1
  0
CIRCLE
  5
288
100
AcDbEntity
  8
0
  6
Continuous
 62
               7
100
AcDbCircle
 10
664.80919763924817
 20
418.27723407461951
 30
0.0
 40
0.5
  0
CIRCLE
  5
289
100
AcDbEntity
  8
0
  6
Continuous
 62
               7
100
AcDbCircle
 10
652.60371818719318
 20
424.19790169818077
 30
0.0
 40
0.1
  0
CIRCLE
  5
28A
100
AcDbEntity
  8
0
  6
Continuous
 62
               7
100
AcDbCircle
 10
656.16364969404253
 20
443.57662555160425
 30
0.0
 40
0.1
  0
CIRCLE
  5
28B
100
AcDbEntity
  8
0
  6
Continuous
 62
               7
100
AcDbCircle
 10
675.41493394061786
 20
414.13653220448316
 30
0.0
 40
1.0
  0
CIRCLE
  5
28C
100
AcDbEntity
  8
0
  6
Continuous
 62
               7
100
AcDbCircle
 10
670.07503668034383
 20
436.89311546228953
 30
0.0
 40
0.5
  0
CIRCLE
  5
28D
100
AcDbEntity
  8
0
  6
Continuous
 62
               7
100
AcDbCircle
 10
678.21202298171397
 20
430.20960537297503
 30
0.0
 40
0.1
  0
CIRCLE
  5
28E
100
AcDbEntity
  8
0
  6
Continuous
 62
               7
100
AcDbCircle
 10
669.31219421459059
 20
424.19790169818077
 30
0.0
 40
0.1
  0
CIRCLE
  5
28F
100
AcDbEntity
  8
0
  6
Continuous
 62
               7
100
AcDbCircle
 10
672.87212572143994
 20
443.57662555160425
 30
0.0
 40
0.1
  0
CIRCLE
  5
290
100
AcDbEntity
  8
0
  6
Continuous
 62
               7
100
AcDbCircle
 10
628.08659489952174
 20
399.80887073352721
 30
0.0
 40
0.1
  0
CIRCLE
  5
291
100
AcDbEntity
  8
0
  6
Continuous
 62
               7
100
AcDbCircle
 10
631.39224558445335
 20
387.87649943517192
 30
0.0
 40
0.5
  0
CIRCLE
  5
292
100
AcDbEntity
  8
0
  6
Continuous
 62
               7
100
AcDbCircle
 10
641.99798188582349
 20
383.73579756503534
 30
0.0
 40
1.0
  0
CIRCLE
  5
293
100
AcDbEntity
  8
0
  6
Continuous
 62
               7
100
AcDbCircle
 10
629.33479695431629
 20
406.49238082284171
 30
0.0
 40
0.5
  0
CIRCLE
  5
294
100
AcDbEntity
  8
0
  6
Continuous
 62
               7
100
AcDbCircle
 10
644.79507092691915
 20
399.80887073352721
 30
0.0
 40
0.1
  0
CIRCLE
  5
295
100
AcDbEntity
  8
0
  6
Continuous
 62
               7
100
AcDbCircle
 10
648.10072161185076
 20
387.87649943517192
 30
0.0
 40
0.5
  0
CIRCLE
  5
296
100
AcDbEntity
  8
0
  6
Continuous
 62
               7
100
AcDbCircle
 10
635.89524215979577
 20
393.79716705873295
 30
0.0
 40
0.1
  0
CIRCLE
  5
297
100
AcDbEntity
  8
0
  6
Continuous
 62
               7
100
AcDbCircle
 10
636.65808462554901
 20
381.1929893458572
 30
0.0
 40
0.1
  0
CIRCLE
  5
298
100
AcDbEntity
  8
0
  6
Continuous
 62
               7
100
AcDbCircle
 10
658.70645791322045
 20
383.73579756503534
 30
0.0
 40
1.0
  0
CIRCLE
  5
299
100
AcDbEntity
  8
0
  6
Continuous
 62
               7
100
AcDbCircle
 10
646.0432729817137
 20
406.49238082284171
 30
0.0
 40
0.5
  0
CIRCLE
  5
29A
100
AcDbEntity
  8
0
  6
Continuous
 62
               7
100
AcDbCircle
 10
661.50354695431656
 20
399.80887073352721
 30
0.0
 40
0.1
  0
CIRCLE
  5
29B
100
AcDbEntity
  8
0
  6
Continuous
 62
               7
100
AcDbCircle
 10
664.80919763924817
 20
387.87649943517192
 30
0.0
 40
0.5
  0
CIRCLE
  5
29C
100
AcDbEntity
  8
0
  6
Continuous
 62
               7
100
AcDbCircle
 10
652.60371818719318
 20
393.79716705873295
 30
0.0
 40
0.1
  0
CIRCLE
  5
29D
100
AcDbEntity
  8
0
  6
Continuous
 62
               7
100
AcDbCircle
 10
653.36656065294642
 20
381.1929893458572
 30
0.0
 40
0.1
  0
CIRCLE
  5
29E
100
AcDbEntity
  8
0
  6
Continuous
 62
               7
100
AcDbCircle
 10
675.41493394061786
 20
383.73579756503534
 30
0.0
 40
1.0
  0
CIRCLE
  5
29F
100
AcDbEntity
  8
0
  6
Continuous
 62
               7
100
AcDbCircle
 10
662.75174900911111
 20
406.49238082284171
 30
0.0
 40
0.5
  0
CIRCLE
  5
2A0
100
AcDbEntity
  8
0
  6
Continuous
 62
               7
100
AcDbCircle
 10
678.21202298171397
 20
399.80887073352721
 30
0.0
 40
0.1
  0
CIRCLE
  5
2A1
100
AcDbEntity
  8
0
  6
Continuous
 62
               7
100
AcDbCircle
 10
669.31219421459059
 20
393.79716705873295
 30
0.0
 40
0.1
  0
CIRCLE
  5
2A2
100
AcDbEntity
  8
0
  6
Continuous
 62
               7
100
AcDbCircle
 10
670.07503668034383
 20
381.1929893458572
 30
0.0
 40
0.1
  0
CIRCLE
  5
2A3
100
AcDbEntity
  8
0
  6
Continuous
 62
               7
100
AcDbCircle
 10
685.07475772197472
 20
414.13653220448316
 30
0.0
 40
1.0
  0
CIRCLE
  5
2A4
100
AcDbEntity
  8
0
  6
Continuous
 62
               7
100
AcDbCircle
 10
689.14325087265956
 20
443.57662555160425
 30
0.0
 40
1.0
  0
CIRCLE
  5
2A5
100
AcDbEntity
  8
0
  6
Continuous
 62
               7
100
AcDbCircle
 10
687.87184676307038
 20
430.20960537297503
 30
0.0
 40
0.1
  0
CIRCLE
  5
2A6
100
AcDbEntity
  8
0
  6
Continuous
 62
               7
100
AcDbCircle
 10
691.17749744800199
 20
418.27723407461951
 30
0.0
 40
0.5
  0
CIRCLE
  5
2A7
100
AcDbEntity
  8
0
  6
Continuous
 62
               7
100
AcDbCircle
 10
680.53194950279635
 20
443.57662555160425
 30
0.0
 40
0.1
  0
CIRCLE
  5
2A8
100
AcDbEntity
  8
0
  6
Continuous
 62
               7
100
AcDbCircle
 10
701.78323374937213
 20
414.13653220448316
 30
0.0
 40
1.0
  0
CIRCLE
  5
2A9
100
AcDbEntity
  8
0
  6
Continuous
 62
               7
100
AcDbCircle
 10
696.4433364890981
 20
436.89311546228953
 30
0.0
 40
0.5
  0
CIRCLE
  5
2AA
100
AcDbEntity
  8
0
  6
Continuous
 62
               7
100
AcDbCircle
 10
705.85172690005697
 20
443.57662555160425
 30
0.0
 40
1.0
  0
CIRCLE
  5
2AB
100
AcDbEntity
  8
0
  6
Continuous
 62
               7
100
AcDbCircle
 10
704.58032279046779
 20
430.20960537297503
 30
0.0
 40
0.1
  0
CIRCLE
  5
2AC
100
AcDbEntity
  8
0
  6
Continuous
 62
               7
100
AcDbCircle
 10
707.8859734753994
 20
418.27723407461951
 30
0.0
 40
0.5
  0
CIRCLE
  5
2AD
100
AcDbEntity
  8
0
  6
Continuous
 62
               7
100
AcDbCircle
 10
695.68049402334441
 20
424.19790169818077
 30
0.0
 40
0.1
  0
CIRCLE
  5
2AE
100
AcDbEntity
  8
0
  6
Continuous
 62
               7
100
AcDbCircle
 10
699.24042553019376
 20
443.57662555160425
 30
0.0
 40
0.1
  0
CIRCLE
  5
2AF
100
AcDbEntity
  8
0
  6
Continuous
 62
               7
100
AcDbCircle
 10
718.49170977676908
 20
414.13653220448316
 30
0.0
 40
1.0
  0
CIRCLE
  5
2B0
100
AcDbEntity
  8
0
  6
Continuous
 62
               7
100
AcDbCircle
 10
713.15181251649506
 20
436.89311546228953
 30
0.0
 40
0.5
  0
CIRCLE
  5
2B1
100
AcDbEntity
  8
0
  6
Continuous
 62
               7
100
AcDbCircle
 10
722.56020292745438
 20
443.57662555160425
 30
0.0
 40
1.0
  0
CIRCLE
  5
2B2
100
AcDbEntity
  8
0
  6
Continuous
 62
               7
100
AcDbCircle
 10
721.2887988178652
 20
430.20960537297503
 30
0.0
 40
0.1
  0
CIRCLE
  5
2B3
100
AcDbEntity
  8
0
  6
Continuous
 62
               7
100
AcDbCircle
 10
724.59444950279681
 20
418.27723407461951
 30
0.0
 40
0.5
  0
CIRCLE
  5
2B4
100
AcDbEntity
  8
0
  6
Continuous
 62
               7
100
AcDbCircle
 10
712.38897005074182
 20
424.19790169818077
 30
0.0
 40
0.1
  0
CIRCLE
  5
2B5
100
AcDbEntity
  8
0
  6
Continuous
 62
               7
100
AcDbCircle
 10
715.94890155759117
 20
443.57662555160425
 30
0.0
 40
0.1
  0
CIRCLE
  5
2B6
100
AcDbEntity
  8
0
  6
Continuous
 62
               7
100
AcDbCircle
 10
735.20018580416649
 20
414.13653220448316
 30
0.0
 40
1.0
  0
CIRCLE
  5
2B7
100
AcDbEntity
  8
0
  6
Continuous
 62
               7
100
AcDbCircle
 10
729.86028854389247
 20
436.89311546228953
 30
0.0
 40
0.5
  0
CIRCLE
  5
2B8
100
AcDbEntity
  8
0
  6
Continuous
 62
               7
100
AcDbCircle
 10
739.26867895485134
 20
443.57662555160425
 30
0.0
 40
1.0
  0
CIRCLE
  5
2B9
100
AcDbEntity
  8
0
  6
Continuous
 62
               7
100
AcDbCircle
 10
737.99727484526261
 20
430.20960537297503
 30
0.0
 40
0.1
  0
CIRCLE
  5
2BA
100
AcDbEntity
  8
0
  6
Continuous
 62
               7
100
AcDbCircle
 10
741.30292553019422
 20
418.27723407461951
 30
0.0
 40
0.5
  0
CIRCLE
  5
2BB
100
AcDbEntity
  8
0
  6
Continuous
 62
               7
100
AcDbCircle
 10
729.09744607813923
 20
424.19790169818077
 30
0.0
 40
0.1
  0
CIRCLE
  5
2BC
100
AcDbEntity
  8
0
  6
Continuous
 62
               7
100
AcDbCircle
 10
732.65737758498858
 20
443.57662555160425
 30
0.0
 40
0.1
  0
CIRCLE
  5
2BD
100
AcDbEntity
  8
0
  6
Continuous
 62
               7
100
AcDbCircle
 10
751.9086618315639
 20
414.13653220448316
 30
0.0
 40
1.0
  0
CIRCLE
  5
2BE
100
AcDbEntity
  8
0
  6
Continuous
 62
               7
100
AcDbCircle
 10
746.56876457128988
 20
436.89311546228953
 30
0.0
 40
0.5
  0
CIRCLE
  5
2BF
100
AcDbEntity
  8
0
  6
Continuous
 62
               7
100
AcDbCircle
 10
755.9771549822492
 20
443.57662555160425
 30
0.0
 40
1.0
  0
CIRCLE
  5
2C0
100
AcDbEntity
  8
0
  6
Continuous
 62
               7
100
AcDbCircle
 10
754.70575087266002
 20
430.20960537297503
 30
0.0
 40
0.1
  0
CIRCLE
  5
2C1
100
AcDbEntity
  8
0
  6
Continuous
 62
               7
100
AcDbCircle
 10
758.01140155759163
 20
418.27723407461951
 30
0.0
 40
0.5
  0
CIRCLE
  5
2C2
100
AcDbEntity
  8
0
  6
Continuous
 62
               7
100
AcDbCircle
 10
745.80592210553664
 20
424.19790169818077
 30
0.0
 40
0.1
  0
CIRCLE
  5
2C3
100
AcDbEntity
  8
0
  6
Continuous
 62
               7
100
AcDbCircle
 10
749.36585361238599
 20
443.57662555160425
 30
0.0
 40
0.1
  0
CIRCLE
  5
2C4
100
AcDbEntity
  8
0
  6
Continuous
 62
               7
100
AcDbCircle
 10
768.61713785896131
 20
414.13653220448316
 30
0.0
 40
1.0
  0
CIRCLE
  5
2C5
100
AcDbEntity
  8
0
  6
Continuous
 62
               7
100
AcDbCircle
 10
763.27724059868729
 20
436.89311546228953
 30
0.0
 40
0.5
  0
CIRCLE
  5
2C6
100
AcDbEntity
  8
0
  6
Continuous
 62
               7
100
AcDbCircle
 10
771.41422690005743
 20
430.20960537297503
 30
0.0
 40
0.1
  0
CIRCLE
  5
2C7
100
AcDbEntity
  8
0
  6
Continuous
 62
               7
100
AcDbCircle
 10
762.51439813293405
 20
424.19790169818077
 30
0.0
 40
0.1
  0
CIRCLE
  5
2C8
100
AcDbEntity
  8
0
  6
Continuous
 62
               7
100
AcDbCircle
 10
766.0743296397834
 20
443.57662555160425
 30
0.0
 40
0.1
  0
CIRCLE
  5
2C9
100
AcDbEntity
  8
0
  6
Continuous
 62
               7
100
AcDbCircle
 10
685.07475772197472
 20
383.73579756503534
 30
0.0
 40
1.0
  0
CIRCLE
  5
2CA
100
AcDbEntity
  8
0
  6
Continuous
 62
               7
100
AcDbCircle
 10
687.87184676307038
 20
399.80887073352721
 30
0.0
 40
0.1
  0
CIRCLE
  5
2CB
100
AcDbEntity
  8
0
  6
Continuous
 62
               7
100
AcDbCircle
 10
691.17749744800199
 20
387.87649943517192
 30
0.0
 40
0.5
  0
CIRCLE
  5
2CC
100
AcDbEntity
  8
0
  6
Continuous
 62
               7
100
AcDbCircle
 10
701.78323374937213
 20
383.73579756503534
 30
0.0
 40
1.0
  0
CIRCLE
  5
2CD
100
AcDbEntity
  8
0
  6
Continuous
 62
               7
100
AcDbCircle
 10
689.12004881786493
 20
406.49238082284171
 30
0.0
 40
0.5
  0
CIRCLE
  5
2CE
100
AcDbEntity
  8
0
  6
Continuous
 62
               7
100
AcDbCircle
 10
704.58032279046779
 20
399.80887073352721
 30
0.0
 40
0.1
  0
CIRCLE
  5
2CF
100
AcDbEntity
  8
0
  6
Continuous
 62
               7
100
AcDbCircle
 10
707.8859734753994
 20
387.87649943517192
 30
0.0
 40
0.5
  0
CIRCLE
  5
2D0
100
AcDbEntity
  8
0
  6
Continuous
 62
               7
100
AcDbCircle
 10
695.68049402334441
 20
393.79716705873295
 30
0.0
 40
0.1
  0
CIRCLE
  5
2D1
100
AcDbEntity
  8
0
  6
Continuous
 62
               7
100
AcDbCircle
 10
696.4433364890981
 20
381.1929893458572
 30
0.0
 40
0.1
  0
CIRCLE
  5
2D2
100
AcDbEntity
  8
0
  6
Continuous
 62
               7
100
AcDbCircle
 10
718.49170977676908
 20
383.73579756503534
 30
0.0
 40
1.0
  0
CIRCLE
  5
2D3
100
AcDbEntity
  8
0
  6
Continuous
 62
               7
100
AcDbCircle
 10
705.82852484526234
 20
406.49238082284171
 30
0.0
 40
0.5
  0
CIRCLE
  5
2D4
100
AcDbEntity
  8
0
  6
Continuous
 62
               7
100
AcDbCircle
 10
721.2887988178652
 20
399.80887073352721
 30
0.0
 40
0.1
  0
CIRCLE
  5
2D5
100
AcDbEntity
  8
0
  6
Continuous
 62
               7
100
AcDbCircle
 10
724.59444950279681
 20
387.87649943517192
 30
0.0
 40
0.5
  0
CIRCLE
  5
2D6
100
AcDbEntity
  8
0
  6
Continuous
 62
               7
100
AcDbCircle
 10
712.38897005074182
 20
393.79716705873295
 30
0.0
 40
0.1
  0
CIRCLE
  5
2D7
100
AcDbEntity
  8
0
  6
Continuous
 62
               7
100
AcDbCircle
 10
713.15181251649506
 20
381.1929893458572
 30
0.0
 40
0.1
  0
CIRCLE
  5
2D8
100
AcDbEntity
  8
0
  6
Continuous
 62
               7
100
AcDbCircle
 10
735.20018580416649
 20
383.73579756503534
 30
0.0
 40
1.0
  0
CIRCLE
  5
2D9
100
AcDbEntity
  8
0
  6
Continuous
 62
               7
100
AcDbCircle
 10
722.53700087265975
 20
406.49238082284171
 30
0.0
 40
0.5
  0
CIRCLE
  5
2DA
100
AcDbEntity
  8
0
  6
Continuous
 62
               7
100
AcDbCircle
 10
737.99727484526261
 20
399.80887073352721
 30
0.0
 40
0.1
  0
CIRCLE
  5
2DB
100
AcDbEntity
  8
0
  6
Continuous
 62
               7
100
AcDbCircle
 10
741.30292553019422
 20
387.87649943517192
 30
0.0
 40
0.5
  0
CIRCLE
  5
2DC
100
AcDbEntity
  8
0
  6
Continuous
 62
               7
100
AcDbCircle
 10
729.09744607813923
 20
393.79716705873295
 30
0.0
 40
0.1
  0
CIRCLE
  5
2DD
100
AcDbEntity
  8
0
  6
Continuous
 62
               7
100
AcDbCircle
 10
729.86028854389247
 20
381.1929893458572
 30
0.0
 40
0.1
  0
CIRCLE
  5
2DE
100
AcDbEntity
  8
0
  6
Continuous
 62
               7
100
AcDbCircle
 10
751.9086618315639
 20
383.73579756503534
 30
0.0
 40
1.0
  0
CIRCLE
  5
2DF
100
AcDbEntity
  8
0
  6
Continuous
 62
               7
100
AcDbCircle
 10
739.24547690005716
 20
406.49238082284171
 30
0.0
 40
0.5
  0
CIRCLE
  5
2E0
100
AcDbEntity
  8
0
  6
Continuous
 62
               7
100
AcDbCircle
 10
754.70575087266002
 20
399.80887073352721
 30
0.0
 40
0.1
  0
CIRCLE
  5
2E1
100
AcDbEntity
  8
0
  6
Continuous
 62
               7
100
AcDbCircle
 10
758.01140155759163
 20
387.87649943517192
 30
0.0
 40
0.5
  0
CIRCLE
  5
2E2
100
AcDbEntity
  8
0
  6
Continuous
 62
               7
100
AcDbCircle
 10
745.80592210553664
 20
393.79716705873295
 30
0.0
 40
0.1
  0
CIRCLE
  5
2E3
100
AcDbEntity
  8
0
  6
Continuous
 62
               7
100
AcDbCircle
 10
746.56876457128988
 20
381.1929893458572
 30
0.0
 40
0.1
  0
CIRCLE
  5
2E4
100
AcDbEntity
  8
0
  6
Continuous
 62
               7
100
AcDbCircle
 10
768.61713785896131
 20
383.73579756503534
 30
0.0
 40
1.0
  0
CIRCLE
  5
2E5
100
AcDbEntity
  8
0
  6
Continuous
 62
               7
100
AcDbCircle
 10
755.95395292745457
 20
406.49238082284171
 30
0.0
 40
0.5
  0
CIRCLE
  5
2E6
100
AcDbEntity
  8
0
  6
Continuous
 62
               7
100
AcDbCircle
 10
771.41422690005743
 20
399.80887073352721
 30
0.0
 40
0.1
  0
CIRCLE
  5
2E7
100
AcDbEntity
  8
0
  6
Continuous
 62
               7
100
AcDbCircle
 10
762.51439813293405
 20
393.79716705873295
 30
0.0
 40
0.1
  0
CIRCLE
  5
2E8
100
AcDbEntity
  8
0
  6
Continuous
 62
               7
100
AcDbCircle
 10
763.27724059868729
 20
381.1929893458572
 30
0.0
 40
0.1
  0
CIRCLE
  5
2E9
100
AcDbEntity
  8
0
  6
Continuous
 62
               7
100
AcDbCircle
 10
777.54365891696148
 20
414.55876463003085
 30
0.0
 40
1.0
  0
CIRCLE
  5
2EA
100
AcDbEntity
  8
0
  6
Continuous
 62
               7
100
AcDbCircle
 10
781.61215206764678
 20
443.99885797715194
 30
0.0
 40
1.0
  0
CIRCLE
  5
2EB
100
AcDbEntity
  8
0
  6
Continuous
 62
               7
100
AcDbCircle
 10
780.34074795805759
 20
430.63183779852295
 30
0.0
 40
0.1
  0
CIRCLE
  5
2EC
100
AcDbEntity
  8
0
  6
Continuous
 62
               7
100
AcDbCircle
 10
783.6463986429892
 20
418.69946650016743
 30
0.0
 40
0.5
  0
CIRCLE
  5
2ED
100
AcDbEntity
  8
0
  6
Continuous
 62
               7
100
AcDbCircle
 10
775.00085069778356
 20
443.99885797715194
 30
0.0
 40
0.1
  0
CIRCLE
  5
2EE
100
AcDbEntity
  8
0
  6
Continuous
 62
               7
100
AcDbCircle
 10
794.25213494435889
 20
414.55876463003085
 30
0.0
 40
1.0
  0
CIRCLE
  5
2EF
100
AcDbEntity
  8
0
  6
Continuous
 62
               7
100
AcDbCircle
 10
788.91223768408486
 20
437.31534788783745
 30
0.0
 40
0.5
  0
CIRCLE
  5
2F0
100
AcDbEntity
  8
0
  6
Continuous
 62
               7
100
AcDbCircle
 10
798.32062809504373
 20
443.99885797715194
 30
0.0
 40
1.0
  0
CIRCLE
  5
2F1
100
AcDbEntity
  8
0
  6
Continuous
 62
               7
100
AcDbCircle
 10
797.049223985455
 20
430.63183779852295
 30
0.0
 40
0.1
  0
CIRCLE
  5
2F2
100
AcDbEntity
  8
0
  6
Continuous
 62
               7
100
AcDbCircle
 10
800.35487467038615
 20
418.69946650016743
 30
0.0
 40
0.5
  0
CIRCLE
  5
2F3
100
AcDbEntity
  8
0
  6
Continuous
 62
               7
100
AcDbCircle
 10
788.14939521833162
 20
424.62013412372869
 30
0.0
 40
0.1
  0
CIRCLE
  5
2F4
100
AcDbEntity
  8
0
  6
Continuous
 62
               7
100
AcDbCircle
 10
791.70932672518097
 20
443.99885797715194
 30
0.0
 40
0.1
  0
CIRCLE
  5
2F5
100
AcDbEntity
  8
0
  6
Continuous
 62
               7
100
AcDbCircle
 10
810.9606109717563
 20
414.55876463003085
 30
0.0
 40
1.0
  0
CIRCLE
  5
2F6
100
AcDbEntity
  8
0
  6
Continuous
 62
               7
100
AcDbCircle
 10
805.62071371148227
 20
437.31534788783745
 30
0.0
 40
0.5
  0
CIRCLE
  5
2F7
100
AcDbEntity
  8
0
  6
Continuous
 62
               7
100
AcDbCircle
 10
815.02910412244114
 20
443.99885797715194
 30
0.0
 40
1.0
  0
CIRCLE
  5
2F8
100
AcDbEntity
  8
0
  6
Continuous
 62
               7
100
AcDbCircle
 10
813.75770001285196
 20
430.63183779852295
 30
0.0
 40
0.1
  0
CIRCLE
  5
2F9
100
AcDbEntity
  8
0
  6
Continuous
 62
               7
100
AcDbCircle
 10
817.06335069778356
 20
418.69946650016743
 30
0.0
 40
0.5
  0
CIRCLE
  5
2FA
100
AcDbEntity
  8
0
  6
Continuous
 62
               7
100
AcDbCircle
 10
804.85787124572857
 20
424.62013412372869
 30
0.0
 40
0.1
  0
CIRCLE
  5
2FB
100
AcDbEntity
  8
0
  6
Continuous
 62
               7
100
AcDbCircle
 10
808.41780275257793
 20
443.99885797715194
 30
0.0
 40
0.1
  0
CIRCLE
  5
2FC
100
AcDbEntity
  8
0
  6
Continuous
 62
               7
100
AcDbCircle
 10
827.66908699915371
 20
414.55876463003085
 30
0.0
 40
1.0
  0
CIRCLE
  5
2FD
100
AcDbEntity
  8
0
  6
Continuous
 62
               7
100
AcDbCircle
 10
822.32918973887968
 20
437.31534788783745
 30
0.0
 40
0.5
  0
CIRCLE
  5
2FE
100
AcDbEntity
  8
0
  6
Continuous
 62
               7
100
AcDbCircle
 10
831.73758014983855
 20
443.99885797715194
 30
0.0
 40
1.0
  0
CIRCLE
  5
2FF
100
AcDbEntity
  8
0
  6
Continuous
 62
               7
100
AcDbCircle
 10
830.46617604024937
 20
430.63183779852295
 30
0.0
 40
0.1
  0
CIRCLE
  5
300
100
AcDbEntity
  8
0
  6
Continuous
 62
               7
100
AcDbCircle
 10
833.77182672518097
 20
418.69946650016743
 30
0.0
 40
0.5
  0
CIRCLE
  5
301
100
AcDbEntity
  8
0
  6
Continuous
 62
               7
100
AcDbCircle
 10
821.56634727312598
 20
424.62013412372869
 30
0.0
 40
0.1
  0
CIRCLE
  5
302
100
AcDbEntity
  8
0
  6
Continuous
 62
               7
100
AcDbCircle
 10
825.12627877997534
 20
443.99885797715194
 30
0.0
 40
0.1
  0
CIRCLE
  5
303
100
AcDbEntity
  8
0
  6
Continuous
 62
               7
100
AcDbCircle
 10
844.37756302655112
 20
414.55876463003085
 30
0.0
 40
1.0
  0
CIRCLE
  5
304
100
AcDbEntity
  8
0
  6
Continuous
 62
               7
100
AcDbCircle
 10
839.03766576627709
 20
437.31534788783745
 30
0.0
 40
0.5
  0
CIRCLE
  5
305
100
AcDbEntity
  8
0
  6
Continuous
 62
               7
100
AcDbCircle
 10
848.44605617723596
 20
443.99885797715194
 30
0.0
 40
1.0
  0
CIRCLE
  5
306
100
AcDbEntity
  8
0
  6
Continuous
 62
               7
100
AcDbCircle
 10
847.17465206764678
 20
430.63183779852295
 30
0.0
 40
0.1
  0
CIRCLE
  5
307
100
AcDbEntity
  8
0
  6
Continuous
 62
               7
100
AcDbCircle
 10
850.48030275257838
 20
418.69946650016743
 30
0.0
 40
0.5
  0
CIRCLE
  5
308
100
AcDbEntity
  8
0
  6
Continuous
 62
               7
100
AcDbCircle
 10
838.27482330052339
 20
424.62013412372869
 30
0.0
 40
0.1
  0
CIRCLE
  5
309
100
AcDbEntity
  8
0
  6
Continuous
 62
               7
100
AcDbCircle
 10
841.83475480737275
 20
443.99885797715194
 30
0.0
 40
0.1
  0
CIRCLE
  5
30A
100
AcDbEntity
  8
0
  6
Continuous
 62
               7
100
AcDbCircle
 10
861.08603905394853
 20
414.55876463003085
 30
0.0
 40
1.0
  0
CIRCLE
  5
30B
100
AcDbEntity
  8
0
  6
Continuous
 62
               7
100
AcDbCircle
 10
855.7461417936745
 20
437.31534788783745
 30
0.0
 40
0.5
  0
CIRCLE
  5
30C
100
AcDbEntity
  8
0
  6
Continuous
 62
               7
100
AcDbCircle
 10
863.88312809504419
 20
430.63183779852295
 30
0.0
 40
0.1
  0
CIRCLE
  5
30D
100
AcDbEntity
  8
0
  6
Continuous
 62
               7
100
AcDbCircle
 10
854.9832993279208
 20
424.62013412372869
 30
0.0
 40
0.1
  0
CIRCLE
  5
30E
100
AcDbEntity
  8
0
  6
Continuous
 62
               7
100
AcDbCircle
 10
858.54323083477016
 20
443.99885797715194
 30
0.0
 40
0.1
  0
CIRCLE
  5
30F
100
AcDbEntity
  8
0
  6
Continuous
 62
               7
100
AcDbCircle
 10
777.54365891696148
 20
384.15802999058326
 30
0.0
 40
1.0
  0
CIRCLE
  5
310
100
AcDbEntity
  8
0
  6
Continuous
 62
               7
100
AcDbCircle
 10
780.34074795805759
 20
400.23110315907513
 30
0.0
 40
0.1
  0
CIRCLE
  5
311
100
AcDbEntity
  8
0
  6
Continuous
 62
               7
100
AcDbCircle
 10
783.6463986429892
 20
388.29873186071961
 30
0.0
 40
0.5
  0
CIRCLE
  5
312
100
AcDbEntity
  8
0
  6
Continuous
 62
               7
100
AcDbCircle
 10
794.25213494435889
 20
384.15802999058326
 30
0.0
 40
1.0
  0
CIRCLE
  5
313
100
AcDbEntity
  8
0
  6
Continuous
 62
               7
100
AcDbCircle
 10
781.58895001285214
 20
406.91461324838963
 30
0.0
 40
0.5
  0
CIRCLE
  5
314
100
AcDbEntity
  8
0
  6
Continuous
 62
               7
100
AcDbCircle
 10
797.049223985455
 20
400.23110315907513
 30
0.0
 40
0.1
  0
CIRCLE
  5
315
100
AcDbEntity
  8
0
  6
Continuous
 62
               7
100
AcDbCircle
 10
800.35487467038615
 20
388.29873186071961
 30
0.0
 40
0.5
  0
CIRCLE
  5
316
100
AcDbEntity
  8
0
  6
Continuous
 62
               7
100
AcDbCircle
 10
788.14939521833162
 20
394.21939948428087
 30
0.0
 40
0.1
  0
CIRCLE
  5
317
100
AcDbEntity
  8
0
  6
Continuous
 62
               7
100
AcDbCircle
 10
788.91223768408486
 20
381.61522177140512
 30
0.0
 40
0.1
  0
CIRCLE
  5
318
100
AcDbEntity
  8
0
  6
Continuous
 62
               7
100
AcDbCircle
 10
810.9606109717563
 20
384.15802999058326
 30
0.0
 40
1.0
  0
CIRCLE
  5
319
100
AcDbEntity
  8
0
  6
Continuous
 62
               7
100
AcDbCircle
 10
798.29742604024955
 20
406.91461324838963
 30
0.0
 40
0.5
  0
CIRCLE
  5
31A
100
AcDbEntity
  8
0
  6
Continuous
 62
               7
100
AcDbCircle
 10
813.75770001285196
 20
400.23110315907513
 30
0.0
 40
0.1
  0
CIRCLE
  5
31B
100
AcDbEntity
  8
0
  6
Continuous
 62
               7
100
AcDbCircle
 10
817.06335069778356
 20
388.29873186071961
 30
0.0
 40
0.5
  0
CIRCLE
  5
31C
100
AcDbEntity
  8
0
  6
Continuous
 62
               7
100
AcDbCircle
 10
804.85787124572857
 20
394.21939948428087
 30
0.0
 40
0.1
  0
CIRCLE
  5
31D
100
AcDbEntity
  8
0
  6
Continuous
 62
               7
100
AcDbCircle
 10
805.62071371148227
 20
381.61522177140512
 30
0.0
 40
0.1
  0
CIRCLE
  5
31E
100
AcDbEntity
  8
0
  6
Continuous
 62
               7
100
AcDbCircle
 10
827.66908699915371
 20
384.15802999058326
 30
0.0
 40
1.0
  0
CIRCLE
  5
31F
100
AcDbEntity
  8
0
  6
Continuous
 62
               7
100
AcDbCircle
 10
815.00590206764696
 20
406.91461324838963
 30
0.0
 40
0.5
  0
CIRCLE
  5
320
100
AcDbEntity
  8
0
  6
Continuous
 62
               7
100
AcDbCircle
 10
830.46617604024937
 20
400.23110315907513
 30
0.0
 40
0.1
  0
CIRCLE
  5
321
100
AcDbEntity
  8
0
  6
Continuous
 62
               7
100
AcDbCircle
 10
833.77182672518097
 20
388.29873186071961
 30
0.0
 40
0.5
  0
CIRCLE
  5
322
100
AcDbEntity
  8
0
  6
Continuous
 62
               7
100
AcDbCircle
 10
821.56634727312598
 20
394.21939948428087
 30
0.0
 40
0.1
  0
CIRCLE
  5
323
100
AcDbEntity
  8
0
  6
Continuous
 62
               7
100
AcDbCircle
 10
822.32918973887968
 20
381.61522177140512
 30
0.0
 40
0.1
  0
CIRCLE
  5
324
100
AcDbEntity
  8
0
  6
Continuous
 62
               7
100
AcDbCircle
 10
844.37756302655112
 20
384.15802999058326
 30
0.0
 40
1.0
  0
CIRCLE
  5
325
100
AcDbEntity
  8
0
  6
Continuous
 62
               7
100
AcDbCircle
 10
831.71437809504391
 20
406.91461324838963
 30
0.0
 40
0.5
  0
CIRCLE
  5
326
100
AcDbEntity
  8
0
  6
Continuous
 62
               7
100
AcDbCircle
 10
847.17465206764678
 20
400.23110315907513
 30
0.0
 40
0.1
  0
CIRCLE
  5
327
100
AcDbEntity
  8
0
  6
Continuous
 62
               7
100
AcDbCircle
 10
850.48030275257838
 20
388.29873186071961
 30
0.0
 40
0.5
  0
CIRCLE
  5
328
100
AcDbEntity
  8
0
  6
Continuous
 62
               7
100
AcDbCircle
 10
838.27482330052339
 20
394.21939948428087
 30
0.0
 40
0.1
  0
CIRCLE
  5
329
100
AcDbEntity
  8
0
  6
Continuous
 62
               7
100
AcDbCircle
 10
839.03766576627709
 20
381.61522177140512
 30
0.0
 40
0.1
  0
CIRCLE
  5
32A
100
AcDbEntity
  8
0
  6
Continuous
 62
               7
100
AcDbCircle
 10
861.08603905394853
 20
384.15802999058326
 30
0.0
 40
1.0
  0
CIRCLE
  5
32B
100
AcDbEntity
  8
0
  6
Continuous
 62
               7
100
AcDbCircle
 10
848.42285412244132
 20
406.91461324838963
 30
0.0
 40
0.5
  0
CIRCLE
  5
32C
100
AcDbEntity
  8
0
  6
Continuous
 62
               7
100
AcDbCircle
 10
863.88312809504419
 20
400.23110315907513
 30
0.0
 40
0.1
  0
CIRCLE
  5
32D
100
AcDbEntity
  8
0
  6
Continuous
 62
               7
100
AcDbCircle
 10
854.9832993279208
 20
394.21939948428087
 30
0.0
 40
0.1
  0
CIRCLE
  5
32E
100
AcDbEntity
  8
0
  6
Continuous
 62
               7
100
AcDbCircle
 10
855.7461417936745
 20
381.61522177140512
 30
0.0
 40
0.1
  0
ARC
  5
32F
100
AcDbEntity
  8
0
  6
Continuous
 62
               4
100
AcDbCircle
 10
730.99725340220834
 20
457.55486507191858
 30
0.0
 40
0.750000000000014
100
AcDbArc
 50
269.99999999999994
 51
90.0
  0
ARC
  5
330
100
AcDbEntity
  8
0
  6
Continuous
 62
               7
100
AcDbCircle
 10
724.24725340220834
 20
482.80486507191881
 30
0.0
 40
2.5
100
AcDbArc
 50
269.99999999999994
 51
90.0
  0
ARC
  5
331
100
AcDbEntity
  8
0
  6
Continuous
 62
               4
100
AcDbCircle
 10
724.49725340220834
 20
482.55486507191881
 30
0.0
 40
0.75
100
AcDbArc
 50
269.99999999999994
 51
90.0
  0
ARC
  5
332
100
AcDbEntity
  8
0
  6
Continuous
 62
               4
100
AcDbCircle
 10
630.84725340220871
 20
516.79852534029828
 30
0.0
 40
1.5
100
AcDbArc
 50
180.0
 51
0.0
  0
ARC
  5
333
100
AcDbEntity
  8
0
  6
Continuous
 62
               7
100
AcDbCircle
 10
872.44286818394835
 20
452.01678064851012
 30
0.0
 40
13.241589910331108
100
AcDbArc
 50
9.9503833087841489
 51
84.249105970512744
  0
ARC
  5
334
100
AcDbEntity
  8
0
  6
Continuous
 62
               7
100
AcDbCircle
 10
873.09657779311942
 20
452.01678064851012
 30
0.0
 40
13.241589910331108
100
AcDbArc
 50
95.750894029487256
 51
170.04961669121585
  0
ARC
  5
335
100
AcDbEntity
  8
0
  6
Continuous
 62
               7
100
AcDbCircle
 10
870.51972298853411
 20
473.05486507191836
 30
0.0
 40
0.750000000000014
100
AcDbArc
 50
180.0
 51
0.0
  0
ARC
  5
336
100
AcDbEntity
  8
0
  6
Continuous
 62
               7
100
AcDbCircle
 10
871.7697229885332
 20
483.30486507191836
 30
0.0
 40
2.0000000000000142
100
AcDbArc
 50
0.0
 51
180.0
  0
ARC
  5
337
100
AcDbEntity
  8
0
  6
Continuous
 62
               4
100
AcDbCircle
 10
871.5197229885332
 20
483.6166038217516
 30
0.0
 40
1.250000000000014
100
AcDbArc
 50
0.0
 51
180.0
  0
ARC
  5
338
100
AcDbEntity
  8
0
  6
Continuous
 62
               7
100
AcDbCircle
 10
871.2697229885332
 20
483.89723535277108
 30
0.0
 40
0.5
100
AcDbArc
 50
0.0
 51
180.0
  0
ARC
  5
339
100
AcDbEntity
  8
0
  6
Continuous
 62
               7
100
AcDbCircle
 10
718.43025956684528
 20
456.32986507191845
 30
0.0
 40
1.342498905235243
100
AcDbArc
 50
310.22613280369052
 51
49.773867196309389
  0
ARC
  5
33A
100
AcDbEntity
  8
0
  6
Continuous
 62
               7
100
AcDbCircle
 10
700.16424723757177
 20
456.32986507191845
 30
0.0
 40
1.342498905235243
100
AcDbArc
 50
130.22613280369055
 51
229.77386719630942
  0
ARC
  5
33B
100
AcDbEntity
  8
0
  6
Continuous
 62
               4
100
AcDbCircle
 10
690.46710534394674
 20
484.84315663828534
 30
0.0
 40
0.5
100
AcDbArc
 50
0.0
 51
125.05942696688776
  0
ARC
  5
33C
100
AcDbEntity
  8
0
  6
Continuous
 62
               4
100
AcDbCircle
 10
693.66710534394656
 20
484.84315663828534
 30
0.0
 40
0.5
100
AcDbArc
 50
54.940573033113722
 51
180.0000000000008
  0
ARC
  5
33D
100
AcDbEntity
  8
0
  6
Continuous
 62
               4
100
AcDbCircle
 10
693.86710534394683
 20
480.15092587050185
 30
0.0
 40
1.0
100
AcDbArc
 50
209.05460409907829
 51
72.542396876278815
  0
ARC
  5
33E
100
AcDbEntity
  8
0
  6
Continuous
 62
               4
100
AcDbCircle
 10
690.26710534394647
 20
480.15092587050185
 30
0.0
 40
1.0
100
AcDbArc
 50
107.45760312372272
 51
330.9453959009233
  0
ARC
  5
33F
100
AcDbEntity
  8
0
  6
Continuous
 62
               4
100
AcDbCircle
 10
620.17577305090117
 20
698.85829279579798
 30
0.0
 40
2.0
100
AcDbArc
 50
86.987212495815413
 51
176.98721249581766
  0
ARC
  5
340
100
AcDbEntity
  8
0
  6
Continuous
 62
               4
100
AcDbCircle
 10
628.63607459329364
 20
698.41301376725119
 30
0.0
 40
2.0
100
AcDbArc
 50
8.0699151912738127
 51
86.987212495815697
  0
ARC
  5
341
100
AcDbEntity
  8
0
  6
Continuous
 62
               4
100
AcDbCircle
 10
438.24346306585062
 20
707.43229344814677
 30
0.0
 40
3.0
100
AcDbArc
 50
356.98721249581661
 51
86.987212495815911
  0
ARC
  5
342
100
AcDbEntity
  8
0
  6
Continuous
 62
               4
100
AcDbCircle
 10
426.58108909772068
 20
703.03918218582726
 30
0.0
 40
8.0
100
AcDbArc
 50
86.987212495814731
 51
170.03964059994635
  0
TEXT
  5
343
100
AcDbEntity
  8
0
 62
               7
100
AcDbText
 10
784.24725340220834
 20
460.30486507191858
 30
0.0
 40
20.0
  1
30
 50
90.000000000000028
 41
0.7695
  7
FontTableH_0
 72
               5
 11
784.24725340220834
 21
480.30486507191858
 31
0.0
100
AcDbText
  0
TEXT
  5
344
100
AcDbEntity
  8
0
 62
               7
100
AcDbText
 10
704.24725340220857
 20
530.30486507191858
 30
0.0
 40
20.0
  1
25
 41
0.7695
  7
FontTableH_0
 72
               5
 11
724.24725340220857
 21
530.30486507191858
 31
0.0
100
AcDbText
  0
TEXT
  5
345
100
AcDbEntity
  8
0
 62
               7
100
AcDbText
 10
661.74725340220834
 20
560.30486507191858
 30
0.0
 40
20.0
  1
100
 41
0.7695
  7
FontTableH_0
 72
               5
 11
691.74725340220834
 21
560.30486507191858
 31
0.0
100
AcDbText
  0
TEXT
  5
346
100
AcDbEntity
  8
0
 62
               7
100
AcDbText
 10
739.758488195371
 20
560.30486507191858
 30
0.0
 40
20.0
  1
(割付による)
 41
0.7695
  7
FontTableH_0
 72
               5
 11
859.758488195371
 21
560.30486507191858
 31
0.0
100
AcDbText
  0
TEXT
  5
347
100
AcDbEntity
  8
0
 62
               7
100
AcDbText
 10
949.01972298853343
 20
560.30486507191858
 30
0.0
 40
20.0
  1
@385
 41
0.7695
  7
FontTableH_0
 72
               5
 11
989.01972298853343
 21
560.30486507191858
 31
0.0
100
AcDbText
  0
TEXT
  5
348
100
AcDbEntity
  8
0
 62
               7
100
AcDbText
 10
750.94407787096475
 20
517.41086110492824
 30
0.0
 40
20.0
  1
面戸
 41
0.7695
  7
FontTableH_0
 72
               5
 11
790.94407787096475
 21
517.41086110492824
 31
0.0
100
AcDbText
  0
TEXT
  5
349
100
AcDbEntity
  8
0
 62
               7
100
AcDbText
 10
721.47874970631119
 20
611.5718011093652
 30
0.0
 40
20.0
  1
雨押え
 41
0.7695
  7
FontTableH_0
 72
               5
 11
781.47874970631119
 21
611.5718011093652
 31
0.0
100
AcDbText
  0
TEXT
  5
34A
100
AcDbEntity
  8
0
 62
               7
100
AcDbText
 10
624.61042815655969
 20
766.15617886087398
 30
0.0
 40
20.000000000000568
  1
アルミ笠木（別途）
 41
0.7695
  7
FontTableH_0
 72
               5
 11
804.61042815655969
 21
766.15617886087398
 31
0.0
100
AcDbText
  0
TEXT
  5
34B
100
AcDbEntity
  8
0
 62
               7
100
AcDbText
 10
685.55804210315455
 20
658.30887226407526
 30
0.0
 40
20.0
  1
ハーパーズストロングルーフ385
 41
0.7695
  7
FontTableH_0
 72
               5
 11
975.55804210315455
 21
658.30887226407526
 31
0.0
100
AcDbText
  0
TEXT
  5
34C
100
AcDbEntity
  8
0
 62
               7
100
AcDbText
 10
1110.2697229885341
 20
460.30486507191881
 30
0.0
 40
20.0
  1
30
 50
90.000000000000028
 41
0.7695
  7
FontTableH_0
 72
               5
 11
1110.2697229885341
 21
480.30486507191881
 31
0.0
100
AcDbText
  0
TEXT
  5
34D
100
AcDbEntity
  8
0
 62
               7
100
AcDbText
 10
1110.2697229885341
 20
404.80486507191847
 30
0.0
 40
20.0
  1
75
 50
90.000000000000028
 41
0.7695
  7
FontTableH_0
 72
               5
 11
1110.2697229885341
 21
424.80486507191847
 31
0.0
100
AcDbText
  0
TEXT
  5
34E
100
AcDbEntity
  8
0
 62
               7
100
AcDbText
 10
74.254845672550005
 20
995.21046947427999
 30
0.0
 40
15.0
  1
ジンクロン 屋上防水改修
 41
0.7695
  7
FontTableH_0
 72
               5
 11
246.75484567255
 21
995.21046947427999
 31
0.0
100
AcDbText
  0
TEXT
  5
34F
100
AcDbEntity
  8
0
 62
               7
100
AcDbText
 10
1245.699237596275
 20
37.507677550555059
 30
0.0
 40
15.0
  1
ケラバ詳細図 【S=1/5】
 41
0.7695
  7
FontTableH_0
 72
               5
 11
1410.699237596275
 21
37.507677550555059
 31
0.0
100
AcDbText
  0
ENDSEC
  0
SECTION
  2
OBJECTS
  0
DICTIONARY
  5
19
100
AcDbDictionary
  3
ACAD_GROUP
350
1A
  3
ACAD_MLINESTYLE
350
1B
  3
DWGPROPS
350
350
  0
DICTIONARY
  5
1A
102
{ACAD_REACTORS
330
19
102
}
100
AcDbDictionary
  0
DICTIONARY
  5
1B
102
{ACAD_REACTORS
330
19
102
}
100
AcDbDictionary
  3
STANDARD
350
1C
  0
MLINESTYLE
  5
1C
102
{ACAD_REACTORS
330
1B
102
}
100
AcDbMlineStyle
  2
Standard
 70
               0
  3

 62
               0
 51
90.0
 52
90.0
 71
               2
 49
0.5
 62
             256
  6
ByLayer
 49
-0.5
 62
             256
  6
ByLayer
  0
XRECORD
  5
350
100
AcDbXrecord
  1
DWGPROPS COOKIE
  2

  3

  4

  6

  7

  0
ENDSEC
  0
EOF
