  0
SECTION
  2
HEADER
  9
$ACADVER
  1
AC1014
  9
$ACADMAINTVER
 70
               0
  9
$DWGCODEPAGE
  3
ANSI_932
  9
$INSBASE
 10
0.0
 20
0.0
 30
0.0
  9
$EXTMIN
 10
0.0
 20
0.0
 30
0.0
  9
$EXTMAX
 10
4076.484848484848
 20
2534.8324164974993
 30
0.0
  9
$LIMMIN
 10
0.0
 20
0.0
  9
$LIMMAX
 10
4076.484848484848
 20
2534.8324164974993
  9
$ORTHOMODE
 70
               0
  9
$REGENMODE
 70
               1
  9
$FILLMODE
 70
               1
  9
$QTEXTMODE
 70
               0
  9
$MIRRTEXT
 70
               1
  9
$DRAGMODE
 70
               2
  9
$LTSCALE
 40
1.0
  9
$OSMODE
 70
               0
  9
$ATTMODE
 70
               1
  9
$TEXTSIZE
 40
0.2
  9
$TRACEWID
 40
0.05
  9
$TEXTSTYLE
  7
Standard
  9
$CLAYER
  8
0
  9
$CELTYPE
  6
Continuous
  9
$CECOLOR
 62
             256
  9
$CELTSCALE
 40
1.0
  9
$DELOBJ
 70
               1
  9
$DISPSILH
 70
               0
  9
$DIMSCALE
 40
1.0
  9
$DIMASZ
 40
0.18
  9
$DIMEXO
 40
0.0625
  9
$DIMDLI
 40
0.38
  9
$DIMRND
 40
0.0
  9
$DIMDLE
 40
0.0
  9
$DIMEXE
 40
0.18
  9
$DIMTP
 40
0.0
  9
$DIMTM
 40
0.0
  9
$DIMTXT
 40
0.18
  9
$DIMCEN
 40
0.09
  9
$DIMTSZ
 40
0.0
  9
$DIMTOL
 70
               0
  9
$DIMLIM
 70
               0
  9
$DIMTIH
 70
               1
  9
$DIMTOH
 70
               1
  9
$DIMSE1
 70
               0
  9
$DIMSE2
 70
               0
  9
$DIMTAD
 70
               0
  9
$DIMZIN
 70
               0
  9
$DIMBLK
  1

  9
$DIMASO
 70
               1
  9
$DIMSHO
 70
               1
  9
$DIMPOST
  1

  9
$DIMAPOST
  1

  9
$DIMALT
 70
               0
  9
$DIMALTD
 70
               2
  9
$DIMALTF
 40
25.399999999999999
  9
$DIMLFAC
 40
1.0
  9
$DIMTOFL
 70
               0
  9
$DIMTVP
 40
0.0
  9
$DIMTIX
 70
               0
  9
$DIMSOXD
 70
               0
  9
$DIMSAH
 70
               0
  9
$DIMBLK1
  1

  9
$DIMBLK2
  1

  9
$DIMSTYLE
  2
Standard
  9
$DIMCLRD
 70
               0
  9
$DIMCLRE
 70
               0
  9
$DIMCLRT
 70
               0
  9
$DIMTFAC
 40
1.0
  9
$DIMGAP
 40
0.09
  9
$DIMJUST
 70
               0
  9
$DIMSD1
 70
               0
  9
$DIMSD2
 70
               0
  9
$DIMTOLJ
 70
               1
  9
$DIMTZIN
 70
               0
  9
$DIMALTZ
 70
               0
  9
$DIMALTTZ
 70
               0
  9
$DIMFIT
 70
               3
  9
$DIMUPT
 70
               0
  9
$DIMUNIT
 70
               2
  9
$DIMDEC
 70
               4
  9
$DIMTDEC
 70
               4
  9
$DIMALTU
 70
               2
  9
$DIMALTTD
 70
               2
  9
$DIMTXSTY
  7
Standard
  9
$DIMAUNIT
 70
               0
  9
$LUNITS
 70
               2
  9
$LUPREC
 70
               4
  9
$SKETCHINC
 40
0.1
  9
$FILLETRAD
 40
0.0
  9
$AUNITS
 70
               0
  9
$AUPREC
 70
               0
  9
$MENU
  1
acad
  9
$ELEVATION
 40
0.0
  9
$PELEVATION
 40
0.0
  9
$THICKNESS
 40
0.0
  9
$LIMCHECK
 70
               0
  9
$BLIPMODE
 70
               1
  9
$CHAMFERA
 40
0.0
  9
$CHAMFERB
 40
0.0
  9
$CHAMFERC
 40
0.0
  9
$CHAMFERD
 40
0.0
  9
$SKPOLY
 70
               0
  9
$TDCREATE
 40
0.000000000
  9
$TDUPDATE
 40
0.000000000
  9
$TDINDWG
 40
0.0000000000
  9
$TDUSRTIMER
 40
0.0000000000
  9
$USRTIMER
 70
               1
  9
$ANGBASE
 50
0.0
  9
$ANGDIR
 70
               0
  9
$PDMODE
 70
               0
  9
$PDSIZE
 40
0.0
  9
$PLINEWID
 40
0.0
  9
$COORDS
 70
               0
  9
$SPLFRAME
 70
               0
  9
$SPLINETYPE
 70
               6
  9
$SPLINESEGS
 70
               8
  9
$ATTDIA
 70
               0
  9
$ATTREQ
 70
               1
  9
$HANDLING
 70
               1
  9
$HANDSEED
  5
3D5
  9
$SURFTAB1
 70
               6
  9
$SURFTAB2
 70
               6
  9
$SURFTYPE
 70
               6
  9
$SURFU
 70
               6
  9
$SURFV
 70
               6
  9
$UCSNAME
  2

  9
$UCSORG
 10
0.0
 20
0.0
 30
0.0
  9
$UCSXDIR
 10
1.0
 20
0.0
 30
0.0
  9
$UCSYDIR
 10
0.0
 20
1.0
 30
0.0
  9
$PUCSNAME
  2

  9
$PUCSORG
 10
0.0
 20
0.0
 30
0.0
  9
$PUCSXDIR
 10
1.0
 20
0.0
 30
0.0
  9
$PUCSYDIR
 10
0.0
 20
1.0
 30
0.0
  9
$USERI1
 70
               0
  9
$USERI2
 70
               0
  9
$USERI3
 70
               0
  9
$USERI4
 70
               0
  9
$USERI5
 70
               0
  9
$USERR1
 40
0.0
  9
$USERR2
 40
0.0
  9
$USERR3
 40
0.0
  9
$USERR4
 40
0.0
  9
$USERR5
 40
0.0
  9
$WORLDVIEW
 70
               1
  9
$SHADEDGE
 70
               3
  9
$SHADEDIF
 70
              70
  9
$TILEMODE
 70
               1
  9
$MAXACTVP
 70
              16
  9
$PINSBASE
 10
0.0
 20
0.0
 30
0.0
  9
$PLIMCHECK
 70
               0
  9
$PEXTMIN
 10
1.0000000000000000E+20
 20
1.0000000000000000E+20
 30
1.0000000000000000E+20
  9
$PEXTMAX
 10
-1.0000000000000000E+20
 20
-1.0000000000000000E+20
 30
-1.0000000000000000E+20
  9
$PLIMMIN
 10
0.0
 20
0.0
  9
$PLIMMAX
 10
12.0
 20
9.0
  9
$UNITMODE
 70
               0
  9
$VISRETAIN
 70
               0
  9
$PLINEGEN
 70
               1
  9
$PSLTSCALE
 70
               0
  9
$TREEDEPTH
 70
            3020
  9
$PICKSTYLE
 70
               1
  9
$CMLSTYLE
  2
Standard
  9
$CMLJUST
 70
               0
  9
$CMLSCALE
 40
1.0
  9
$PROXYGRAPHICS
 70
               0
  9
$MEASUREMENT
 70
               0
  0
ENDSEC
  0
SECTION
  2
CLASSES
  0
CLASS
  1
LWPOLYLINE
  2
AcDbPolyline
  3
"AutoCAD"
 90
        0
280
               0
281
               1
  0
CLASS
  1
IMAGE
  2
AcDbRasterImage
  3
ISM
 90
      127
280
               0
281
               1
  0
CLASS
  1
OLE2FRAME
  2
AcDbOle2Frame
  3
""
 90
        0
280
               0
281
               1
  0
CLASS
  1
HATCH
  2
AcDbHatch
  3
"ACAD_SEDONA"
 90
        0
280
               0
281
               1
  0
CLASS
  1
DICTIONARYVAR
  2
AcDbDictionaryVar
  3
"AutoCAD"
 90
        0
280
               0
281
               0
  0
CLASS
  1
RASTERVARIABLES
  2
AcDbRasterVariables
  3
ISM
 90
        0
280
               0
281
               0
  0
CLASS
  1
IMAGEDEF
  2
AcDbRasterImageDef
  3
ISM
 90
        0
280
               0
281
               0
  0
CLASS
  1
IMAGEDEF_REACTOR
  2
AcDbRasterImageDefReactor
  3
ISM
 90
        1
280
               0
281
               0
  0
CLASS
  1
IDBUFFER
  2
AcDbIdBuffer
  3
"Acad"
 90
        0
280
               0
281
               0
  0
CLASS
  1
SPATIAL_FILTER
  2
AcDbSpatialFilter
  3
"Acad"
 90
        0
280
               0
281
               0
  0
CLASS
  1
XRECORD
  2
AcDbXrecord
  3
"<Built In>"
 90
        0
280
               0
281
               0
  0
CLASS
  1
SORTENTSTABLE
  2
AcDbSortentsTable
  3
"AutoCAD"
 90
        0
280
               0
281
               0
  0
CLASS
  1
LAYER_INDEX
  2
AcDbLayerIndex
  3
"Acad"
 90
        0
280
               0
281
               0
  0
CLASS
  1
SPATIAL_INDEX
  2
AcDbSpatialIndex
  3
"Acad"
 90
        0
280
               0
281
               0
  0
CLASS
  1
OBJECT_PTR
  2
CAseDLPNTableRecord
  3
"ASE-LPNTableRecord"
 90
        1
280
               0
281
               0
  0
CLASS
  1
LAYOUT
  2
AcDbLayout
  3
"AutoCAD 2000"
 90
        0
280
               0
281
               0
  0
CLASS
  1
PLOTSETTINGS
  2
AcDbPlotSettings
  3
"AutoCAD 2000"
 90
        0
280
               0
281
               0
  0
CLASS
  1
ACDBDICTIONARYWDFLT
  2
AcDbDictionaryWithDefault
  3
"AutoCAD 2000"
 90
        0
280
               0
281
               0
  0
CLASS
  1
ACDBPLACEHOLDER
  2
AcDbPlaceHolder
  3
"AutoCAD 2000"
 90
        0
280
               0
281
               0
  0
CLASS
  1
VBA_PROJECT
  2
AcDbVbaProject
  3
"acadvba"
 90
        0
280
               0
281
               0
  0
CLASS
  1
WIPEOUT
  2
AcDbWipeout
  3
WipeOut|AutoCAD Express Tool|expresstools@autodesk.com
 90
      127
280
               0
281
               1
  0
CLASS
  1
WIPEOUTVARIABLES
  2
AcDbWipeoutVariables
  3
WipeOut|AutoCAD Express Tool|expresstools@autodesk.com
 90
        0
280
               0
281
               0
  0
CLASS
  1
RTEXT
  2
RText
  3
RText|AutoCAD Express Tool|expresstools@autodesk.com
 90
        0
280
               0
281
               1
  0
CLASS
  1
ARCALIGNEDTEXT
  2
AcDbArcAlignedText
  3
ATEXT|AutoCAD Express Tool|expresstools@autodesk.com
 90
        0
280
               0
281
               1
  0
ENDSEC
  0
SECTION
  2
TABLES
  0
TABLE
  2
VPORT
  5
7
100
AcDbSymbolTable
 70
               1
  0
VPORT
  5
15
100
AcDbSymbolTableRecord
100
AcDbViewportTableRecord
  2
*ACTIVE
 70
               0
 10
0.0
 20
0.0
 11
1.0
 21
1.0
 12
2038.242424242424
 22
1267.4162082487496
 13
0.0
 23
0.0
 14
10.0
 24
10.0
 15
10.0
 25
10.0
 16
0.0
 26
0.0
 36
1.0
 17
0.0
 27
0.0
 37
0.0
 40
2534.8324164974993
 41
1.6081871219390214
 42
50.0
 43
0.0
 44
0.0
 50
0.0
 51
0.0
 71
               0
 72
             100
 73
               1
 74
               1
 75
               0
 76
               0
 77
               0
 78
               0
  0
ENDTAB
  0
TABLE
  2
LTYPE
  5
4
100
AcDbSymbolTable
 70
              24
  0
LTYPE
  5
11
100
AcDbSymbolTableRecord
100
AcDbLinetypeTableRecord
  2
ByBlock
 70
              64
  3

 72
              65
 73
               0
 40
0.0
  0
LTYPE
  5
12
100
AcDbSymbolTableRecord
100
AcDbLinetypeTableRecord
  2
ByLayer
 70
              64
  3

 72
              65
 73
               0
 40
0.0
  0
LTYPE
  5
13
100
AcDbSymbolTableRecord
100
AcDbLinetypeTableRecord
  2
Continuous
 70
              64
  3
Solid line
 72
              65
 73
               0
 40
0.0
  0
LTYPE
  5
1D
100
AcDbSymbolTableRecord
100
AcDbLinetypeTableRecord
  2
DOT
 70
              64
  3
Dot . . . . . . . . . . . . . . . . . . . . . .
 72
              65
 73
               2
 40
6.3499999999999996
 49
0.35
 74
               0
 49
-6.0
 74
               0
  0
LTYPE
  5
1E
100
AcDbSymbolTableRecord
100
AcDbLinetypeTableRecord
  2
DASHED
 70
              64
  3
Dashed __ __ __ __ __ __ __ __ __ __ __ __ __ _
 72
              65
 73
               2
 40
12.699999999999999
 49
6.3499999999999996
 74
               0
 49
-6.3499999999999996
 74
               0
  0
LTYPE
  5
1F
100
AcDbSymbolTableRecord
100
AcDbLinetypeTableRecord
  2
DASHDOT
 70
              64
  3
Dash dot __ . __ . __ . __ . __ . __ . __ . __
 72
              65
 73
               4
 40
25.399999999999999
 49
12.699999999999999
 74
               0
 49
-6.0
 74
               0
 49
0.7
 74
               0
 49
-6.0
 74
               0
  0
LTYPE
  5
20
100
AcDbSymbolTableRecord
100
AcDbLinetypeTableRecord
  2
DIVIDE
 70
              64
  3
Divide ____ . . ____ . . ____ . . ____ . . ____
 72
              65
 73
               6
 40
31.75
 49
12.699999999999999
 74
               0
 49
-6.0
 74
               0
 49
0.875
 74
               0
 49
-6.0
 74
               0
 49
0.875
 74
               0
 49
-6.0
 74
               0
  0
LTYPE
  5
21
100
AcDbSymbolTableRecord
100
AcDbLinetypeTableRecord
  2
HIDDEN
 70
              64
  3
Hidden __ __ __ __ __ __ __ __ __ __ __ __ __ _
 72
              65
 73
               2
 40
9.5250000000000004
 49
6.3499999999999996
 74
               0
 49
-3.1749999999999998
 74
               0
  0
LTYPE
  5
22
100
AcDbSymbolTableRecord
100
AcDbLinetypeTableRecord
  2
CENTER
 70
              64
  3
Center ____ _ ____ _ ____ _ ____ _ ____ _ ____
 72
              65
 73
               4
 40
50.799999999999997
 49
31.75
 74
               0
 49
-6.3499999999999996
 74
               0
 49
6.3499999999999996
 74
               0
 49
-6.3499999999999996
 74
               0
  0
LTYPE
  5
23
100
AcDbSymbolTableRecord
100
AcDbLinetypeTableRecord
  2
PHANTOM
 70
              64
  3
Phantom ______  __  __  ______  __  __  ______
 72
              65
 73
               6
 40
63.5
 49
31.75
 74
               0
 49
-6.3499999999999996
 74
               0
 49
6.3499999999999996
 74
               0
 49
-6.3499999999999996
 74
               0
 49
6.3499999999999996
 74
               0
 49
-6.3499999999999996
 74
               0
  0
LTYPE
  5
24
100
AcDbSymbolTableRecord
100
AcDbLinetypeTableRecord
  2
ACAD_ISO02W100
 70
              64
  3
ISO dash __ __ __ __ __ __ __ __ __ __ __ __ __
 72
              65
 73
               2
 40
15.0
 49
12.0
 74
               0
 49
-3.0
 74
               0
  0
LTYPE
  5
25
100
AcDbSymbolTableRecord
100
AcDbLinetypeTableRecord
  2
ACAD_ISO03W100
 70
              64
  3
ISO dash space __ __ __ __ __ __ __ __ __ __ __ __ __ __
 72
              65
 73
               2
 40
30.0
 49
12.0
 74
               0
 49
-18.0
 74
               0
  0
LTYPE
  5
26
100
AcDbSymbolTableRecord
100
AcDbLinetypeTableRecord
  2
ACAD_ISO04W100
 70
              64
  3
ISO long-dash dot ____ . ____ . ____ . ____ . _
 72
              65
 73
               4
 40
30.0
 49
24.0
 74
               0
 49
-3.0
 74
               0
 49
0.0
 74
               0
 49
-3.0
 74
               0
  0
LTYPE
  5
27
100
AcDbSymbolTableRecord
100
AcDbLinetypeTableRecord
  2
ACAD_ISO05W100
 70
              64
  3
ISO long-dash double-dot ____ .. ____ .. ____ .
 72
              65
 73
               6
 40
33.0
 49
24.0
 74
               0
 49
-3.0
 74
               0
 49
0.0
 74
               0
 49
-3.0
 74
               0
 49
0.0
 74
               0
 49
-3.0
 74
               0
  0
LTYPE
  5
28
100
AcDbSymbolTableRecord
100
AcDbLinetypeTableRecord
  2
ACAD_ISO06W100
 70
              64
  3
ISO long-dash triple-dot ____ ... ____ ... ____
 72
              65
 73
               8
 40
36.0
 49
24.0
 74
               0
 49
-3.0
 74
               0
 49
0.0
 74
               0
 49
-3.0
 74
               0
 49
0.0
 74
               0
 49
-3.0
 74
               0
 49
0.0
 74
               0
 49
-3.0
 74
               0
  0
LTYPE
  5
29
100
AcDbSymbolTableRecord
100
AcDbLinetypeTableRecord
  2
ACAD_ISO07W100
 70
              64
  3
ISO dot . . . . . . . . . . . . . . . . . . . .
 72
              65
 73
               2
 40
3.0
 49
0.0
 74
               0
 49
-3.0
 74
               0
  0
LTYPE
  5
2A
100
AcDbSymbolTableRecord
100
AcDbLinetypeTableRecord
  2
ACAD_ISO08W100
 70
              64
  3
ISO long-dash short-dash ____ __ ____ __ ____ _
 72
              65
 73
               4
 40
36.0
 49
24.0
 74
               0
 49
-3.0
 74
               0
 49
6.0
 74
               0
 49
-3.0
 74
               0
  0
LTYPE
  5
2B
100
AcDbSymbolTableRecord
100
AcDbLinetypeTableRecord
  2
ACAD_ISO09W100
 70
              64
  3
ISO long-dash double-short-dash ____ __ __ ____
 72
              65
 73
               6
 40
45.0
 49
24.0
 74
               0
 49
-3.0
 74
               0
 49
6.0
 74
               0
 49
-3.0
 74
               0
 49
6.0
 74
               0
 49
-3.0
 74
               0
  0
LTYPE
  5
2C
100
AcDbSymbolTableRecord
100
AcDbLinetypeTableRecord
  2
ACAD_ISO10W100
 70
              64
  3
ISO dash dot __ . __ . __ . __ . __ . __ . __ .
 72
              65
 73
               4
 40
18.0
 49
12.0
 74
               0
 49
-3.0
 74
               0
 49
0.0
 74
               0
 49
-3.0
 74
               0
  0
LTYPE
  5
2D
100
AcDbSymbolTableRecord
100
AcDbLinetypeTableRecord
  2
ACAD_ISO11W100
 70
              64
  3
ISO double-dash dot __ __ . __ __ . __ __ . __ 
 72
              65
 73
               6
 40
33.0
 49
12.0
 74
               0
 49
-3.0
 74
               0
 49
12.0
 74
               0
 49
-3.0
 74
               0
 49
0.0
 74
               0
 49
-3.0
 74
               0
  0
LTYPE
  5
2E
100
AcDbSymbolTableRecord
100
AcDbLinetypeTableRecord
  2
ACAD_ISO12W100
 70
              64
  3
ISO dash double-dot __ . . __ . . __ . . __ . .
 72
              65
 73
               6
 40
21.0
 49
12.0
 74
               0
 49
-3.0
 74
               0
 49
0.0
 74
               0
 49
-3.0
 74
               0
 49
0.0
 74
               0
 49
-3.0
 74
               0
  0
LTYPE
  5
2F
100
AcDbSymbolTableRecord
100
AcDbLinetypeTableRecord
  2
ACAD_ISO13W100
 70
              64
  3
ISO double-dash double-dot __ __ . . __ __ . . 
 72
              65
 73
               8
 40
36.0
 49
12.0
 74
               0
 49
-3.0
 74
               0
 49
12.0
 74
               0
 49
-3.0
 74
               0
 49
0.0
 74
               0
 49
-3.0
 74
               0
 49
0.0
 74
               0
 49
-3.0
 74
               0
  0
LTYPE
  5
30
100
AcDbSymbolTableRecord
100
AcDbLinetypeTableRecord
  2
ACAD_ISO14W100
 70
              64
  3
ISO dash triple-dot __ . . . __ . . . __ . . . 
 72
              65
 73
               8
 40
24.0
 49
12.0
 74
               0
 49
-3.0
 74
               0
 49
0.0
 74
               0
 49
-3.0
 74
               0
 49
0.0
 74
               0
 49
-3.0
 74
               0
 49
0.0
 74
               0
 49
-3.0
 74
               0
  0
LTYPE
  5
31
100
AcDbSymbolTableRecord
100
AcDbLinetypeTableRecord
  2
ACAD_ISO15W100
 70
              64
  3
ISO double-dash double-dot __ __ . . __ __ . . 
 72
              65
 73
              10
 40
39.0
 49
12.0
 74
               0
 49
-3.0
 74
               0
 49
12.0
 74
               0
 49
-3.0
 74
               0
 49
0.0
 74
               0
 49
-3.0
 74
               0
 49
0.0
 74
               0
 49
-3.0
 74
               0
 49
0.0
 74
               0
 49
-3.0
 74
               0
  0
ENDTAB
  0
TABLE
  2
LAYER
  5
2
100
AcDbSymbolTable
 70
              16
  0
LAYER
  5
14
100
AcDbSymbolTableRecord
100
AcDbLayerTableRecord
  2
0
 70
               0
 62
               7
  6
Continuous
  0
LAYER
  5
35
100
AcDbSymbolTableRecord
100
AcDbLayerTableRecord
  2
_1-8_M1
 70
               0
 62
               7
  6
Continuous
  0
LAYER
  5
36
100
AcDbSymbolTableRecord
100
AcDbLayerTableRecord
  2
Layer00002
 70
               0
 62
               7
  6
Continuous
  0
LAYER
  5
37
100
AcDbSymbolTableRecord
100
AcDbLayerTableRecord
  2
Layer00003
 70
               0
 62
               7
  6
Continuous
  0
LAYER
  5
38
100
AcDbSymbolTableRecord
100
AcDbLayerTableRecord
  2
Layer00004
 70
               0
 62
               7
  6
Continuous
  0
LAYER
  5
39
100
AcDbSymbolTableRecord
100
AcDbLayerTableRecord
  2
Layer00005
 70
               0
 62
               7
  6
Continuous
  0
LAYER
  5
3A
100
AcDbSymbolTableRecord
100
AcDbLayerTableRecord
  2
Layer00006
 70
               0
 62
               7
  6
Continuous
  0
LAYER
  5
3B
100
AcDbSymbolTableRecord
100
AcDbLayerTableRecord
  2
Layer00007
 70
               0
 62
               7
  6
Continuous
  0
LAYER
  5
3C
100
AcDbSymbolTableRecord
100
AcDbLayerTableRecord
  2
Layer00008
 70
               0
 62
               7
  6
Continuous
  0
LAYER
  5
3D
100
AcDbSymbolTableRecord
100
AcDbLayerTableRecord
  2
Layer00009
 70
               0
 62
               7
  6
Continuous
  0
LAYER
  5
3E
100
AcDbSymbolTableRecord
100
AcDbLayerTableRecord
  2
Layer00010
 70
               0
 62
               7
  6
Continuous
  0
LAYER
  5
3F
100
AcDbSymbolTableRecord
100
AcDbLayerTableRecord
  2
Layer00011
 70
               0
 62
               7
  6
Continuous
  0
LAYER
  5
40
100
AcDbSymbolTableRecord
100
AcDbLayerTableRecord
  2
Layer00012
 70
               0
 62
               7
  6
Continuous
  0
LAYER
  5
41
100
AcDbSymbolTableRecord
100
AcDbLayerTableRecord
  2
Layer00013
 70
               0
 62
               7
  6
Continuous
  0
LAYER
  5
42
100
AcDbSymbolTableRecord
100
AcDbLayerTableRecord
  2
Layer00014
 70
               0
 62
               7
  6
Continuous
  0
LAYER
  5
43
100
AcDbSymbolTableRecord
100
AcDbLayerTableRecord
  2
_1-1_M6
 70
               0
 62
               7
  6
Continuous
  0
ENDTAB
  0
TABLE
  2
STYLE
  5
3
100
AcDbSymbolTable
 70
               4
  0
STYLE
  5
17
100
AcDbSymbolTableRecord
100
AcDbTextStyleTableRecord
  2
Standard
 70
               0
 40
0.0
 41
1.0
 50
0.0
 71
               0
 42
0.0
  3
txt.shx
  4
bigfont.shx
  0
STYLE
  5
32
100
AcDbSymbolTableRecord
100
AcDbTextStyleTableRecord
  2
STANDARD_T
 70
               4
 40
0.0
 41
1.0
 50
0.0
 71
               0
 42
0.0
  3
txt.shx
  4
bigfont.shx
  0
STYLE
  5
33
100
AcDbSymbolTableRecord
100
AcDbTextStyleTableRecord
  2
FontTableH_0
 70
               0
 40
0.0
 41
1.0
 50
0.0
 71
               0
 42
0.0
  3
MS Gothic.ttf
  4

1001
ACAD
1000
MS Gothic
1071
    32817
  0
STYLE
  5
34
100
AcDbSymbolTableRecord
100
AcDbTextStyleTableRecord
  2
FontTableV_0
 70
               0
 40
0.0
 41
1.0
 50
0.0
 71
               0
 42
0.0
  3
@MS Gothic.ttf
  4

1001
ACAD
1000
@MS Gothic
1071
    32817
  0
ENDTAB
  0
TABLE
  2
VIEW
  5
5
100
AcDbSymbolTable
 70
               0
  0
ENDTAB
  0
TABLE
  2
UCS
  5
6
100
AcDbSymbolTable
 70
               0
  0
ENDTAB
  0
TABLE
  2
APPID
  5
8
100
AcDbSymbolTable
 70
               1
  0
APPID
  5
16
100
AcDbSymbolTableRecord
100
AcDbRegAppTableRecord
  2
ACAD
 70
               0
  0
ENDTAB
  0
TABLE
  2
DIMSTYLE
  5
9
100
AcDbSymbolTable
 70
               1
  0
DIMSTYLE
105
18
100
AcDbSymbolTableRecord
100
AcDbDimStyleTableRecord
  2
Standard
 70
               0
  3

  4

  5

  6

  7

 40
1.0
 41
0.18
 42
0.0625
 43
0.38
 44
0.18
 45
0.0
 46
0.0
 47
0.0
 48
0.0
 71
               0
 72
               0
 73
               1
 74
               1
 75
               0
 76
               0
 77
               0
 78
               0
140
0.18
141
0.09
142
0.0
143
25.399999999999999
144
1.0
145
0.0
146
1.0
147
0.09
170
               0
171
               2
172
               0
173
               0
174
               0
175
               0
176
               0
177
               0
178
               0
270
               2
271
               4
272
               4
273
               2
274
               2
275
               0
280
               0
281
               0
282
               0
283
               1
284
               0
285
               0
286
               0
287
               0
288
               0
340
17
  0
ENDTAB
  0
TABLE
  2
BLOCK_RECORD
  5
1
100
AcDbSymbolTable
 70
               0
  0
BLOCK_RECORD
  5
A
100
AcDbSymbolTableRecord
100
AcDbBlockTableRecord
  2
*MODEL_SPACE
  0
BLOCK_RECORD
  5
B
100
AcDbSymbolTableRecord
100
AcDbBlockTableRecord
  2
*PAPER_SPACE
  0
ENDTAB
  0
ENDSEC
  0
SECTION
  2
BLOCKS
  0
BLOCK
  5
D
100
AcDbEntity
  8
0
100
AcDbBlockBegin
  2
*MODEL_SPACE
 70
               0
 10
0.0
 20
0.0
 30
0.0
  3
*MODEL_SPACE
  1

  0
ENDBLK
  5
E
100
AcDbEntity
  8
0
100
AcDbBlockEnd
  0
BLOCK
  5
F
100
AcDbEntity
 67
               1
  8
0
100
AcDbBlockBegin
  2
*PAPER_SPACE
 70
               0
 10
0.0
 20
0.0
 30
0.0
  3
*PAPER_SPACE
  1

  0
ENDBLK
  5
10
100
AcDbEntity
 67
               1
  8
0
100
AcDbBlockEnd
  0
ENDSEC
  0
SECTION
  2
ENTITIES
  0
LINE
  5
44
100
AcDbEntity
  8
0
  6
Continuous
 62
               2
100
AcDbLine
 10
2098.636629697502
 20
1380.9922480964901
 30
0.0
 11
2104.3232720967203
 21
1326.2883148759665
 31
0.0
  0
LINE
  5
45
100
AcDbEntity
  8
0
  6
Continuous
 62
               2
100
AcDbLine
 10
1228.5814355108926
 20
1290.5471976814472
 30
0.0
 11
2098.636629697502
 21
1380.9922480964901
 31
0.0
  0
LINE
  5
46
100
AcDbEntity
  8
0
  6
DASHDOT
 62
               6
100
AcDbLine
 10
2676.4512720967214
 20
1340.5203148759665
 30
0.0
 11
1238.9208999685227
 21
1191.0843102382141
 31
0.0
  0
LINE
  5
47
100
AcDbEntity
  8
0
  6
Continuous
 62
               2
100
AcDbLine
 10
2104.3232720967203
 20
1326.2883148759665
 30
0.0
 11
1234.2680805569732
 21
1235.8431906735655
 31
0.0
  0
LINE
  5
48
100
AcDbEntity
  8
0
  6
Continuous
 62
               7
100
AcDbLine
 10
1567.5272720967218
 20
1361.9753148759664
 30
0.0
 11
1545.2462720967228
 21
1334.5253148759657
 31
0.0
  0
LINE
  5
49
100
AcDbEntity
  8
0
  6
Continuous
 62
               7
100
AcDbLine
 10
1589.85727209672
 20
1364.2973148759665
 30
0.0
 11
1567.5762720967209
 21
1336.8463148759656
 31
0.0
  0
LINE
  5
4A
100
AcDbEntity
  8
0
  6
Continuous
 62
               7
100
AcDbLine
 10
1612.1882720967219
 20
1366.6183148759665
 30
0.0
 11
1589.9072720967229
 21
1339.1673148759655
 31
0.0
  0
LINE
  5
4B
100
AcDbEntity
  8
0
  6
Continuous
 62
               7
100
AcDbLine
 10
1634.51827209672
 20
1368.9393148759664
 30
0.0
 11
1612.237272096721
 21
1341.4883148759654
 31
0.0
  0
LINE
  5
4C
100
AcDbEntity
  8
0
  6
Continuous
 62
               7
100
AcDbLine
 10
1656.8482720967218
 20
1371.2613148759665
 30
0.0
 11
1634.5672720967227
 21
1343.8103148759656
 31
0.0
  0
LINE
  5
4D
100
AcDbEntity
  8
0
  6
Continuous
 62
               7
100
AcDbLine
 10
1679.1792720967201
 20
1373.5823148759664
 30
0.0
 11
1656.8972720967208
 21
1346.1313148759655
 31
0.0
  0
LINE
  5
4E
100
AcDbEntity
  8
0
  6
Continuous
 62
               7
100
AcDbLine
 10
1701.5092720967218
 20
1375.9033148759663
 30
0.0
 11
1679.2282720967228
 21
1348.4523148759654
 31
0.0
  0
LINE
  5
4F
100
AcDbEntity
  8
0
  6
Continuous
 62
               7
100
AcDbLine
 10
1723.8392720967199
 20
1378.2253148759664
 30
0.0
 11
1701.5582720967209
 21
1350.7743148759655
 31
0.0
  0
LINE
  5
50
100
AcDbEntity
  8
0
  6
Continuous
 62
               7
100
AcDbLine
 10
1746.1692720967217
 20
1380.5463148759663
 30
0.0
 11
1723.8882720967226
 21
1353.0953148759654
 31
0.0
  0
LINE
  5
51
100
AcDbEntity
  8
0
  6
Continuous
 62
               7
100
AcDbLine
 10
1768.50027209672
 20
1382.8673148759663
 30
0.0
 11
1746.2192720967209
 21
1355.4163148759653
 31
0.0
  0
LINE
  5
52
100
AcDbEntity
  8
0
  6
Continuous
 62
               7
100
AcDbLine
 10
1790.8302720967217
 20
1385.1883148759662
 30
0.0
 11
1768.5492720967227
 21
1357.7383148759654
 31
0.0
  0
LINE
  5
53
100
AcDbEntity
  8
0
  6
Continuous
 62
               7
100
AcDbLine
 10
1813.1602720967198
 20
1387.5103148759663
 30
0.0
 11
1790.8792720967208
 21
1360.0593148759654
 31
0.0
  0
LINE
  5
54
100
AcDbEntity
  8
0
  6
Continuous
 62
               7
100
AcDbLine
 10
1835.4912720967218
 20
1389.8313148759662
 30
0.0
 11
1813.2102720967227
 21
1362.3803148759653
 31
0.0
  0
LINE
  5
55
100
AcDbEntity
  8
0
  6
Continuous
 62
               7
100
AcDbLine
 10
1857.8212720967199
 20
1392.1523148759661
 30
0.0
 11
1835.5402720967209
 21
1364.7023148759654
 31
0.0
  0
LINE
  5
56
100
AcDbEntity
  8
0
  6
Continuous
 62
               7
100
AcDbLine
 10
1880.1512720967216
 20
1394.4743148759662
 30
0.0
 11
1857.8702720967226
 21
1367.0233148759653
 31
0.0
  0
LINE
  5
57
100
AcDbEntity
  8
0
  6
Continuous
 62
               7
100
AcDbLine
 10
1902.48227209672
 20
1396.7953148759661
 30
0.0
 11
1880.2012720967209
 21
1369.3443148759652
 31
0.0
  0
LINE
  5
58
100
AcDbEntity
  8
0
  6
Continuous
 62
               7
100
AcDbLine
 10
1924.8122720967217
 20
1399.1163148759661
 30
0.0
 11
1902.5312720967227
 21
1371.6653148759669
 31
0.0
  0
LINE
  5
59
100
AcDbEntity
  8
0
  6
Continuous
 62
               7
100
AcDbLine
 10
1947.1422720967198
 20
1401.4383148759662
 30
0.0
 11
1924.8612720967208
 21
1373.9873148759652
 31
0.0
  0
LINE
  5
5A
100
AcDbEntity
  8
0
  6
Continuous
 62
               7
100
AcDbLine
 10
1969.4732720967218
 20
1403.7593148759661
 30
0.0
 11
1947.1912720967225
 21
1376.308314875967
 31
0.0
  0
LINE
  5
5B
100
AcDbEntity
  8
0
  6
Continuous
 62
               7
100
AcDbLine
 10
1991.8032720967199
 20
1406.080314875966
 30
0.0
 11
1969.5222720967208
 21
1378.6293148759669
 31
0.0
  0
LINE
  5
5C
100
AcDbEntity
  8
0
  6
Continuous
 62
               7
100
AcDbLine
 10
2014.1332720967216
 20
1408.4023148759661
 30
0.0
 11
1991.8522720967226
 21
1380.951314875967
 31
0.0
  0
LINE
  5
5D
100
AcDbEntity
  8
0
  6
Continuous
 62
               7
100
AcDbLine
 10
2036.4632720967234
 20
1410.723314875966
 30
0.0
 11
2014.1822720967207
 21
1383.2723148759669
 31
0.0
  0
LINE
  5
5E
100
AcDbEntity
  8
0
  6
Continuous
 62
               7
100
AcDbLine
 10
2058.7942720967217
 20
1413.0443148759659
 30
0.0
 11
2036.5132720967226
 21
1385.5933148759668
 31
0.0
  0
LINE
  5
5F
100
AcDbEntity
  8
0
  6
Continuous
 62
               7
100
AcDbLine
 10
2081.1242720967234
 20
1415.3653148759659
 30
0.0
 11
2058.8432720967207
 21
1387.9153148759669
 31
0.0
  0
LINE
  5
60
100
AcDbEntity
  8
0
  6
Continuous
 62
               7
100
AcDbLine
 10
2095.8022720967233
 20
1408.2593148759661
 30
0.0
 11
2081.1732720967225
 21
1390.2363148759669
 31
0.0
  0
LINE
  5
61
100
AcDbEntity
  8
0
  6
Continuous
 62
               4
100
AcDbLine
 10
2706.4512720967214
 20
1835.6133148759664
 30
0.0
 11
2706.4512720967214
 21
1340.5203148759665
 31
0.0
  0
LINE
  5
62
100
AcDbEntity
  8
0
  6
Continuous
 62
               4
100
AcDbLine
 10
2646.4512720967214
 20
1340.5203148759665
 30
0.0
 11
2646.4512720967214
 21
1835.6133148759664
 31
0.0
  0
LINE
  5
63
100
AcDbEntity
  8
0
  6
Continuous
 62
               2
100
AcDbLine
 10
2092.5114276649037
 20
1420.5706965297127
 30
0.0
 11
1224.4456306265106
 21
1330.3325364084342
 31
0.0
  0
LINE
  5
64
100
AcDbEntity
  8
0
  6
Continuous
 62
               2
100
AcDbLine
 10
1219.7927661584413
 20
1385.1456155879257
 30
0.0
 11
2086.8243793379243
 21
1475.276400407909
 31
0.0
  0
LINE
  5
65
100
AcDbEntity
  8
0
  6
Continuous
 62
               3
100
AcDbLine
 10
1224.8591724084413
 20
1326.3542947871445
 30
0.0
 11
2094.9142720967207
 21
1416.799314875967
 31
0.0
  0
LINE
  5
66
100
AcDbEntity
  8
0
  6
Continuous
 62
               3
100
AcDbLine
 10
1227.444072310785
 20
1301.4883279902695
 30
0.0
 11
2097.4992720967234
 21
1391.933314875967
 31
0.0
  0
LINE
  5
67
100
AcDbEntity
  8
0
  6
Continuous
 62
               3
100
AcDbLine
 10
2097.4992720967234
 20
1391.933314875967
 30
0.0
 11
2094.9142720967207
 21
1416.799314875967
 31
0.0
  0
LINE
  5
68
100
AcDbEntity
  8
0
  6
Continuous
 62
               7
100
AcDbLine
 10
2094.4522720967211
 20
1545.6133148759654
 30
0.0
 11
2094.4522720967211
 21
1418.3602372020532
 31
0.0
  0
LINE
  5
69
100
AcDbEntity
  8
0
  6
Continuous
 62
               7
100
AcDbLine
 10
2094.4522720967211
 20
1418.3602372020532
 30
0.0
 11
2016.3150401355979
 21
1410.2368800628801
 31
0.0
  0
LINE
  5
6A
100
AcDbEntity
  8
0
  6
Continuous
 62
               7
100
AcDbLine
 10
2016.3150347184092
 20
1410.2369319830436
 30
0.0
 11
2016.4810347184102
 21
1408.6459319830433
 31
0.0
  0
LINE
  5
6B
100
AcDbEntity
  8
0
  6
Continuous
 62
               7
100
AcDbLine
 10
2094.617272096722
 20
1416.7683148759661
 30
0.0
 11
2016.4808944108972
 21
1408.6472767375826
 31
0.0
  0
LINE
  5
6C
100
AcDbEntity
  8
0
  6
Continuous
 62
               7
100
AcDbLine
 10
2096.0522720967233
 20
1418.3603148759667
 30
0.0
 11
2096.0522720967233
 21
1545.6133148759654
 31
0.0
  0
LINE
  5
6D
100
AcDbEntity
  8
0
  6
Continuous
 62
               2
100
AcDbLine
 10
2092.4512720967209
 20
1527.6133148759654
 30
0.0
 11
2092.4512720967209
 21
1545.6133148759654
 31
0.0
  0
LINE
  5
6E
100
AcDbEntity
  8
0
  6
Continuous
 62
               2
100
AcDbLine
 10
2092.4512720967209
 20
1527.6133148759654
 30
0.0
 11
2061.4512720967209
 21
1527.6133148759654
 31
0.0
  0
LINE
  5
6F
100
AcDbEntity
  8
0
  6
DASHDOT
 62
               4
100
AcDbLine
 10
2676.4512720967214
 20
648.84032651041809
 30
0.0
 11
2676.4512720967214
 21
1885.6133148759664
 31
0.0
  0
LINE
  5
70
100
AcDbEntity
  8
0
  6
Continuous
 62
               4
100
AcDbLine
 10
2055.4512720967214
 20
1547.6133148759654
 30
0.0
 11
2040.4512720967214
 21
1547.6133148759654
 31
0.0
  0
LINE
  5
71
100
AcDbEntity
  8
0
  6
DASHDOT
 62
               7
100
AcDbLine
 10
2061.4512720967214
 20
1835.6133148759664
 30
0.0
 11
2061.4512720967214
 21
648.84032651041809
 31
0.0
  0
LINE
  5
72
100
AcDbEntity
  8
0
  6
Continuous
 62
               6
100
AcDbLine
 10
1941.5478076778586
 20
1274.1786586589358
 30
0.0
 11
1953.0369150849178
 21
1275.3730309677785
 31
0.0
  0
LINE
  5
73
100
AcDbEntity
  8
0
  6
Continuous
 62
               6
100
AcDbLine
 10
1941.3100147091086
 20
1276.4663783854983
 30
0.0
 11
1952.7991046735474
 21
1277.6607036297319
 31
0.0
  0
LINE
  5
74
100
AcDbEntity
  8
0
  6
Continuous
 62
               6
100
AcDbLine
 10
1997.7957280361588
 20
1280.0258433641523
 30
0.0
 11
2009.2848180006013
 21
1281.2201686083861
 31
0.0
  0
LINE
  5
75
100
AcDbEntity
  8
0
  6
Continuous
 62
               6
100
AcDbLine
 10
1997.5579176247884
 20
1282.3135160261054
 30
0.0
 11
2009.0470075892313
 21
1283.5078412703394
 31
0.0
  0
LINE
  5
76
100
AcDbEntity
  8
0
  6
Continuous
 62
               6
100
AcDbLine
 10
1953.0369150849178
 20
1275.3730309677785
 30
0.0
 11
1952.7991046735474
 21
1277.6607036297319
 31
0.0
  0
LINE
  5
77
100
AcDbEntity
  8
0
  6
Continuous
 62
               6
100
AcDbLine
 10
1997.7957280361588
 20
1280.0258433641523
 30
0.0
 11
1997.5579176247884
 21
1282.3135160261054
 31
0.0
  0
LINE
  5
78
100
AcDbEntity
  8
0
  6
Continuous
 62
               6
100
AcDbLine
 10
1940.0483712085688
 20
1277.4904182663322
 30
0.0
 11
1937.1429483566108
 21
1305.439810353663
 31
0.0
  0
LINE
  5
79
100
AcDbEntity
  8
0
  6
Continuous
 62
               6
100
AcDbLine
 10
1937.7616931869015
 20
1277.2527112507928
 30
0.0
 11
1934.8562703349435
 21
1305.2021033381234
 31
0.0
  0
LINE
  5
7A
100
AcDbEntity
  8
0
  6
Continuous
 62
               6
100
AcDbLine
 10
2010.0710474700631
 20
1284.769484770881
 30
0.0
 11
2007.1656246181055
 21
1312.7188768582118
 31
0.0
  0
LINE
  5
7B
100
AcDbEntity
  8
0
  6
Continuous
 62
               6
100
AcDbLine
 10
2012.3577254917304
 20
1285.0071917864207
 30
0.0
 11
2009.4523026397724
 21
1312.9565838737512
 31
0.0
  0
LINE
  5
7C
100
AcDbEntity
  8
0
  6
Continuous
 62
               6
100
AcDbLine
 10
1938.1667814457805
 20
1306.7034431347806
 30
0.0
 11
2005.9037743259032
 21
1313.7449060196218
 31
0.0
  0
LINE
  5
7D
100
AcDbEntity
  8
0
  6
Continuous
 62
               6
100
AcDbLine
 10
1937.9289710344106
 20
1308.9911157967322
 30
0.0
 11
2005.6659639145332
 21
1316.0325786815733
 31
0.0
  0
LINE
  5
7E
100
AcDbEntity
  8
0
  6
Continuous
 62
               4
100
AcDbLine
 10
2010.8459801733907
 20
1298.9934901654406
 30
0.0
 11
2089.656862093349
 21
1162.4890384907617
 31
0.0
  0
LINE
  5
7F
100
AcDbEntity
  8
0
  6
Continuous
 62
               4
100
AcDbLine
 10
2010.8459801733907
 20
1298.9934901654406
 30
0.0
 11
2016.6310686605693
 21
1292.0990901773698
 31
0.0
  0
LINE
  5
80
100
AcDbEntity
  8
0
  6
Continuous
 62
               4
100
AcDbLine
 10
2010.8459801733907
 20
1298.9934901654406
 30
0.0
 11
2013.9241614633215
 21
1290.5362565783676
 31
0.0
  0
LINE
  5
81
100
AcDbEntity
  8
0
  6
Continuous
 62
               4
100
AcDbLine
 10
2089.656862093349
 20
1162.4890384907617
 30
0.0
 11
2262.8535480110695
 21
1162.4890384907617
 31
0.0
  0
LINE
  5
82
100
AcDbEntity
  8
0
  6
Continuous
 62
               6
100
AcDbLine
 10
2018.8616986334391
 20
1373.2035795686415
 30
0.0
 11
1993.6140121758367
 21
1370.5790068183151
 31
0.0
  0
LINE
  5
83
100
AcDbEntity
  8
0
  6
Continuous
 62
               6
100
AcDbLine
 10
1983.0153301819278
 20
1379.531127975288
 30
0.0
 11
1903.4441072464183
 21
1371.259460637473
 31
0.0
  0
LINE
  5
84
100
AcDbEntity
  8
0
  6
Continuous
 62
               6
100
AcDbLine
 10
2018.7583027917181
 20
1374.1982198553364
 30
0.0
 11
2018.8616986334391
 21
1373.2035795686415
 31
0.0
  0
LINE
  5
85
100
AcDbEntity
  8
0
  6
Continuous
 62
               6
100
AcDbLine
 10
2018.7583027917181
 20
1374.1982198553364
 30
0.0
 11
1993.8922956243709
 21
1371.6133238122693
 31
0.0
  0
LINE
  5
86
100
AcDbEntity
  8
0
  6
Continuous
 62
               6
100
AcDbLine
 10
1869.5622597876372
 20
1358.6888435969336
 30
0.0
 11
1869.6656556293588
 21
1357.6942033102405
 31
0.0
  0
LINE
  5
87
100
AcDbEntity
  8
0
  6
Continuous
 62
               6
100
AcDbLine
 10
1894.4282669549834
 20
1361.2737396400007
 30
0.0
 11
1903.4441072464183
 21
1371.259460637473
 31
0.0
  0
LINE
  5
88
100
AcDbEntity
  8
0
  6
Continuous
 62
               6
100
AcDbLine
 10
1894.913342086963
 20
1360.318776060567
 30
0.0
 11
1903.9291823783983
 21
1370.304497058039
 31
0.0
  0
LINE
  5
89
100
AcDbEntity
  8
0
  6
Continuous
 62
               6
100
AcDbLine
 10
1894.4282669549834
 20
1361.2737396400007
 30
0.0
 11
1869.5622597876372
 21
1358.6888435969336
 31
0.0
  0
LINE
  5
8A
100
AcDbEntity
  8
0
  6
Continuous
 62
               6
100
AcDbLine
 10
1894.913342086963
 20
1360.318776060567
 30
0.0
 11
1869.6656556293588
 21
1357.6942033102405
 31
0.0
  0
LINE
  5
8B
100
AcDbEntity
  8
0
  6
Continuous
 62
               6
100
AcDbLine
 10
1982.7370467333935
 20
1378.496810981334
 30
0.0
 11
1903.9291823783983
 21
1370.304497058039
 31
0.0
  0
LINE
  5
8C
100
AcDbEntity
  8
0
  6
Continuous
 62
               6
100
AcDbLine
 10
1983.0153301819278
 20
1379.531127975288
 30
0.0
 11
1993.8922956243709
 21
1371.6133238122693
 31
0.0
  0
LINE
  5
8D
100
AcDbEntity
  8
0
  6
Continuous
 62
               6
100
AcDbLine
 10
1982.7370467333935
 20
1378.496810981334
 30
0.0
 11
1993.6140121758367
 21
1370.5790068183151
 31
0.0
  0
LINE
  5
8E
100
AcDbEntity
  8
0
  6
Continuous
 62
               6
100
AcDbLine
 10
1720.4696126252795
 20
1342.184827051836
 30
0.0
 11
1695.2219261676769
 21
1339.5602543015098
 31
0.0
  0
LINE
  5
8F
100
AcDbEntity
  8
0
  6
Continuous
 62
               6
100
AcDbLine
 10
1684.6232441737679
 20
1348.5123754584824
 30
0.0
 11
1605.0520212382585
 21
1340.2407081206675
 31
0.0
  0
LINE
  5
90
100
AcDbEntity
  8
0
  6
Continuous
 62
               6
100
AcDbLine
 10
1720.3662167835582
 20
1343.1794673385309
 30
0.0
 11
1720.4696126252795
 21
1342.184827051836
 31
0.0
  0
LINE
  5
91
100
AcDbEntity
  8
0
  6
Continuous
 62
               6
100
AcDbLine
 10
1720.3662167835582
 20
1343.1794673385309
 30
0.0
 11
1695.5002096162111
 21
1340.5945712954638
 31
0.0
  0
LINE
  5
92
100
AcDbEntity
  8
0
  6
Continuous
 62
               6
100
AcDbLine
 10
1571.1701737794776
 20
1327.670091080128
 30
0.0
 11
1571.2735696211989
 21
1326.6754507934349
 31
0.0
  0
LINE
  5
93
100
AcDbEntity
  8
0
  6
Continuous
 62
               6
100
AcDbLine
 10
1596.0361809468238
 20
1330.2549871231954
 30
0.0
 11
1605.0520212382585
 21
1340.2407081206675
 31
0.0
  0
LINE
  5
94
100
AcDbEntity
  8
0
  6
Continuous
 62
               6
100
AcDbLine
 10
1596.5212560788032
 20
1329.3000235437617
 30
0.0
 11
1605.5370963702385
 21
1339.2857445412337
 31
0.0
  0
LINE
  5
95
100
AcDbEntity
  8
0
  6
Continuous
 62
               6
100
AcDbLine
 10
1596.0361809468238
 20
1330.2549871231954
 30
0.0
 11
1571.1701737794776
 21
1327.670091080128
 31
0.0
  0
LINE
  5
96
100
AcDbEntity
  8
0
  6
Continuous
 62
               6
100
AcDbLine
 10
1596.5212560788032
 20
1329.3000235437617
 30
0.0
 11
1571.2735696211989
 21
1326.6754507934349
 31
0.0
  0
LINE
  5
97
100
AcDbEntity
  8
0
  6
Continuous
 62
               6
100
AcDbLine
 10
1684.3449607252337
 20
1347.4780584645284
 30
0.0
 11
1605.5370963702385
 21
1339.2857445412337
 31
0.0
  0
LINE
  5
98
100
AcDbEntity
  8
0
  6
Continuous
 62
               6
100
AcDbLine
 10
1684.6232441737679
 20
1348.5123754584824
 30
0.0
 11
1695.5002096162111
 21
1340.5945712954638
 31
0.0
  0
LINE
  5
99
100
AcDbEntity
  8
0
  6
Continuous
 62
               6
100
AcDbLine
 10
1684.3449607252337
 20
1347.4780584645284
 30
0.0
 11
1695.2219261676769
 21
1339.5602543015098
 31
0.0
  0
LINE
  5
9A
100
AcDbEntity
  8
0
  6
Continuous
 62
               6
100
AcDbLine
 10
1422.0775266171195
 20
1311.1660745350305
 30
0.0
 11
1396.8298401595166
 21
1308.5415017847045
 31
0.0
  0
LINE
  5
9B
100
AcDbEntity
  8
0
  6
Continuous
 62
               6
100
AcDbLine
 10
1386.2311581656081
 20
1317.4936229416771
 30
0.0
 11
1306.6599352300987
 21
1309.2219556038622
 31
0.0
  0
LINE
  5
9C
100
AcDbEntity
  8
0
  6
Continuous
 62
               6
100
AcDbLine
 10
1421.9741307753984
 20
1312.1607148217254
 30
0.0
 11
1422.0775266171195
 21
1311.1660745350305
 31
0.0
  0
LINE
  5
9D
100
AcDbEntity
  8
0
  6
Continuous
 62
               6
100
AcDbLine
 10
1421.9741307753984
 20
1312.1607148217254
 30
0.0
 11
1397.1081236080513
 21
1309.5758187786582
 31
0.0
  0
LINE
  5
9E
100
AcDbEntity
  8
0
  6
Continuous
 62
               6
100
AcDbLine
 10
1272.7780877713176
 20
1296.6513385633225
 30
0.0
 11
1272.8814836130391
 21
1295.6566982766294
 31
0.0
  0
LINE
  5
9F
100
AcDbEntity
  8
0
  6
Continuous
 62
               6
100
AcDbLine
 10
1297.6440949386638
 20
1299.2362346063899
 30
0.0
 11
1306.6599352300987
 21
1309.2219556038622
 31
0.0
  0
LINE
  5
A0
100
AcDbEntity
  8
0
  6
Continuous
 62
               6
100
AcDbLine
 10
1298.1291700706433
 20
1298.2812710269563
 30
0.0
 11
1307.1450103620784
 21
1308.2669920244284
 31
0.0
  0
LINE
  5
A1
100
AcDbEntity
  8
0
  6
Continuous
 62
               6
100
AcDbLine
 10
1297.6440949386638
 20
1299.2362346063899
 30
0.0
 11
1272.7780877713176
 21
1296.6513385633225
 31
0.0
  0
LINE
  5
A2
100
AcDbEntity
  8
0
  6
Continuous
 62
               6
100
AcDbLine
 10
1298.1291700706433
 20
1298.2812710269563
 30
0.0
 11
1272.8814836130391
 21
1295.6566982766294
 31
0.0
  0
LINE
  5
A3
100
AcDbEntity
  8
0
  6
Continuous
 62
               6
100
AcDbLine
 10
1385.9528747170739
 20
1316.4593059477229
 30
0.0
 11
1307.1450103620784
 21
1308.2669920244284
 31
0.0
  0
LINE
  5
A4
100
AcDbEntity
  8
0
  6
Continuous
 62
               6
100
AcDbLine
 10
1386.2311581656081
 20
1317.4936229416771
 30
0.0
 11
1397.1081236080513
 21
1309.5758187786582
 31
0.0
  0
LINE
  5
A5
100
AcDbEntity
  8
0
  6
Continuous
 62
               6
100
AcDbLine
 10
1385.9528747170739
 20
1316.4593059477229
 30
0.0
 11
1396.8298401595166
 21
1308.5415017847045
 31
0.0
  0
LINE
  5
A6
100
AcDbEntity
  8
0
  6
Continuous
 62
               4
100
AcDbLine
 10
1485.5212580816769
 20
1601.9918224304038
 30
0.0
 11
1670.722383427765
 21
1281.2140637120465
 31
0.0
  0
LINE
  5
A7
100
AcDbEntity
  8
0
  6
Continuous
 62
               4
100
AcDbLine
 10
1485.5211831316456
 20
1601.9918428311958
 30
0.0
 11
1128.7670791181483
 21
1601.9918128496047
 31
0.0
  0
LINE
  5
A8
100
AcDbEntity
  8
0
  6
Continuous
 62
               4
100
AcDbLine
 10
1495.9135629270904
 20
1583.9918224304038
 30
0.0
 11
1128.7670791181483
 21
1583.9918224304038
 31
0.0
  0
LINE
  5
A9
100
AcDbEntity
  8
0
  6
Continuous
 62
               4
100
AcDbLine
 10
1506.3058677725035
 20
1565.9918224304038
 30
0.0
 11
1128.7670791181483
 21
1565.9918224304038
 31
0.0
  0
LINE
  5
AA
100
AcDbEntity
  8
0
  6
Continuous
 62
               4
100
AcDbLine
 10
1516.698172617917
 20
1547.9918224304038
 30
0.0
 11
1128.7670791181483
 21
1547.9918224304038
 31
0.0
  0
LINE
  5
AB
100
AcDbEntity
  8
0
  6
Continuous
 62
               4
100
AcDbLine
 10
1527.09047746333
 20
1529.9918224304038
 30
0.0
 11
1128.7670791181483
 21
1529.9918224304038
 31
0.0
  0
LINE
  5
AC
100
AcDbEntity
  8
0
  6
Continuous
 62
               4
100
AcDbLine
 10
1537.4827823087435
 20
1511.9918224304038
 30
0.0
 11
1128.7670791181483
 21
1511.9918224304038
 31
0.0
  0
LINE
  5
AD
100
AcDbEntity
  8
0
  6
Continuous
 62
               4
100
AcDbLine
 10
1233.8107695709969
 20
1327.286474830059
 30
0.0
 11
1236.3956653467633
 21
1302.4204676348991
 31
0.0
  0
LINE
  5
AE
100
AcDbEntity
  8
0
  6
Continuous
 62
               4
100
AcDbLine
 10
1233.4634422567333
 20
1301.6129613651494
 30
0.0
 11
1300.6920935032665
 21
1308.6015806176788
 31
0.0
  0
LINE
  5
AF
100
AcDbEntity
  8
0
  6
Continuous
 62
               4
100
AcDbLine
 10
1234.4974006059406
 20
1291.6665581128711
 30
0.0
 11
1266.913641886207
 21
1295.0363232904463
 31
0.0
  0
LINE
  5
B0
100
AcDbEntity
  8
0
  6
Continuous
 62
               4
100
AcDbLine
 10
1236.4473631201495
 20
1301.9231488582411
 30
0.0
 11
1237.4813214693565
 21
1291.9767456059626
 31
0.0
  0
LINE
  5
B1
100
AcDbEntity
  8
0
  6
Continuous
 62
               4
100
AcDbLine
 10
1237.5330389015376
 20
1291.4792377169458
 30
0.0
 11
1243.2198096082175
 21
1236.7740218876529
 31
0.0
  0
LINE
  5
B2
100
AcDbEntity
  8
0
  6
Continuous
 62
               7
100
AcDbLine
 10
1522.8662720967218
 20
1357.3323148759664
 30
0.0
 11
1500.5852720967227
 21
1329.8823148759657
 31
0.0
  0
LINE
  5
B3
100
AcDbEntity
  8
0
  6
Continuous
 62
               7
100
AcDbLine
 10
1545.1962720967199
 20
1359.6543148759665
 30
0.0
 11
1522.9152720967209
 21
1332.2033148759656
 31
0.0
  0
LINE
  5
B4
100
AcDbEntity
  8
0
  6
Continuous
 62
               7
100
AcDbLine
 10
1478.2052720967217
 20
1352.6893148759664
 30
0.0
 11
1455.9242720967227
 21
1325.2393148759656
 31
0.0
  0
LINE
  5
B5
100
AcDbEntity
  8
0
  6
Continuous
 62
               7
100
AcDbLine
 10
1500.5352720967198
 20
1355.0113148759665
 30
0.0
 11
1478.2542720967208
 21
1327.5603148759656
 31
0.0
  0
LINE
  5
B6
100
AcDbEntity
  8
0
  6
Continuous
 62
               7
100
AcDbLine
 10
1433.5442720967217
 20
1348.0463148759663
 30
0.0
 11
1411.2632720967226
 21
1320.5963148759656
 31
0.0
  0
LINE
  5
B7
100
AcDbEntity
  8
0
  6
Continuous
 62
               7
100
AcDbLine
 10
1455.8742720967198
 20
1350.3683148759665
 30
0.0
 11
1433.5932720967207
 21
1322.9173148759655
 31
0.0
  0
LINE
  5
B8
100
AcDbEntity
  8
0
  6
Continuous
 62
               7
100
AcDbLine
 10
1388.8832720967216
 20
1343.4033148759663
 30
0.0
 11
1366.6022720967226
 21
1315.9533148759656
 31
0.0
  0
LINE
  5
B9
100
AcDbEntity
  8
0
  6
Continuous
 62
               7
100
AcDbLine
 10
1411.2132720967197
 20
1345.7253148759664
 30
0.0
 11
1388.9322720967207
 21
1318.2743148759655
 31
0.0
  0
LINE
  5
BA
100
AcDbEntity
  8
0
  6
Continuous
 62
               7
100
AcDbLine
 10
1344.2222720967216
 20
1338.7603148759663
 30
0.0
 11
1321.9412720967225
 21
1311.3103148759656
 31
0.0
  0
LINE
  5
BB
100
AcDbEntity
  8
0
  6
Continuous
 62
               7
100
AcDbLine
 10
1366.5522720967197
 20
1341.0823148759664
 30
0.0
 11
1344.2712720967206
 21
1313.6313148759655
 31
0.0
  0
LINE
  5
BC
100
AcDbEntity
  8
0
  6
Continuous
 62
               7
100
AcDbLine
 10
1299.5612720967215
 20
1334.1173148759663
 30
0.0
 11
1277.2802720967227
 21
1306.6673148759655
 31
0.0
  0
LINE
  5
BD
100
AcDbEntity
  8
0
  6
Continuous
 62
               7
100
AcDbLine
 10
1321.8912720967196
 20
1336.4393148759664
 30
0.0
 11
1299.6102720967206
 21
1308.9883148759654
 31
0.0
  0
LINE
  5
BE
100
AcDbEntity
  8
0
  6
Continuous
 62
               7
100
AcDbLine
 10
1254.9002720967217
 20
1329.4743148759662
 30
0.0
 11
1248.0333555395455
 21
1321.0143328511695
 31
0.0
  0
LINE
  5
BF
100
AcDbEntity
  8
0
  6
Continuous
 62
               7
100
AcDbLine
 10
1277.2302720967198
 20
1331.7963148759663
 30
0.0
 11
1254.9492720967207
 21
1304.3453148759654
 31
0.0
  0
LINE
  5
C0
100
AcDbEntity
  8
0
  6
Continuous
 62
               2
100
AcDbLine
 10
1944.255229092641
 20
1464.4774572372116
 30
0.0
 11
2093.4512720967209
 21
1479.9868334956141
 31
0.0
  0
LINE
  5
C1
100
AcDbEntity
  8
0
  6
Continuous
 62
               3
100
AcDbLine
 10
1944.3586249343639
 20
1463.4828169505176
 30
0.0
 11
1964.2514409585674
 21
1465.5507348546817
 31
0.0
  0
LINE
  5
C2
100
AcDbEntity
  8
0
  6
Continuous
 62
               3
100
AcDbLine
 10
1944.4620207760863
 20
1462.4881766638237
 30
0.0
 11
1964.3548366298905
 21
1464.5560945502743
 31
0.0
  0
LINE
  5
C3
100
AcDbEntity
  8
0
  6
Continuous
 62
               3
100
AcDbLine
 10
1964.3548366298905
 20
1464.5560945502743
 30
0.0
 11
1970.0415985526552
 21
1409.8508778078658
 31
0.0
  0
LINE
  5
C4
100
AcDbEntity
  8
0
  6
Continuous
 62
               3
100
AcDbLine
 10
1964.2514409585674
 20
1465.5507348546817
 30
0.0
 11
1989.2208442400756
 21
1467.1409863333492
 31
0.0
  0
LINE
  5
C5
100
AcDbEntity
  8
0
  6
Continuous
 62
               3
100
AcDbLine
 10
2013.9834551228605
 20
1470.7205269231022
 30
0.0
 11
1989.2208442400756
 21
1467.1409863333492
 31
0.0
  0
LINE
  5
C6
100
AcDbEntity
  8
0
  6
Continuous
 62
               3
100
AcDbLine
 10
1971.0362388570625
 20
1409.9542734791889
 30
0.0
 11
1972.1617455649493
 21
1419.8907333442767
 31
0.0
  0
LINE
  5
C7
100
AcDbEntity
  8
0
  6
Continuous
 62
               7
100
AcDbLine
 10
1984.095297113533
 20
1467.9062287616366
 30
0.0
 11
1993.0470596937776
 21
1468.8367913371408
 31
0.0
  0
LINE
  5
C8
100
AcDbEntity
  8
0
  6
Continuous
 62
               7
100
AcDbLine
 10
1986.7886895137144
 20
1466.1754377925554
 30
0.0
 11
1987.9260437726634
 21
1455.2343946389228
 31
0.0
  0
LINE
  5
C9
100
AcDbEntity
  8
0
  6
Continuous
 62
               7
100
AcDbLine
 10
1990.7672506604881
 20
1466.5890211594465
 30
0.0
 11
1991.9046049194376
 21
1455.6479780058125
 31
0.0
  0
LINE
  5
CA
100
AcDbEntity
  8
0
  6
Continuous
 62
               7
100
AcDbLine
 10
1986.7886895137144
 20
1466.1754377925554
 30
0.0
 11
1990.7672506604881
 21
1466.5890211594465
 31
0.0
  0
LINE
  5
CB
100
AcDbEntity
  8
0
  6
Continuous
 62
               7
100
AcDbLine
 10
1984.095297113533
 20
1467.9062287616366
 30
0.0
 11
1986.7886895137144
 21
1466.1754377925554
 31
0.0
  0
LINE
  5
CC
100
AcDbEntity
  8
0
  6
Continuous
 62
               7
100
AcDbLine
 10
1990.7672506604881
 20
1466.5890211594465
 30
0.0
 11
1993.0470596937776
 21
1468.8367913371408
 31
0.0
  0
LINE
  5
CD
100
AcDbEntity
  8
0
  6
DOT
 62
               7
100
AcDbLine
 10
1986.5818978302668
 20
1468.1647183659434
 30
0.0
 11
1987.7833298004066
 21
1466.2788336342787
 31
0.0
  0
LINE
  5
CE
100
AcDbEntity
  8
0
  6
DOT
 62
               7
100
AcDbLine
 10
1989.7726103737941
 20
1466.4856253177236
 30
0.0
 11
1990.5604589770442
 21
1468.5783017328345
 31
0.0
  0
LINE
  5
CF
100
AcDbEntity
  8
0
  6
Continuous
 62
               7
100
AcDbLine
 10
1990.3289077129439
 20
1451.4626251755931
 30
0.0
 11
1991.9046049194385
 21
1455.6479780058139
 31
0.0
  0
LINE
  5
D0
100
AcDbEntity
  8
0
  6
Continuous
 62
               7
100
AcDbLine
 10
1990.3289077129439
 20
1451.4626251755931
 30
0.0
 11
1987.926043772663
 21
1455.2343946389233
 31
0.0
  0
LINE
  5
D1
100
AcDbEntity
  8
0
  6
Continuous
 62
               2
100
AcDbLine
 10
1944.5654166178092
 20
1461.4935363771301
 30
0.0
 11
1962.5089457232298
 21
1462.9182339741378
 31
0.0
  0
LINE
  5
D2
100
AcDbEntity
  8
0
  6
Continuous
 62
               4
100
AcDbLine
 10
1967.1982175912726
 20
1437.2034861790698
 30
0.0
 11
1892.5353559183923
 21
1566.5233560349866
 31
0.0
  0
LINE
  5
D3
100
AcDbEntity
  8
0
  6
Continuous
 62
               4
100
AcDbLine
 10
1967.1982175912726
 20
1437.2034861790698
 30
0.0
 11
1961.413129104094
 21
1444.097886167141
 31
0.0
  0
LINE
  5
D4
100
AcDbEntity
  8
0
  6
Continuous
 62
               4
100
AcDbLine
 10
1967.1982175912726
 20
1437.2034861790698
 30
0.0
 11
1964.1200363013418
 21
1445.6607197661433
 31
0.0
  0
LINE
  5
D5
100
AcDbEntity
  8
0
  6
Continuous
 62
               4
100
AcDbLine
 10
1892.5353559183923
 20
1566.5233560349866
 30
0.0
 11
1803.4391226544367
 21
1566.5233560349866
 31
0.0
  0
LINE
  5
D6
100
AcDbEntity
  8
0
  6
Continuous
 62
               2
100
AcDbLine
 10
2093.4512720967209
 20
1479.9868334956141
 30
0.0
 11
2093.4512720967209
 21
1545.6133148759654
 31
0.0
  0
LINE
  5
D7
100
AcDbEntity
  8
0
  6
Continuous
 62
               2
100
AcDbLine
 10
2093.4026715472992
 20
1421.6687367877271
 30
0.0
 11
2087.8190195983816
 21
1475.3797965020954
 31
0.0
  0
LINE
  5
D8
100
AcDbEntity
  8
0
  6
DASHED
 62
               6
100
AcDbLine
 10
2006.4334490911892
 20
1408.6068423155598
 30
0.0
 11
1224.7557802344534
 21
1327.3489783529124
 31
0.0
  0
LINE
  5
D9
100
AcDbEntity
  8
0
  6
Continuous
 62
               4
100
AcDbLine
 10
2676.4512720967214
 20
1808.6133148759664
 30
0.0
 11
2061.4512720967209
 21
1808.6133148759664
 31
0.0
  0
LINE
  5
DA
100
AcDbEntity
  8
0
  6
Continuous
 62
               6
100
AcDbLine
 10
2103.2893105481044
 20
1336.2347174173874
 30
0.0
 11
1233.2341190083571
 21
1245.7895932149863
 31
0.0
  0
LINE
  5
DB
100
AcDbEntity
  8
0
  6
Continuous
 62
               2
100
AcDbLine
 10
1230.6493569328743
 20
1270.6543924244577
 30
0.0
 11
2100.7045511194838
 21
1361.0994428395006
 31
0.0
  0
LINE
  5
DC
100
AcDbEntity
  8
0
  6
DASHED
 62
               6
100
AcDbLine
 10
2094.3398071457036
 20
1419.3539346397583
 30
0.0
 11
2016.211310221016
 21
1411.2314856185058
 31
0.0
  0
LINE
  5
DD
100
AcDbEntity
  8
0
  6
DASHED
 62
               6
100
AcDbLine
 10
2016.211629337703
 20
1411.2315712780855
 30
0.0
 11
2006.4309009748167
 21
1408.6061583319683
 31
0.0
  0
LINE
  5
DE
100
AcDbEntity
  8
0
  6
Continuous
 62
               7
100
AcDbLine
 10
2094.4522720967211
 20
1545.6133148759654
 30
0.0
 11
2096.0522720967233
 21
1545.6133148759654
 31
0.0
  0
LINE
  5
DF
100
AcDbEntity
  8
0
  6
Continuous
 62
               2
100
AcDbLine
 10
2061.4512720967214
 20
1527.6133148759654
 30
0.0
 11
2061.4512720967214
 21
1487.6133148759654
 31
0.0
  0
LINE
  5
E0
100
AcDbEntity
  8
0
  6
Continuous
 62
               2
100
AcDbLine
 10
2062.4512720967214
 20
1487.6133148759654
 30
0.0
 11
2065.1763414759507
 21
1497.2348530522854
 31
0.0
  0
LINE
  5
E1
100
AcDbEntity
  8
0
  6
Continuous
 62
               4
100
AcDbLine
 10
1941.1533562372483
 20
1494.3166427863812
 30
0.0
 11
1943.6348540423051
 21
1470.4452989573747
 31
0.0
  0
LINE
  5
E2
100
AcDbEntity
  8
0
  6
Continuous
 62
               4
100
AcDbLine
 10
2090.3493992413282
 20
1509.8260190447841
 30
0.0
 11
2092.830897046385
 21
1485.9546752157776
 31
0.0
  0
LINE
  5
E3
100
AcDbEntity
  8
0
  6
Continuous
 62
               4
100
AcDbLine
 10
1941.4635437624161
 20
1491.3327219262997
 30
0.0
 11
2090.6595867664964
 21
1506.8420981847025
 31
0.0
  0
LINE
  5
E4
100
AcDbEntity
  8
0
  6
Continuous
 62
               4
100
AcDbLine
 10
2040.4512720967214
 20
1487.6133148759654
 30
0.0
 11
2055.4512720967214
 21
1487.6133148759654
 31
0.0
  0
LINE
  5
E5
100
AcDbEntity
  8
0
  6
Continuous
 62
               4
100
AcDbLine
 10
2040.4512720967214
 20
1527.6133148759654
 30
0.0
 11
2055.4512720967214
 21
1527.6133148759654
 31
0.0
  0
LINE
  5
E6
100
AcDbEntity
  8
0
  6
Continuous
 62
               4
100
AcDbLine
 10
2043.4512720967214
 20
1527.6133148759654
 30
0.0
 11
2043.4512720967214
 21
1547.6133148759654
 31
0.0
  0
LINE
  5
E7
100
AcDbEntity
  8
0
  6
Continuous
 62
               4
100
AcDbLine
 10
2018.853250594681
 20
1472.2321453664131
 30
0.0
 11
1943.935817935635
 21
1601.9929451045004
 31
0.0
  0
LINE
  5
E8
100
AcDbEntity
  8
0
  6
Continuous
 62
               4
100
AcDbLine
 10
2018.853250594681
 20
1472.2321453664131
 30
0.0
 11
2013.0681621075023
 21
1479.1265453544838
 31
0.0
  0
LINE
  5
E9
100
AcDbEntity
  8
0
  6
Continuous
 62
               4
100
AcDbLine
 10
2018.853250594681
 20
1472.2321453664131
 30
0.0
 11
2015.7750693047501
 21
1480.6893789534861
 31
0.0
  0
LINE
  5
EA
100
AcDbEntity
  8
0
  6
Continuous
 62
               4
100
AcDbLine
 10
1943.935817935635
 20
1601.9929451045004
 30
0.0
 11
1841.9894618265398
 21
1601.9929451045004
 31
0.0
  0
LINE
  5
EB
100
AcDbEntity
  8
0
  6
Continuous
 62
               4
100
AcDbLine
 10
2073.2012720967209
 20
1540.1133148759654
 30
0.0
 11
2023.0440247708425
 21
1626.9882156121853
 31
0.0
  0
LINE
  5
EC
100
AcDbEntity
  8
0
  6
Continuous
 62
               4
100
AcDbLine
 10
2073.2012720967209
 20
1540.1133148759654
 30
0.0
 11
2067.4161836095423
 21
1547.0077148640362
 31
0.0
  0
LINE
  5
ED
100
AcDbEntity
  8
0
  6
Continuous
 62
               4
100
AcDbLine
 10
2073.2012720967209
 20
1540.1133148759654
 30
0.0
 11
2070.1230908067901
 21
1548.5705484630389
 31
0.0
  0
LINE
  5
EE
100
AcDbEntity
  8
0
  6
Continuous
 62
               4
100
AcDbLine
 10
2023.0440247708425
 20
1626.9882156121853
 30
0.0
 11
1873.8819685513049
 21
1626.9882156121853
 31
0.0
  0
LINE
  5
EF
100
AcDbEntity
  8
0
  6
Continuous
 62
               4
100
AcDbLine
 10
2096.0522720967233
 20
1430.624439544039
 30
0.0
 11
2162.8430013819557
 21
1314.9395029474376
 31
0.0
  0
LINE
  5
F0
100
AcDbEntity
  8
0
  6
Continuous
 62
               4
100
AcDbLine
 10
2096.0522720967233
 20
1430.624439544039
 30
0.0
 11
2101.8373605839024
 21
1423.7300395559682
 31
0.0
  0
LINE
  5
F1
100
AcDbEntity
  8
0
  6
Continuous
 62
               4
100
AcDbLine
 10
2096.0522720967233
 20
1430.624439544039
 30
0.0
 11
2099.1304533866546
 21
1422.1672059569655
 31
0.0
  0
LINE
  5
F2
100
AcDbEntity
  8
0
  6
Continuous
 62
               4
100
AcDbLine
 10
2162.8430013819557
 20
1314.9395029474376
 30
0.0
 11
2343.1276781766605
 21
1314.9395029474376
 31
0.0
  0
LINE
  5
F3
100
AcDbEntity
  8
0
  6
Continuous
 62
               4
100
AcDbLine
 10
2043.4512720967214
 20
1527.6133148759654
 30
0.0
 11
2043.4512720967214
 21
1487.6133148759654
 31
0.0
  0
LINE
  5
F4
100
AcDbEntity
  8
0
  6
Continuous
 62
               2
100
AcDbLine
 10
2092.5114320933703
 20
1420.5706929352691
 30
0.0
 11
2086.8243793379243
 21
1475.276400407909
 31
0.0
  0
LINE
  5
F5
100
AcDbEntity
  8
0
  6
Continuous
 62
               4
100
AcDbLine
 10
2061.4512720967214
 20
1507.6133148759654
 30
0.0
 11
1943.935817935635
 21
1601.9929451045004
 31
0.0
  0
LINE
  5
F6
100
AcDbEntity
  8
0
  6
Continuous
 62
               4
100
AcDbLine
 10
2061.4512720967214
 20
1507.6133148759654
 30
0.0
 11
2053.562154211399
 21
1511.9448064194739
 31
0.0
  0
LINE
  5
F7
100
AcDbEntity
  8
0
  6
Continuous
 62
               4
100
AcDbLine
 10
2061.4512720967214
 20
1507.6133148759654
 30
0.0
 11
2055.5193835938985
 21
1514.381822746248
 31
0.0
  0
LINE
  5
F8
100
AcDbEntity
  8
0
  6
Continuous
 62
               6
100
AcDbLine
 10
2091.4774679290972
 20
1430.5170992595808
 30
0.0
 11
1223.411670890704
 21
1340.2789391383026
 31
0.0
  0
LINE
  5
F9
100
AcDbEntity
  8
0
  6
DASHED
 62
               6
100
AcDbLine
 10
1221.8606937744139
 20
1365.252836058726
 30
0.0
 11
1946.7367387296499
 21
1440.6060615388387
 31
0.0
  0
LINE
  5
FA
100
AcDbEntity
  8
0
  6
DASHED
 62
               6
100
AcDbLine
 10
1964.8718175261515
 20
1459.5828685974834
 30
0.0
 11
2087.1345676204819
 21
1472.2924796265602
 31
0.0
  0
LINE
  5
FB
100
AcDbEntity
  8
0
  6
DASHED
 62
               6
100
AcDbLine
 10
1964.8718175261515
 20
1459.5828685974834
 30
0.0
 11
1946.7367387296499
 21
1440.6060615388387
 31
0.0
  0
LINE
  5
FC
100
AcDbEntity
  8
0
  6
Continuous
 62
               4
100
AcDbLine
 10
1233.3973864554603
 20
1331.263098184852
 30
0.0
 11
1227.7105735024434
 21
1385.9687204126283
 31
0.0
  0
LINE
  5
FD
100
AcDbEntity
  8
0
  6
DASHED
 62
               6
100
AcDbLine
 10
2498.6512720967216
 20
1835.6133148759664
 30
0.0
 11
2498.6512720967216
 21
894.65984487596643
 31
0.0
  0
LINE
  5
FE
100
AcDbEntity
  8
0
  6
DASHED
 62
               6
100
AcDbLine
 10
2854.2512720967216
 20
894.65984487596643
 30
0.0
 11
2854.2512720967216
 21
1835.6133148759664
 31
0.0
  0
LINE
  5
FF
100
AcDbEntity
  8
0
  6
Continuous
 62
               6
100
AcDbLine
 10
2141.4513120967213
 20
1552.6128348759667
 30
0.0
 11
2141.4507220967216
 21
1457.7703148759665
 31
0.0
  0
LINE
  5
100
100
AcDbEntity
  8
0
  6
Continuous
 62
               6
100
AcDbLine
 10
2141.4506520967216
 20
1457.7703148759665
 30
0.0
 11
2241.4506520967216
 21
1457.7703148759665
 31
0.0
  0
LINE
  5
101
100
AcDbEntity
  8
0
  6
Continuous
 62
               6
100
AcDbLine
 10
2061.4512720967214
 20
1637.6128348759667
 30
0.0
 11
2061.4512720967214
 21
1835.6133148759664
 31
0.0
  0
LINE
  5
102
100
AcDbEntity
  8
0
  6
Continuous
 62
               6
100
AcDbLine
 10
2141.4512620967216
 20
1642.6128348759667
 30
0.0
 11
2141.4512620967216
 21
1835.6133148759664
 31
0.0
  0
LINE
  5
103
100
AcDbEntity
  8
0
  6
Continuous
 62
               6
100
AcDbLine
 10
2093.4512720967214
 20
1637.6128348759667
 30
0.0
 11
2093.4512720967214
 21
1835.6133148759664
 31
0.0
  0
LINE
  5
104
100
AcDbEntity
  8
0
  6
Continuous
 62
               6
100
AcDbLine
 10
2241.4512720967214
 20
1457.7703148759665
 30
0.0
 11
2241.4512720967214
 21
1835.6133148759664
 31
0.0
  0
LINE
  5
105
100
AcDbEntity
  8
0
  6
Continuous
 62
               6
100
AcDbLine
 10
2746.4512720967214
 20
1050.5203148759665
 30
0.0
 11
2746.4512720967214
 21
1332.5203148759665
 31
0.0
  0
LINE
  5
106
100
AcDbEntity
  8
0
  6
Continuous
 62
               6
100
AcDbLine
 10
2606.4512720967214
 20
1050.5203148759665
 30
0.0
 11
2606.4512720967214
 21
1332.5203148759665
 31
0.0
  0
LINE
  5
107
100
AcDbEntity
  8
0
  6
Continuous
 62
               6
100
AcDbLine
 10
2581.4512720967214
 20
976.2850348759664
 30
0.0
 11
2549.4512720967214
 21
1284.1149548759663
 31
0.0
  0
LINE
  5
108
100
AcDbEntity
  8
0
  6
Continuous
 62
               6
100
AcDbLine
 10
2549.4512720967214
 20
1284.1149548759663
 30
0.0
 11
1243.1361491554462
 21
1148.3191995530547
 31
0.0
  0
LINE
  5
109
100
AcDbEntity
  8
0
  6
Continuous
 62
               6
100
AcDbLine
 10
2550.7954720967214
 20
1271.1846348759664
 30
0.0
 11
1244.4113645378291
 21
1135.3817136401924
 31
0.0
  0
LINE
  5
10A
100
AcDbEntity
  8
0
  6
Continuous
 62
               6
100
AcDbLine
 10
2581.4512720967214
 20
976.2850348759664
 30
0.0
 11
1279.562652128727
 21
778.76016224673992
 31
0.0
  0
LINE
  5
10B
100
AcDbEntity
  8
0
  6
Continuous
 62
               6
100
AcDbLine
 10
2580.1136720967215
 20
989.15214487596643
 30
0.0
 11
1278.2933522405776
 21
791.63763349512169
 31
0.0
  0
LINE
  5
10C
100
AcDbEntity
  8
0
  6
Continuous
 62
               6
100
AcDbLine
 10
2601.9512720967214
 20
1340.5203148759665
 30
0.0
 11
2601.9512720967214
 21
1332.5203148759665
 31
0.0
  0
LINE
  5
10D
100
AcDbEntity
  8
0
  6
Continuous
 62
               6
100
AcDbLine
 10
2601.9512720967214
 20
1332.5203148759665
 30
0.0
 11
2660.7012720967214
 21
1332.5203148759665
 31
0.0
  0
LINE
  5
10E
100
AcDbEntity
  8
0
  6
Continuous
 62
               6
100
AcDbLine
 10
2673.7012720967214
 20
1319.5203148759665
 30
0.0
 11
2673.7012720967214
 21
1063.5203148759665
 31
0.0
  0
LINE
  5
10F
100
AcDbEntity
  8
0
  6
Continuous
 62
               6
100
AcDbLine
 10
2660.7012720967214
 20
1050.5203148759665
 30
0.0
 11
2601.9512720967214
 21
1050.5203148759665
 31
0.0
  0
LINE
  5
110
100
AcDbEntity
  8
0
  6
Continuous
 62
               6
100
AcDbLine
 10
2601.9512720967214
 20
1050.5203148759665
 30
0.0
 11
2601.9512720967214
 21
1042.5203148759665
 31
0.0
  0
LINE
  5
111
100
AcDbEntity
  8
0
  6
Continuous
 62
               6
100
AcDbLine
 10
2601.9512720967214
 20
1042.5203148759665
 30
0.0
 11
2750.9512720967214
 21
1042.5203148759665
 31
0.0
  0
LINE
  5
112
100
AcDbEntity
  8
0
  6
Continuous
 62
               6
100
AcDbLine
 10
2750.9512720967214
 20
1042.5203148759665
 30
0.0
 11
2750.9512720967214
 21
1050.5203148759665
 31
0.0
  0
LINE
  5
113
100
AcDbEntity
  8
0
  6
Continuous
 62
               6
100
AcDbLine
 10
2750.9512720967214
 20
1050.5203148759665
 30
0.0
 11
2692.2012720967214
 21
1050.5203148759665
 31
0.0
  0
LINE
  5
114
100
AcDbEntity
  8
0
  6
Continuous
 62
               6
100
AcDbLine
 10
2679.2012720967214
 20
1063.5203148759665
 30
0.0
 11
2679.2012720967214
 21
1319.5203148759665
 31
0.0
  0
LINE
  5
115
100
AcDbEntity
  8
0
  6
Continuous
 62
               6
100
AcDbLine
 10
2692.2012720967214
 20
1332.5203148759665
 30
0.0
 11
2750.9512720967214
 21
1332.5203148759665
 31
0.0
  0
LINE
  5
116
100
AcDbEntity
  8
0
  6
Continuous
 62
               6
100
AcDbLine
 10
2750.9512720967214
 20
1332.5203148759665
 30
0.0
 11
2750.9512720967214
 21
1340.5203148759665
 31
0.0
  0
LINE
  5
117
100
AcDbEntity
  8
0
  6
Continuous
 62
               6
100
AcDbLine
 10
2750.9512720967214
 20
1340.5203148759665
 30
0.0
 11
2601.9512720967214
 21
1340.5203148759665
 31
0.0
  0
LINE
  5
118
100
AcDbEntity
  8
0
  6
Continuous
 62
               4
100
AcDbLine
 10
2073.4512720967214
 20
1622.6128348759667
 30
0.0
 11
2073.4512720967214
 21
1835.6133148759664
 31
0.0
  0
LINE
  5
119
100
AcDbEntity
  8
0
  6
Continuous
 62
               4
100
AcDbLine
 10
2083.4512720967214
 20
1622.6128348759667
 30
0.0
 11
2073.4512720967214
 21
1622.6128348759667
 31
0.0
  0
LINE
  5
11A
100
AcDbEntity
  8
0
  6
Continuous
 62
               4
100
AcDbLine
 10
2083.4512720967214
 20
1622.6128348759667
 30
0.0
 11
2083.4512720967214
 21
1835.6133148759664
 31
0.0
  0
LINE
  5
11B
100
AcDbEntity
  8
0
  6
DASHED
 62
               7
100
AcDbLine
 10
2231.9512120967215
 20
1467.7703948759668
 30
0.0
 11
2231.9508720967215
 21
1542.7703848759666
 31
0.0
  0
LINE
  5
11C
100
AcDbEntity
  8
0
  6
DASHED
 62
               7
100
AcDbLine
 10
2205.9512120967215
 20
1467.7703148759665
 30
0.0
 11
2205.9508620967213
 21
1542.7703148759665
 31
0.0
  0
LINE
  5
11D
100
AcDbEntity
  8
0
  6
DASHED
 62
               7
100
AcDbLine
 10
2203.9512120967215
 20
1467.7703148759665
 30
0.0
 11
2203.9508720967215
 21
1542.7703048759663
 31
0.0
  0
LINE
  5
11E
100
AcDbEntity
  8
0
  6
DASHED
 62
               7
100
AcDbLine
 10
2175.9512220967213
 20
1467.7702348759667
 30
0.0
 11
2175.9508720967215
 21
1542.7702248759665
 31
0.0
  0
LINE
  5
11F
100
AcDbEntity
  8
0
  6
DASHED
 62
               7
100
AcDbLine
 10
2173.9511920967216
 20
1467.7702248759665
 30
0.0
 11
2173.9508520967215
 21
1542.7702248759665
 31
0.0
  0
LINE
  5
120
100
AcDbEntity
  8
0
  6
DASHED
 62
               7
100
AcDbLine
 10
2234.9512420967212
 20
1467.7704048759665
 30
0.0
 11
2234.9512420967212
 21
1542.7703948759663
 31
0.0
  0
LINE
  5
121
100
AcDbEntity
  8
0
  6
DASHED
 62
               7
100
AcDbLine
 10
2234.9512420967212
 20
1542.7703948759663
 30
0.0
 11
2167.4512820967216
 21
1542.7702048759666
 31
0.0
  0
LINE
  5
122
100
AcDbEntity
  8
0
  6
DASHED
 62
               7
100
AcDbLine
 10
2167.4512820967216
 20
1542.7702048759666
 30
0.0
 11
2167.4512820967216
 21
1467.7702048759666
 31
0.0
  0
LINE
  5
123
100
AcDbEntity
  8
0
  6
DASHED
 62
               7
100
AcDbLine
 10
2167.4512820967216
 20
1467.7702048759666
 30
0.0
 11
2234.9512420967212
 21
1467.7704048759665
 31
0.0
  0
LINE
  5
124
100
AcDbEntity
  8
0
  6
Continuous
 62
               6
100
AcDbLine
 10
2281.4512720967214
 20
1533.5203148759665
 30
0.0
 11
2281.4512720967214
 21
1485.5203148759665
 31
0.0
  0
LINE
  5
125
100
AcDbEntity
  8
0
  6
Continuous
 62
               6
100
AcDbLine
 10
2291.4512720967214
 20
1475.5203148759665
 30
0.0
 11
2389.4512720967214
 21
1475.5203148759665
 31
0.0
  0
LINE
  5
126
100
AcDbEntity
  8
0
  6
Continuous
 62
               6
100
AcDbLine
 10
2396.4512720967214
 20
1468.5203148759665
 30
0.0
 11
2396.4512720967214
 21
1465.5203148759665
 31
0.0
  0
LINE
  5
127
100
AcDbEntity
  8
0
  6
Continuous
 62
               6
100
AcDbLine
 10
2396.4512720967214
 20
1465.5203148759665
 30
0.0
 11
2271.4512720967214
 21
1465.5203148759665
 31
0.0
  0
LINE
  5
128
100
AcDbEntity
  8
0
  6
Continuous
 62
               6
100
AcDbLine
 10
2271.4512720967214
 20
1465.5203148759665
 30
0.0
 11
2271.4512720967214
 21
1540.5203148759665
 31
0.0
  0
LINE
  5
129
100
AcDbEntity
  8
0
  6
Continuous
 62
               6
100
AcDbLine
 10
2271.4512720967214
 20
1540.5203148759665
 30
0.0
 11
2274.4512720967214
 21
1540.5203148759665
 31
0.0
  0
LINE
  5
12A
100
AcDbEntity
  8
0
  6
Continuous
 62
               4
100
AcDbLine
 10
2706.4512720967214
 20
1340.5203148759665
 30
0.0
 11
2646.4512720967214
 21
1340.5203148759665
 31
0.0
  0
LINE
  5
12B
100
AcDbEntity
  8
0
  6
Continuous
 62
               4
100
AcDbLine
 10
2110.7012720967214
 20
1550.1039448759666
 30
0.0
 11
2110.7012720967214
 21
1550.6128348759667
 31
0.0
  0
LINE
  5
12C
100
AcDbEntity
  8
0
  6
DASHED
 62
               4
100
AcDbLine
 10
2108.4512720967214
 20
1550.6128348759667
 30
0.0
 11
2108.4512720967214
 21
1559.2128348759666
 31
0.0
  0
LINE
  5
12D
100
AcDbEntity
  8
0
  6
DASHED
 62
               4
100
AcDbLine
 10
2149.9512620967216
 20
1646.1128348759667
 30
0.0
 11
2149.9512620967216
 21
1634.0128348759667
 31
0.0
  0
LINE
  5
12E
100
AcDbEntity
  8
0
  6
DASHED
 62
               4
100
AcDbLine
 10
2148.4512620967216
 20
1647.6128348759667
 30
0.0
 11
2149.9512620967216
 21
1646.1128348759667
 31
0.0
  0
LINE
  5
12F
100
AcDbEntity
  8
0
  6
Continuous
 62
               4
100
AcDbLine
 10
2102.2012720967214
 20
1550.1039448759666
 30
0.0
 11
2102.2012720967214
 21
1550.6128348759667
 31
0.0
  0
LINE
  5
130
100
AcDbEntity
  8
0
  6
DASHED
 62
               4
100
AcDbLine
 10
2104.3762720967216
 20
1548.5167848759666
 30
0.0
 11
2105.3062720967214
 21
1550.4235748759666
 31
0.0
  0
LINE
  5
131
100
AcDbEntity
  8
0
  6
DASHED
 62
               4
100
AcDbLine
 10
2105.3062720967214
 20
1550.4235748759666
 30
0.0
 11
2106.4512720967214
 21
1551.0323748759665
 31
0.0
  0
LINE
  5
132
100
AcDbEntity
  8
0
  6
DASHED
 62
               4
100
AcDbLine
 10
2107.5962720967213
 20
1550.4235748759666
 30
0.0
 11
2106.4512720967214
 21
1551.0323748759665
 31
0.0
  0
LINE
  5
133
100
AcDbEntity
  8
0
  6
DASHDOT
 62
               4
100
AcDbLine
 10
2106.4512720967214
 20
1543.1128348759667
 30
0.0
 11
2106.4512720967214
 21
1565.6128348759667
 31
0.0
  0
LINE
  5
134
100
AcDbEntity
  8
0
  6
DASHED
 62
               4
100
AcDbLine
 10
2104.4512720967214
 20
1550.6128348759667
 30
0.0
 11
2104.4512720967214
 21
1559.2128348759666
 31
0.0
  0
LINE
  5
135
100
AcDbEntity
  8
0
  6
DASHED
 62
               4
100
AcDbLine
 10
2104.4512720967214
 20
1559.2128348759666
 30
0.0
 11
2108.4512720967214
 21
1559.2128348759666
 31
0.0
  0
LINE
  5
136
100
AcDbEntity
  8
0
  6
DASHED
 62
               4
100
AcDbLine
 10
2105.1512720967216
 20
1560.6128348759667
 30
0.0
 11
2107.7512720967216
 21
1560.6128348759667
 31
0.0
  0
LINE
  5
137
100
AcDbEntity
  8
0
  6
DASHED
 62
               4
100
AcDbLine
 10
2105.1055520967216
 20
1550.6128348759667
 30
0.0
 11
2105.1055520967216
 21
1560.5214048759667
 31
0.0
  0
LINE
  5
138
100
AcDbEntity
  8
0
  6
DASHED
 62
               4
100
AcDbLine
 10
2105.1512720967216
 20
1560.6128348759667
 30
0.0
 11
2104.4512720967214
 21
1559.2128348759666
 31
0.0
  0
LINE
  5
139
100
AcDbEntity
  8
0
  6
DASHED
 62
               4
100
AcDbLine
 10
2107.7969820967214
 20
1550.6128348759667
 30
0.0
 11
2107.7969820967214
 21
1560.5214048759667
 31
0.0
  0
LINE
  5
13A
100
AcDbEntity
  8
0
  6
DASHED
 62
               4
100
AcDbLine
 10
2318.9512720967214
 20
1475.5203148759665
 30
0.0
 11
2318.9512720967214
 21
1465.5203148759665
 31
0.0
  0
LINE
  5
13B
100
AcDbEntity
  8
0
  6
Continuous
 62
               4
100
AcDbLine
 10
2294.6512720967216
 20
1499.5203148759665
 30
0.0
 11
2301.2512720967216
 21
1499.5203148759665
 31
0.0
  0
LINE
  5
13C
100
AcDbEntity
  8
0
  6
Continuous
 62
               4
100
AcDbLine
 10
2302.2012720967214
 20
1500.4703148759668
 30
0.0
 11
2294.6512720967216
 21
1500.4703148759668
 31
0.0
  0
LINE
  5
13D
100
AcDbEntity
  8
0
  6
Continuous
 62
               4
100
AcDbLine
 10
2284.6512720967216
 20
1494.5506548759668
 30
0.0
 11
2293.8027620967214
 21
1494.5506548759668
 31
0.0
  0
LINE
  5
13E
100
AcDbEntity
  8
0
  6
Continuous
 62
               4
100
AcDbLine
 10
2284.6512720967216
 20
1500.0354848759666
 30
0.0
 11
2293.8027620967214
 21
1500.0354848759666
 31
0.0
  0
LINE
  5
13F
100
AcDbEntity
  8
0
  6
Continuous
 62
               4
100
AcDbLine
 10
2294.6512720967216
 20
1496.0203148759665
 30
0.0
 11
2293.8027620967214
 21
1494.5506548759668
 31
0.0
  0
LINE
  5
140
100
AcDbEntity
  8
0
  6
Continuous
 62
               4
100
AcDbLine
 10
2301.2512720967216
 20
1511.5203148759665
 30
0.0
 11
2294.6512720967216
 21
1511.5203148759665
 31
0.0
  0
LINE
  5
141
100
AcDbEntity
  8
0
  6
Continuous
 62
               4
100
AcDbLine
 10
2301.2512720967216
 20
1511.5203148759665
 30
0.0
 11
2303.2512720967216
 21
1509.5203148759665
 31
0.0
  0
LINE
  5
142
100
AcDbEntity
  8
0
  6
Continuous
 62
               4
100
AcDbLine
 10
2302.2012720967214
 20
1510.5703148759662
 30
0.0
 11
2294.6512720967216
 21
1510.5703148759662
 31
0.0
  0
LINE
  5
143
100
AcDbEntity
  8
0
  6
Continuous
 62
               4
100
AcDbLine
 10
2303.2512720967216
 20
1501.5203148759665
 30
0.0
 11
2303.2512720967216
 21
1509.5203148759665
 31
0.0
  0
LINE
  5
144
100
AcDbEntity
  8
0
  6
Continuous
 62
               4
100
AcDbLine
 10
2284.6512720967216
 20
1511.0051448759664
 30
0.0
 11
2293.8027620967214
 21
1511.0051448759664
 31
0.0
  0
LINE
  5
145
100
AcDbEntity
  8
0
  6
Continuous
 62
               4
100
AcDbLine
 10
2284.6512720967216
 20
1516.4899648759665
 30
0.0
 11
2293.8027620967214
 21
1516.4899648759665
 31
0.0
  0
LINE
  5
146
100
AcDbEntity
  8
0
  6
Continuous
 62
               4
100
AcDbLine
 10
2294.6512720967216
 20
1515.0203148759665
 30
0.0
 11
2293.8027620967214
 21
1516.4899648759665
 31
0.0
  0
LINE
  5
147
100
AcDbEntity
  8
0
  6
Continuous
 62
               4
100
AcDbLine
 10
2301.2512720967216
 20
1499.5203148759665
 30
0.0
 11
2301.2512720967216
 21
1511.5203148759665
 31
0.0
  0
LINE
  5
148
100
AcDbEntity
  8
0
  6
Continuous
 62
               4
100
AcDbLine
 10
2301.2512720967216
 20
1499.5203148759665
 30
0.0
 11
2303.2512720967216
 21
1501.5203148759665
 31
0.0
  0
LINE
  5
149
100
AcDbEntity
  8
0
  6
Continuous
 62
               4
100
AcDbLine
 10
2294.6512720967216
 20
1496.0203148759665
 30
0.0
 11
2294.6512720967216
 21
1515.0203148759665
 31
0.0
  0
LINE
  5
14A
100
AcDbEntity
  8
0
  6
Continuous
 62
               4
100
AcDbLine
 10
2284.6512720967216
 20
1494.5506548759668
 30
0.0
 11
2284.6512720967216
 21
1516.4899648759665
 31
0.0
  0
LINE
  5
14B
100
AcDbEntity
  8
0
  6
DASHED
 62
               4
100
AcDbLine
 10
2284.6512720967216
 20
1500.4703148759668
 30
0.0
 11
2272.7512720967216
 21
1500.4703148759668
 31
0.0
  0
LINE
  5
14C
100
AcDbEntity
  8
0
  6
DASHED
 62
               4
100
AcDbLine
 10
2284.6512720967216
 20
1511.5203148759665
 30
0.0
 11
2272.7512720967216
 21
1511.5203148759665
 31
0.0
  0
LINE
  5
14D
100
AcDbEntity
  8
0
  6
DASHED
 62
               4
100
AcDbLine
 10
2284.6512720967216
 20
1510.5703148759662
 30
0.0
 11
2272.7512720967216
 21
1510.5703148759662
 31
0.0
  0
LINE
  5
14E
100
AcDbEntity
  8
0
  6
DASHED
 62
               4
100
AcDbLine
 10
2272.7512720967216
 20
1499.5203148759665
 30
0.0
 11
2284.6512720967216
 21
1499.5203148759665
 31
0.0
  0
LINE
  5
14F
100
AcDbEntity
  8
0
  6
DASHED
 62
               4
100
AcDbLine
 10
2345.4512720967214
 20
1478.7203148759668
 30
0.0
 11
2345.4512720967214
 21
1465.5203148759665
 31
0.0
  0
LINE
  5
150
100
AcDbEntity
  8
0
  6
DASHED
 62
               4
100
AcDbLine
 10
2346.4012720967216
 20
1478.7203148759668
 30
0.0
 11
2346.4012720967216
 21
1465.5203148759665
 31
0.0
  0
LINE
  5
151
100
AcDbEntity
  8
0
  6
DASHED
 62
               4
100
AcDbLine
 10
2356.5012720967216
 20
1478.7203148759668
 30
0.0
 11
2356.5012720967216
 21
1465.5203148759665
 31
0.0
  0
LINE
  5
152
100
AcDbEntity
  8
0
  6
DASHED
 62
               4
100
AcDbLine
 10
2357.4512720967214
 20
1465.5203148759665
 30
0.0
 11
2357.4512720967214
 21
1478.7203148759668
 31
0.0
  0
LINE
  5
153
100
AcDbEntity
  8
0
  6
DASHED
 62
               4
100
AcDbLine
 10
2383.9512720967214
 20
1475.5203148759665
 30
0.0
 11
2383.9512720967214
 21
1465.5203148759665
 31
0.0
  0
LINE
  5
154
100
AcDbEntity
  8
0
  6
Continuous
 62
               4
100
AcDbLine
 10
2360.9512720967214
 20
1488.7203148759668
 30
0.0
 11
2362.4209220967214
 21
1487.8718048759665
 31
0.0
  0
LINE
  5
155
100
AcDbEntity
  8
0
  6
Continuous
 62
               4
100
AcDbLine
 10
2357.4512720967214
 20
1497.0203148759665
 30
0.0
 11
2355.4512720967214
 21
1499.0203148759665
 31
0.0
  0
LINE
  5
156
100
AcDbEntity
  8
0
  6
Continuous
 62
               4
100
AcDbLine
 10
2357.4512720967214
 20
1488.7203148759668
 30
0.0
 11
2357.4512720967214
 21
1497.0203148759665
 31
0.0
  0
LINE
  5
157
100
AcDbEntity
  8
0
  6
Continuous
 62
               4
100
AcDbLine
 10
2356.5012720967216
 20
1497.9703148759668
 30
0.0
 11
2356.5012720967216
 21
1488.7203148759668
 31
0.0
  0
LINE
  5
158
100
AcDbEntity
  8
0
  6
Continuous
 62
               4
100
AcDbLine
 10
2362.4209220967214
 20
1478.7203148759668
 30
0.0
 11
2362.4209220967214
 21
1487.8718048759665
 31
0.0
  0
LINE
  5
159
100
AcDbEntity
  8
0
  6
Continuous
 62
               4
100
AcDbLine
 10
2356.9360920967215
 20
1478.7203148759668
 30
0.0
 11
2356.9360920967215
 21
1487.8718048759665
 31
0.0
  0
LINE
  5
15A
100
AcDbEntity
  8
0
  6
Continuous
 62
               4
100
AcDbLine
 10
2345.4512720967214
 20
1497.0203148759665
 30
0.0
 11
2347.4512720967214
 21
1499.0203148759665
 31
0.0
  0
LINE
  5
15B
100
AcDbEntity
  8
0
  6
Continuous
 62
               4
100
AcDbLine
 10
2345.4512720967214
 20
1497.0203148759665
 30
0.0
 11
2345.4512720967214
 21
1488.7203148759668
 31
0.0
  0
LINE
  5
15C
100
AcDbEntity
  8
0
  6
Continuous
 62
               4
100
AcDbLine
 10
2346.4012720967216
 20
1497.9703148759668
 30
0.0
 11
2346.4012720967216
 21
1488.7203148759668
 31
0.0
  0
LINE
  5
15D
100
AcDbEntity
  8
0
  6
Continuous
 62
               4
100
AcDbLine
 10
2341.9512720967214
 20
1488.7203148759668
 30
0.0
 11
2340.4816120967216
 21
1487.8718048759665
 31
0.0
  0
LINE
  5
15E
100
AcDbEntity
  8
0
  6
Continuous
 62
               4
100
AcDbLine
 10
2345.9664420967215
 20
1478.7203148759668
 30
0.0
 11
2345.9664420967215
 21
1487.8718048759665
 31
0.0
  0
LINE
  5
15F
100
AcDbEntity
  8
0
  6
Continuous
 62
               4
100
AcDbLine
 10
2340.4816120967216
 20
1478.7203148759668
 30
0.0
 11
2340.4816120967216
 21
1487.8718048759665
 31
0.0
  0
LINE
  5
160
100
AcDbEntity
  8
0
  6
Continuous
 62
               4
100
AcDbLine
 10
2360.9512720967214
 20
1488.7203148759668
 30
0.0
 11
2341.9512720967214
 21
1488.7203148759668
 31
0.0
  0
LINE
  5
161
100
AcDbEntity
  8
0
  6
Continuous
 62
               4
100
AcDbLine
 10
2362.4209220967214
 20
1478.7203148759668
 30
0.0
 11
2340.4816120967216
 21
1478.7203148759668
 31
0.0
  0
LINE
  5
162
100
AcDbEntity
  8
0
  6
Continuous
 62
               4
100
AcDbLine
 10
2355.4512720967214
 20
1499.0203148759665
 30
0.0
 11
2347.4512720967214
 21
1499.0203148759665
 31
0.0
  0
LINE
  5
163
100
AcDbEntity
  8
0
  6
Continuous
 62
               4
100
AcDbLine
 10
2357.4512720967214
 20
1497.0203148759665
 30
0.0
 11
2345.4512720967214
 21
1497.0203148759665
 31
0.0
  0
LINE
  5
164
100
AcDbEntity
  8
0
  6
Continuous
 62
               4
100
AcDbLine
 10
2264.4512720967214
 20
1547.7703148759665
 30
0.0
 11
2264.4512720967214
 21
1457.7703148759665
 31
0.0
  0
LINE
  5
165
100
AcDbEntity
  8
0
  6
Continuous
 62
               4
100
AcDbLine
 10
2261.2512720967216
 20
1511.5203148759665
 30
0.0
 11
2261.2512720967216
 21
1499.5203148759665
 31
0.0
  0
LINE
  5
166
100
AcDbEntity
  8
0
  6
Continuous
 62
               4
100
AcDbLine
 10
2261.2512720967216
 20
1516.4899648759665
 30
0.0
 11
2261.2512720967216
 21
1494.5506548759668
 31
0.0
  0
LINE
  5
167
100
AcDbEntity
  8
0
  6
DASHED
 62
               4
100
AcDbLine
 10
2271.7512720967216
 20
1510.5703148759662
 30
0.0
 11
2261.2512720967216
 21
1510.5703148759662
 31
0.0
  0
LINE
  5
168
100
AcDbEntity
  8
0
  6
DASHED
 62
               4
100
AcDbLine
 10
2271.7512720967216
 20
1511.5203148759665
 30
0.0
 11
2261.2512720967216
 21
1511.5203148759665
 31
0.0
  0
LINE
  5
169
100
AcDbEntity
  8
0
  6
DASHED
 62
               4
100
AcDbLine
 10
2271.7512720967216
 20
1500.4703148759668
 30
0.0
 11
2261.2512720967216
 21
1500.4703148759668
 31
0.0
  0
LINE
  5
16A
100
AcDbEntity
  8
0
  6
DASHED
 62
               4
100
AcDbLine
 10
2261.2512720967216
 20
1499.5203148759665
 30
0.0
 11
2271.7512720967216
 21
1499.5203148759665
 31
0.0
  0
LINE
  5
16B
100
AcDbEntity
  8
0
  6
Continuous
 62
               4
100
AcDbLine
 10
2261.2512720967216
 20
1494.5506548759668
 30
0.0
 11
2254.0997720967216
 21
1494.5506548759668
 31
0.0
  0
LINE
  5
16C
100
AcDbEntity
  8
0
  6
Continuous
 62
               4
100
AcDbLine
 10
2261.2512720967216
 20
1500.0354848759666
 30
0.0
 11
2254.0997720967216
 21
1500.0354848759666
 31
0.0
  0
LINE
  5
16D
100
AcDbEntity
  8
0
  6
Continuous
 62
               4
100
AcDbLine
 10
2261.2512720967216
 20
1511.0051448759664
 30
0.0
 11
2254.0997720967216
 21
1511.0051448759664
 31
0.0
  0
LINE
  5
16E
100
AcDbEntity
  8
0
  6
Continuous
 62
               4
100
AcDbLine
 10
2261.2512720967216
 20
1516.4899648759665
 30
0.0
 11
2254.0997720967216
 21
1516.4899648759665
 31
0.0
  0
LINE
  5
16F
100
AcDbEntity
  8
0
  6
Continuous
 62
               4
100
AcDbLine
 10
2253.2512720967216
 20
1515.0203148759665
 30
0.0
 11
2253.2512720967216
 21
1496.0203148759665
 31
0.0
  0
LINE
  5
170
100
AcDbEntity
  8
0
  6
Continuous
 62
               4
100
AcDbLine
 10
2253.2512720967216
 20
1515.0203148759665
 30
0.0
 11
2254.0997720967216
 21
1516.4899648759665
 31
0.0
  0
LINE
  5
171
100
AcDbEntity
  8
0
  6
Continuous
 62
               4
100
AcDbLine
 10
2253.2512720967216
 20
1496.0203148759665
 30
0.0
 11
2254.0997720967216
 21
1494.5506548759668
 31
0.0
  0
LINE
  5
172
100
AcDbEntity
  8
0
  6
DASHED
 62
               4
100
AcDbLine
 10
2271.4512720967214
 20
1527.7703148759665
 30
0.0
 11
2264.4512720967214
 21
1527.7703148759665
 31
0.0
  0
LINE
  5
173
100
AcDbEntity
  8
0
  6
DASHED
 62
               4
100
AcDbLine
 10
2271.4512720967214
 20
1477.7703148759665
 30
0.0
 11
2264.4512720967214
 21
1477.7703148759665
 31
0.0
  0
LINE
  5
174
100
AcDbEntity
  8
0
  6
DASHED
 62
               4
100
AcDbLine
 10
2150.6055520967216
 20
1646.1128348759667
 30
0.0
 11
2150.6055520967216
 21
1632.7042648759666
 31
0.0
  0
LINE
  5
175
100
AcDbEntity
  8
0
  6
DASHED
 62
               4
100
AcDbLine
 10
2153.2969820967214
 20
1646.1128348759667
 30
0.0
 11
2153.2969820967214
 21
1632.7042648759666
 31
0.0
  0
LINE
  5
176
100
AcDbEntity
  8
0
  6
DASHED
 62
               4
100
AcDbLine
 10
2153.9512620967216
 20
1646.1128348759667
 30
0.0
 11
2153.9512620967216
 21
1634.0128348759667
 31
0.0
  0
LINE
  5
177
100
AcDbEntity
  8
0
  6
DASHDOT
 62
               4
100
AcDbLine
 10
2151.9512620967216
 20
1652.6128348759667
 30
0.0
 11
2151.9512620967216
 21
1632.6128348759667
 31
0.0
  0
LINE
  5
178
100
AcDbEntity
  8
0
  6
DASHED
 62
               4
100
AcDbLine
 10
2150.8062620967216
 20
1645.7573148759666
 30
0.0
 11
2151.9512620967216
 21
1645.1485048759664
 31
0.0
  0
LINE
  5
179
100
AcDbEntity
  8
0
  6
DASHED
 62
               4
100
AcDbLine
 10
2153.0962620967216
 20
1645.7573148759666
 30
0.0
 11
2151.9512620967216
 21
1645.1485048759664
 31
0.0
  0
LINE
  5
17A
100
AcDbEntity
  8
0
  6
DASHED
 62
               4
100
AcDbLine
 10
2154.0012620967213
 20
1647.6128348759667
 30
0.0
 11
2153.0962620967216
 21
1645.7573148759666
 31
0.0
  0
LINE
  5
17B
100
AcDbEntity
  8
0
  6
DASHED
 62
               4
100
AcDbLine
 10
2155.4512620967216
 20
1647.6128348759667
 30
0.0
 11
2153.9512620967216
 21
1646.1128348759667
 31
0.0
  0
LINE
  5
17C
100
AcDbEntity
  8
0
  6
DASHED
 62
               4
100
AcDbLine
 10
2153.9512620967216
 20
1634.0128348759667
 30
0.0
 11
2149.9512620967216
 21
1634.0128348759667
 31
0.0
  0
LINE
  5
17D
100
AcDbEntity
  8
0
  6
DASHED
 62
               4
100
AcDbLine
 10
2153.2512620967213
 20
1632.6128348759667
 30
0.0
 11
2150.6512620967214
 21
1632.6128348759667
 31
0.0
  0
LINE
  5
17E
100
AcDbEntity
  8
0
  6
DASHED
 62
               4
100
AcDbLine
 10
2153.2512620967213
 20
1632.6128348759667
 30
0.0
 11
2153.9512620967216
 21
1634.0128348759667
 31
0.0
  0
LINE
  5
17F
100
AcDbEntity
  8
0
  6
Continuous
 62
               4
100
AcDbLine
 10
2102.2012720967214
 20
1550.1039448759666
 30
0.0
 11
2110.7012720967214
 21
1550.1039448759666
 31
0.0
  0
LINE
  5
180
100
AcDbEntity
  8
0
  6
Continuous
 62
               4
100
AcDbLine
 10
2102.2012720967214
 20
1550.6128348759667
 30
0.0
 11
2110.7012720967214
 21
1550.6128348759667
 31
0.0
  0
LINE
  5
181
100
AcDbEntity
  8
0
  6
DASHED
 62
               4
100
AcDbLine
 10
2108.5262720967216
 20
1548.5167848759666
 30
0.0
 11
2107.5962720967213
 21
1550.4235748759666
 31
0.0
  0
LINE
  5
182
100
AcDbEntity
  8
0
  6
DASHED
 62
               4
100
AcDbLine
 10
2107.7512720967216
 20
1560.6128348759667
 30
0.0
 11
2108.4512720967214
 21
1559.2128348759666
 31
0.0
  0
LINE
  5
183
100
AcDbEntity
  8
0
  6
DASHED
 62
               4
100
AcDbLine
 10
2149.9012620967214
 20
1647.6128348759667
 30
0.0
 11
2150.8062620967216
 21
1645.7573148759666
 31
0.0
  0
LINE
  5
184
100
AcDbEntity
  8
0
  6
DASHED
 62
               4
100
AcDbLine
 10
2149.9512620967216
 20
1646.1128348759667
 30
0.0
 11
2153.9512620967216
 21
1646.1128348759667
 31
0.0
  0
LINE
  5
185
100
AcDbEntity
  8
0
  6
DASHED
 62
               4
100
AcDbLine
 10
2155.4512620967216
 20
1647.6128348759667
 30
0.0
 11
2148.4512620967216
 21
1647.6128348759667
 31
0.0
  0
LINE
  5
186
100
AcDbEntity
  8
0
  6
DASHED
 62
               4
100
AcDbLine
 10
2150.6512620967214
 20
1632.6128348759667
 30
0.0
 11
2149.9512620967216
 21
1634.0128348759667
 31
0.0
  0
LINE
  5
187
100
AcDbEntity
  8
0
  6
Continuous
 62
               4
100
AcDbLine
 10
2171.4512720967214
 20
1457.7703148759665
 30
0.0
 11
2271.4512720967214
 21
1457.7703148759665
 31
0.0
  0
LINE
  5
188
100
AcDbEntity
  8
0
  6
Continuous
 62
               4
100
AcDbLine
 10
2271.4512720967214
 20
1457.7703148759665
 30
0.0
 11
2271.4512720967214
 21
1547.7703148759665
 31
0.0
  0
LINE
  5
189
100
AcDbEntity
  8
0
  6
Continuous
 62
               4
100
AcDbLine
 10
2271.4512720967214
 20
1547.7703148759665
 30
0.0
 11
2171.4512720967214
 21
1547.7703148759665
 31
0.0
  0
LINE
  5
18A
100
AcDbEntity
  8
0
  6
Continuous
 62
               4
100
AcDbLine
 10
2171.4512720967214
 20
1547.7703148759665
 30
0.0
 11
2171.4512720967214
 21
1457.7703148759665
 31
0.0
  0
LINE
  5
18B
100
AcDbEntity
  8
0
  6
Continuous
 62
               4
100
AcDbLine
 10
2201.9512720967214
 20
1488.2551448759668
 30
0.0
 11
2211.4512720967214
 21
1493.7399648759665
 31
0.0
  0
LINE
  5
18C
100
AcDbEntity
  8
0
  6
Continuous
 62
               4
100
AcDbLine
 10
2211.4512720967214
 20
1493.7399648759665
 30
0.0
 11
2220.9512720967214
 21
1488.2551448759668
 31
0.0
  0
LINE
  5
18D
100
AcDbEntity
  8
0
  6
Continuous
 62
               4
100
AcDbLine
 10
2220.9512720967214
 20
1488.2551448759668
 30
0.0
 11
2220.9512720967214
 21
1477.2854848759666
 31
0.0
  0
LINE
  5
18E
100
AcDbEntity
  8
0
  6
Continuous
 62
               4
100
AcDbLine
 10
2220.9512720967214
 20
1477.2854848759666
 30
0.0
 11
2211.4512720967214
 21
1471.8006548759668
 31
0.0
  0
LINE
  5
18F
100
AcDbEntity
  8
0
  6
Continuous
 62
               4
100
AcDbLine
 10
2211.4512720967214
 20
1471.8006548759668
 30
0.0
 11
2201.9512720967214
 21
1477.2854848759666
 31
0.0
  0
LINE
  5
190
100
AcDbEntity
  8
0
  6
Continuous
 62
               4
100
AcDbLine
 10
2201.9512720967214
 20
1477.2854848759666
 30
0.0
 11
2201.9512720967214
 21
1488.2551448759668
 31
0.0
  0
LINE
  5
191
100
AcDbEntity
  8
0
  6
Continuous
 62
               4
100
AcDbLine
 10
2201.9512720967214
 20
1533.2551448759664
 30
0.0
 11
2211.4512720967214
 21
1538.7399648759665
 31
0.0
  0
LINE
  5
192
100
AcDbEntity
  8
0
  6
Continuous
 62
               4
100
AcDbLine
 10
2211.4512720967214
 20
1538.7399648759665
 30
0.0
 11
2220.9512720967214
 21
1533.2551448759664
 31
0.0
  0
LINE
  5
193
100
AcDbEntity
  8
0
  6
Continuous
 62
               4
100
AcDbLine
 10
2220.9512720967214
 20
1533.2551448759664
 30
0.0
 11
2220.9512720967214
 21
1522.2854848759666
 31
0.0
  0
LINE
  5
194
100
AcDbEntity
  8
0
  6
Continuous
 62
               4
100
AcDbLine
 10
2220.9512720967214
 20
1522.2854848759666
 30
0.0
 11
2211.4512720967214
 21
1516.8006548759663
 31
0.0
  0
LINE
  5
195
100
AcDbEntity
  8
0
  6
Continuous
 62
               4
100
AcDbLine
 10
2211.4512720967214
 20
1516.8006548759663
 30
0.0
 11
2201.9512720967214
 21
1522.2854848759666
 31
0.0
  0
LINE
  5
196
100
AcDbEntity
  8
0
  6
Continuous
 62
               4
100
AcDbLine
 10
2201.9512720967214
 20
1522.2854848759666
 30
0.0
 11
2201.9512720967214
 21
1533.2551448759664
 31
0.0
  0
LINE
  5
197
100
AcDbEntity
  8
0
  6
Continuous
 62
               4
100
AcDbLine
 10
2065.4512720967214
 20
1629.6128348759667
 30
0.0
 11
2073.4512720967214
 21
1629.6128648759668
 31
0.0
  0
LINE
  5
198
100
AcDbEntity
  8
0
  6
Continuous
 62
               4
100
AcDbLine
 10
2073.4512720967214
 20
1629.6128648759668
 30
0.0
 11
2073.4512720967214
 21
1639.1128648759668
 31
0.0
  0
LINE
  5
199
100
AcDbEntity
  8
0
  6
Continuous
 62
               4
100
AcDbLine
 10
2073.4512720967214
 20
1639.1128648759668
 30
0.0
 11
2072.7012720967214
 21
1638.3628648759668
 31
0.0
  0
LINE
  5
19A
100
AcDbEntity
  8
0
  6
Continuous
 62
               4
100
AcDbLine
 10
2072.7012720967214
 20
1638.3628648759668
 30
0.0
 11
2065.4512720967214
 21
1637.6127348759665
 31
0.0
  0
LINE
  5
19B
100
AcDbEntity
  8
0
  6
Continuous
 62
               4
100
AcDbLine
 10
2065.4512720967214
 20
1637.6127348759665
 30
0.0
 11
2065.4512720967214
 21
1629.6128348759667
 31
0.0
  0
LINE
  5
19C
100
AcDbEntity
  8
0
  6
Continuous
 62
               4
100
AcDbLine
 10
2073.4512720967214
 20
1629.6128648759668
 30
0.0
 11
2065.4512720967214
 21
1629.6128348759667
 31
0.0
  0
LINE
  5
19D
100
AcDbEntity
  8
0
  6
Continuous
 62
               4
100
AcDbLine
 10
2065.4512720967214
 20
1629.6128348759667
 30
0.0
 11
2065.4512720967214
 21
1623.6128348759667
 31
0.0
  0
LINE
  5
19E
100
AcDbEntity
  8
0
  6
Continuous
 62
               4
100
AcDbLine
 10
2065.4512720967214
 20
1623.6128348759667
 30
0.0
 11
2073.4512720967214
 21
1623.6128648759668
 31
0.0
  0
LINE
  5
19F
100
AcDbEntity
  8
0
  6
Continuous
 62
               4
100
AcDbLine
 10
2073.4512720967214
 20
1623.6128648759668
 30
0.0
 11
2073.4512720967214
 21
1629.6128648759668
 31
0.0
  0
LINE
  5
1A0
100
AcDbEntity
  8
0
  6
Continuous
 62
               4
100
AcDbLine
 10
2093.4512720967214
 20
1629.6128348759667
 30
0.0
 11
2083.4512620967216
 21
1629.6128648759668
 31
0.0
  0
LINE
  5
1A1
100
AcDbEntity
  8
0
  6
Continuous
 62
               4
100
AcDbLine
 10
2083.4512620967216
 20
1629.6128648759668
 30
0.0
 11
2083.4512620967216
 21
1639.1128648759668
 31
0.0
  0
LINE
  5
1A2
100
AcDbEntity
  8
0
  6
Continuous
 62
               4
100
AcDbLine
 10
2083.4512620967216
 20
1639.1128648759668
 30
0.0
 11
2084.2012620967216
 21
1638.3628648759668
 31
0.0
  0
LINE
  5
1A3
100
AcDbEntity
  8
0
  6
Continuous
 62
               4
100
AcDbLine
 10
2084.2012620967216
 20
1638.3628648759668
 30
0.0
 11
2093.4512720967214
 21
1637.6127348759665
 31
0.0
  0
LINE
  5
1A4
100
AcDbEntity
  8
0
  6
Continuous
 62
               4
100
AcDbLine
 10
2093.4512720967214
 20
1637.6127348759665
 30
0.0
 11
2093.4512720967214
 21
1629.6128348759667
 31
0.0
  0
LINE
  5
1A5
100
AcDbEntity
  8
0
  6
Continuous
 62
               4
100
AcDbLine
 10
2083.4512620967216
 20
1629.6128648759668
 30
0.0
 11
2093.4512720967214
 21
1629.6128348759667
 31
0.0
  0
LINE
  5
1A6
100
AcDbEntity
  8
0
  6
Continuous
 62
               4
100
AcDbLine
 10
2093.4512720967214
 20
1629.6128348759667
 30
0.0
 11
2093.4512720967214
 21
1625.6128348759667
 31
0.0
  0
LINE
  5
1A7
100
AcDbEntity
  8
0
  6
Continuous
 62
               4
100
AcDbLine
 10
2093.4512720967214
 20
1625.6128348759667
 30
0.0
 11
2083.4512620967216
 21
1625.6128648759668
 31
0.0
  0
LINE
  5
1A8
100
AcDbEntity
  8
0
  6
Continuous
 62
               4
100
AcDbLine
 10
2083.4512620967216
 20
1625.6128648759668
 30
0.0
 11
2083.4512620967216
 21
1629.6128648759668
 31
0.0
  0
LINE
  5
1A9
100
AcDbEntity
  8
0
  6
Continuous
 62
               4
100
AcDbLine
 10
2371.4512720967214
 20
1475.5203148759665
 30
0.0
 11
2371.4512720967214
 21
1478.7203148759668
 31
0.0
  0
LINE
  5
1AA
100
AcDbEntity
  8
0
  6
Continuous
 62
               4
100
AcDbLine
 10
2371.4512720967214
 20
1478.7203148759668
 30
0.0
 11
2331.4512720967214
 21
1478.7203148759668
 31
0.0
  0
LINE
  5
1AB
100
AcDbEntity
  8
0
  6
Continuous
 62
               4
100
AcDbLine
 10
2331.4512720967214
 20
1478.7203148759668
 30
0.0
 11
2331.4512720967214
 21
1475.5203148759665
 31
0.0
  0
LINE
  5
1AC
100
AcDbEntity
  8
0
  6
Continuous
 62
               4
100
AcDbLine
 10
2331.4512720967214
 20
1475.5203148759665
 30
0.0
 11
2371.4512720967214
 21
1475.5203148759665
 31
0.0
  0
LINE
  5
1AD
100
AcDbEntity
  8
0
  6
Continuous
 62
               4
100
AcDbLine
 10
2272.7512720967216
 20
1511.5203148759665
 30
0.0
 11
2271.7512720967216
 21
1511.5203148759665
 31
0.0
  0
LINE
  5
1AE
100
AcDbEntity
  8
0
  6
Continuous
 62
               4
100
AcDbLine
 10
2272.7512720967216
 20
1510.5703148759662
 30
0.0
 11
2271.7512720967216
 21
1510.5703148759662
 31
0.0
  0
LINE
  5
1AF
100
AcDbEntity
  8
0
  6
Continuous
 62
               4
100
AcDbLine
 10
2272.7512720967216
 20
1500.4703148759668
 30
0.0
 11
2271.7512720967216
 21
1500.4703148759668
 31
0.0
  0
LINE
  5
1B0
100
AcDbEntity
  8
0
  6
Continuous
 62
               4
100
AcDbLine
 10
2271.7512720967216
 20
1499.5203148759665
 30
0.0
 11
2272.7512720967216
 21
1499.5203148759665
 31
0.0
  0
LINE
  5
1B1
100
AcDbEntity
  8
0
  6
Continuous
 62
               4
100
AcDbLine
 10
2264.4512720967214
 20
1485.5203148759665
 30
0.0
 11
2264.4512720967214
 21
1525.5203148759665
 31
0.0
  0
LINE
  5
1B2
100
AcDbEntity
  8
0
  6
Continuous
 62
               4
100
AcDbLine
 10
2264.4512720967214
 20
1525.5203148759665
 30
0.0
 11
2261.2512720967216
 21
1525.5203148759665
 31
0.0
  0
LINE
  5
1B3
100
AcDbEntity
  8
0
  6
Continuous
 62
               4
100
AcDbLine
 10
2261.2512720967216
 20
1525.5203148759665
 30
0.0
 11
2261.2512720967216
 21
1485.5203148759665
 31
0.0
  0
LINE
  5
1B4
100
AcDbEntity
  8
0
  6
Continuous
 62
               4
100
AcDbLine
 10
2261.2512720967216
 20
1485.5203148759665
 30
0.0
 11
2264.4512720967214
 21
1485.5203148759665
 31
0.0
  0
LINE
  5
1B5
100
AcDbEntity
  8
0
  6
Continuous
 62
               4
100
AcDbLine
 10
2281.4512720967214
 20
1485.5203148759665
 30
0.0
 11
2284.6512720967216
 21
1485.5203148759665
 31
0.0
  0
LINE
  5
1B6
100
AcDbEntity
  8
0
  6
Continuous
 62
               4
100
AcDbLine
 10
2284.6512720967216
 20
1485.5203148759665
 30
0.0
 11
2284.6512720967216
 21
1525.5203148759665
 31
0.0
  0
LINE
  5
1B7
100
AcDbEntity
  8
0
  6
Continuous
 62
               4
100
AcDbLine
 10
2284.6512720967216
 20
1525.5203148759665
 30
0.0
 11
2281.4512720967214
 21
1525.5203148759665
 31
0.0
  0
LINE
  5
1B8
100
AcDbEntity
  8
0
  6
Continuous
 62
               4
100
AcDbLine
 10
2281.4512720967214
 20
1525.5203148759665
 30
0.0
 11
2281.4512720967214
 21
1485.5203148759665
 31
0.0
  0
LINE
  5
1B9
100
AcDbEntity
  8
0
  6
Continuous
 62
               7
100
AcDbLine
 10
2161.4512720967214
 20
1638.5128348759667
 30
0.0
 11
2161.4512720967214
 21
1637.7128348759666
 31
0.0
  0
LINE
  5
1BA
100
AcDbEntity
  8
0
  6
Continuous
 62
               7
100
AcDbLine
 10
2161.4512720967214
 20
1637.7128348759666
 30
0.0
 11
2161.4512720967214
 21
1630.6324548759667
 31
0.0
  0
LINE
  5
1BB
100
AcDbEntity
  8
0
  6
Continuous
 62
               7
100
AcDbLine
 10
2161.4512720967214
 20
1629.5932248759668
 30
0.0
 11
2161.4512720967214
 21
1625.6128348759667
 31
0.0
  0
LINE
  5
1BC
100
AcDbEntity
  8
0
  6
Continuous
 62
               7
100
AcDbLine
 10
2161.4512720967214
 20
1625.6128348759667
 30
0.0
 11
2158.9512720967214
 21
1625.6128348759667
 31
0.0
  0
LINE
  5
1BD
100
AcDbEntity
  8
0
  6
Continuous
 62
               7
100
AcDbLine
 10
2158.9512720967214
 20
1625.6128348759667
 30
0.0
 11
2158.9512720967214
 21
1634.6128348759667
 31
0.0
  0
LINE
  5
1BE
100
AcDbEntity
  8
0
  6
Continuous
 62
               7
100
AcDbLine
 10
2158.4512720967214
 20
1635.1128348759667
 30
0.0
 11
2141.4512720967214
 21
1635.1128348759667
 31
0.0
  0
LINE
  5
1BF
100
AcDbEntity
  8
0
  6
Continuous
 62
               7
100
AcDbLine
 10
2141.4512720967214
 20
1635.1128348759667
 30
0.0
 11
2141.4512720967214
 21
1585.1128348759667
 31
0.0
  0
LINE
  5
1C0
100
AcDbEntity
  8
0
  6
Continuous
 62
               7
100
AcDbLine
 10
2141.4512720967214
 20
1585.1128348759667
 30
0.0
 11
2158.4512720967214
 21
1585.1128348759667
 31
0.0
  0
LINE
  5
1C1
100
AcDbEntity
  8
0
  6
Continuous
 62
               7
100
AcDbLine
 10
2158.9512720967214
 20
1585.6128348759667
 30
0.0
 11
2158.9512720967214
 21
1594.6128348759667
 31
0.0
  0
LINE
  5
1C2
100
AcDbEntity
  8
0
  6
Continuous
 62
               7
100
AcDbLine
 10
2158.9512720967214
 20
1594.6128348759667
 30
0.0
 11
2161.4512720967214
 21
1594.6128348759667
 31
0.0
  0
LINE
  5
1C3
100
AcDbEntity
  8
0
  6
Continuous
 62
               7
100
AcDbLine
 10
2161.4512720967214
 20
1594.6128348759667
 30
0.0
 11
2161.4512720967214
 21
1590.6324548759667
 31
0.0
  0
LINE
  5
1C4
100
AcDbEntity
  8
0
  6
Continuous
 62
               7
100
AcDbLine
 10
2161.4512720967214
 20
1589.5932248759664
 30
0.0
 11
2161.4512720967214
 21
1583.1128348759667
 31
0.0
  0
LINE
  5
1C5
100
AcDbEntity
  8
0
  6
Continuous
 62
               7
100
AcDbLine
 10
2160.9512720967214
 20
1582.6128348759667
 30
0.0
 11
2141.4512720967214
 21
1582.6128348759667
 31
0.0
  0
LINE
  5
1C6
100
AcDbEntity
  8
0
  6
Continuous
 62
               7
100
AcDbLine
 10
2141.4512720967214
 20
1582.6128348759667
 30
0.0
 11
2141.4512720967214
 21
1577.6128348759667
 31
0.0
  0
LINE
  5
1C7
100
AcDbEntity
  8
0
  6
Continuous
 62
               7
100
AcDbLine
 10
2141.4512720967214
 20
1577.6128348759667
 30
0.0
 11
2135.4512720967214
 21
1577.6128348759667
 31
0.0
  0
LINE
  5
1C8
100
AcDbEntity
  8
0
  6
Continuous
 62
               7
100
AcDbLine
 10
2135.4512720967214
 20
1577.6128348759667
 30
0.0
 11
2135.4512720967214
 21
1578.6128348759667
 31
0.0
  0
LINE
  5
1C9
100
AcDbEntity
  8
0
  6
Continuous
 62
               7
100
AcDbLine
 10
2135.4512720967214
 20
1578.6128348759667
 30
0.0
 11
2139.4512720967214
 21
1579.6846348759664
 31
0.0
  0
LINE
  5
1CA
100
AcDbEntity
  8
0
  6
Continuous
 62
               7
100
AcDbLine
 10
2139.4512720967214
 20
1579.6846348759664
 30
0.0
 11
2139.4512720967214
 21
1582.6128348759667
 31
0.0
  0
LINE
  5
1CB
100
AcDbEntity
  8
0
  6
Continuous
 62
               7
100
AcDbLine
 10
2139.4512720967214
 20
1582.6128348759667
 30
0.0
 11
2113.4512720967214
 21
1582.6128348759667
 31
0.0
  0
LINE
  5
1CC
100
AcDbEntity
  8
0
  6
Continuous
 62
               7
100
AcDbLine
 10
2113.4512720967214
 20
1582.6128348759667
 30
0.0
 11
2113.4512720967214
 21
1577.6128348759667
 31
0.0
  0
LINE
  5
1CD
100
AcDbEntity
  8
0
  6
Continuous
 62
               7
100
AcDbLine
 10
2113.4512720967214
 20
1577.6128348759667
 30
0.0
 11
2111.4512720967214
 21
1577.6128348759667
 31
0.0
  0
LINE
  5
1CE
100
AcDbEntity
  8
0
  6
Continuous
 62
               7
100
AcDbLine
 10
2111.4512720967214
 20
1577.6128348759667
 30
0.0
 11
2111.4512720967214
 21
1600.1128348759667
 31
0.0
  0
LINE
  5
1CF
100
AcDbEntity
  8
0
  6
Continuous
 62
               7
100
AcDbLine
 10
2111.4512720967214
 20
1600.1128348759667
 30
0.0
 11
2098.8335720967216
 21
1600.1128348759667
 31
0.0
  0
LINE
  5
1D0
100
AcDbEntity
  8
0
  6
Continuous
 62
               7
100
AcDbLine
 10
2098.5439820967213
 20
1598.2357048759668
 30
0.0
 11
2098.0322120967217
 21
1597.7239248759665
 31
0.0
  0
LINE
  5
1D1
100
AcDbEntity
  8
0
  6
Continuous
 62
               7
100
AcDbLine
 10
2097.4665220967213
 20
1597.7239248759665
 30
0.0
 11
2097.3684120967214
 21
1597.8220348759664
 31
0.0
  0
LINE
  5
1D2
100
AcDbEntity
  8
0
  6
Continuous
 62
               7
100
AcDbLine
 10
2095.4512720967214
 20
1599.9128348759668
 30
0.0
 11
2094.1512720967216
 21
1599.9128348759668
 31
0.0
  0
LINE
  5
1D3
100
AcDbEntity
  8
0
  6
Continuous
 62
               7
100
AcDbLine
 10
2093.6512720967216
 20
1599.4128348759668
 30
0.0
 11
2093.6512720967216
 21
1598.1128348759667
 31
0.0
  0
LINE
  5
1D4
100
AcDbEntity
  8
0
  6
Continuous
 62
               7
100
AcDbLine
 10
2095.7420620967214
 20
1596.1956948759666
 30
0.0
 11
2095.8401820967215
 21
1596.0975848759667
 31
0.0
  0
LINE
  5
1D5
100
AcDbEntity
  8
0
  6
Continuous
 62
               7
100
AcDbLine
 10
2095.8401820967215
 20
1595.5318948759668
 30
0.0
 11
2095.3284020967212
 21
1595.0201148759666
 31
0.0
  0
LINE
  5
1D6
100
AcDbEntity
  8
0
  6
Continuous
 62
               7
100
AcDbLine
 10
2093.4512720967214
 20
1594.7305248759667
 30
0.0
 11
2093.4512720967214
 21
1587.1128348759667
 31
0.0
  0
LINE
  5
1D7
100
AcDbEntity
  8
0
  6
Continuous
 62
               7
100
AcDbLine
 10
2093.4512720967214
 20
1587.1128348759667
 30
0.0
 11
2091.4512720967214
 21
1587.1128348759667
 31
0.0
  0
LINE
  5
1D8
100
AcDbEntity
  8
0
  6
Continuous
 62
               7
100
AcDbLine
 10
2091.4512720967214
 20
1587.1128348759667
 30
0.0
 11
2091.4512720967214
 21
1600.1128348759667
 31
0.0
  0
LINE
  5
1D9
100
AcDbEntity
  8
0
  6
Continuous
 62
               7
100
AcDbLine
 10
2091.4512720967214
 20
1600.1128348759667
 30
0.0
 11
2073.4512720967214
 21
1600.1128348759667
 31
0.0
  0
LINE
  5
1DA
100
AcDbEntity
  8
0
  6
Continuous
 62
               7
100
AcDbLine
 10
2073.4512720967214
 20
1600.1128348759667
 30
0.0
 11
2073.4512720967214
 21
1602.6128348759667
 31
0.0
  0
LINE
  5
1DB
100
AcDbEntity
  8
0
  6
Continuous
 62
               7
100
AcDbLine
 10
2073.4512720967214
 20
1602.6128348759667
 30
0.0
 11
2061.4512720967214
 21
1602.6128348759667
 31
0.0
  0
LINE
  5
1DC
100
AcDbEntity
  8
0
  6
Continuous
 62
               7
100
AcDbLine
 10
2061.4512720967214
 20
1602.6128348759667
 30
0.0
 11
2061.4512720967214
 21
1637.6128348759667
 31
0.0
  0
LINE
  5
1DD
100
AcDbEntity
  8
0
  6
Continuous
 62
               7
100
AcDbLine
 10
2061.4512720967214
 20
1637.6128348759667
 30
0.0
 11
2065.4512720967214
 21
1637.6128348759667
 31
0.0
  0
LINE
  5
1DE
100
AcDbEntity
  8
0
  6
Continuous
 62
               7
100
AcDbLine
 10
2065.4512720967214
 20
1637.6128348759667
 30
0.0
 11
2065.4512720967214
 21
1623.6128348759667
 31
0.0
  0
LINE
  5
1DF
100
AcDbEntity
  8
0
  6
Continuous
 62
               7
100
AcDbLine
 10
2065.4512720967214
 20
1623.6128348759667
 30
0.0
 11
2066.9512720967214
 21
1623.6128348759667
 31
0.0
  0
LINE
  5
1E0
100
AcDbEntity
  8
0
  6
Continuous
 62
               7
100
AcDbLine
 10
2066.9512720967214
 20
1623.6128348759667
 30
0.0
 11
2066.9512720967214
 21
1622.1128348759667
 31
0.0
  0
LINE
  5
1E1
100
AcDbEntity
  8
0
  6
Continuous
 62
               7
100
AcDbLine
 10
2066.9512720967214
 20
1622.1128348759667
 30
0.0
 11
2065.4512720967214
 21
1622.1128348759667
 31
0.0
  0
LINE
  5
1E2
100
AcDbEntity
  8
0
  6
Continuous
 62
               7
100
AcDbLine
 10
2065.4512720967214
 20
1622.1128348759667
 30
0.0
 11
2065.4512720967214
 21
1605.1128348759667
 31
0.0
  0
LINE
  5
1E3
100
AcDbEntity
  8
0
  6
Continuous
 62
               7
100
AcDbLine
 10
2065.4512720967214
 20
1605.1128348759667
 30
0.0
 11
2075.9512720967214
 21
1605.1128348759667
 31
0.0
  0
LINE
  5
1E4
100
AcDbEntity
  8
0
  6
Continuous
 62
               7
100
AcDbLine
 10
2075.9512720967214
 20
1605.1128348759667
 30
0.0
 11
2075.9512720967214
 21
1602.6128348759667
 31
0.0
  0
LINE
  5
1E5
100
AcDbEntity
  8
0
  6
Continuous
 62
               7
100
AcDbLine
 10
2075.9512720967214
 20
1602.6128348759667
 30
0.0
 11
2110.9512720967214
 21
1602.6128348759667
 31
0.0
  0
LINE
  5
1E6
100
AcDbEntity
  8
0
  6
Continuous
 62
               7
100
AcDbLine
 10
2111.4512720967214
 20
1603.1128348759667
 30
0.0
 11
2111.4512720967214
 21
1635.6128348759667
 31
0.0
  0
LINE
  5
1E7
100
AcDbEntity
  8
0
  6
Continuous
 62
               7
100
AcDbLine
 10
2111.4512720967214
 20
1635.6128348759667
 30
0.0
 11
2095.9512720967214
 21
1635.6128348759667
 31
0.0
  0
LINE
  5
1E8
100
AcDbEntity
  8
0
  6
Continuous
 62
               7
100
AcDbLine
 10
2095.4512720967214
 20
1635.1128348759667
 30
0.0
 11
2095.4512720967214
 21
1624.6128348759667
 31
0.0
  0
LINE
  5
1E9
100
AcDbEntity
  8
0
  6
Continuous
 62
               7
100
AcDbLine
 10
2094.9512720967214
 20
1624.1128348759667
 30
0.0
 11
2091.9512720967214
 21
1624.1128348759667
 31
0.0
  0
LINE
  5
1EA
100
AcDbEntity
  8
0
  6
Continuous
 62
               7
100
AcDbLine
 10
2091.9512720967214
 20
1624.1128348759667
 30
0.0
 11
2091.9512720967214
 21
1625.6128348759667
 31
0.0
  0
LINE
  5
1EB
100
AcDbEntity
  8
0
  6
Continuous
 62
               7
100
AcDbLine
 10
2091.9512720967214
 20
1625.6128348759667
 30
0.0
 11
2093.4512720967214
 21
1625.6128348759667
 31
0.0
  0
LINE
  5
1EC
100
AcDbEntity
  8
0
  6
Continuous
 62
               7
100
AcDbLine
 10
2093.4512720967214
 20
1625.6128348759667
 30
0.0
 11
2093.4512720967214
 21
1637.6128348759667
 31
0.0
  0
LINE
  5
1ED
100
AcDbEntity
  8
0
  6
Continuous
 62
               7
100
AcDbLine
 10
2093.4512720967214
 20
1637.6128348759667
 30
0.0
 11
2135.4512720967214
 21
1637.6128348759667
 31
0.0
  0
LINE
  5
1EE
100
AcDbEntity
  8
0
  6
Continuous
 62
               7
100
AcDbLine
 10
2137.4512720967214
 20
1639.6128348759667
 30
0.0
 11
2137.4512720967214
 21
1642.6128348759667
 31
0.0
  0
LINE
  5
1EF
100
AcDbEntity
  8
0
  6
Continuous
 62
               7
100
AcDbLine
 10
2137.4512720967214
 20
1642.6128348759667
 30
0.0
 11
2141.4512720967214
 21
1642.6128348759667
 31
0.0
  0
LINE
  5
1F0
100
AcDbEntity
  8
0
  6
Continuous
 62
               7
100
AcDbLine
 10
2141.4512720967214
 20
1642.6128348759667
 30
0.0
 11
2141.4512720967214
 21
1640.1128348759667
 31
0.0
  0
LINE
  5
1F1
100
AcDbEntity
  8
0
  6
Continuous
 62
               7
100
AcDbLine
 10
2141.4512720967214
 20
1640.1128348759667
 30
0.0
 11
2140.4512720967214
 21
1640.1128348759667
 31
0.0
  0
LINE
  5
1F2
100
AcDbEntity
  8
0
  6
Continuous
 62
               7
100
AcDbLine
 10
2140.4512720967214
 20
1640.1128348759667
 30
0.0
 11
2140.4512720967214
 21
1641.1128348759667
 31
0.0
  0
LINE
  5
1F3
100
AcDbEntity
  8
0
  6
Continuous
 62
               7
100
AcDbLine
 10
2140.4512720967214
 20
1641.1128348759667
 30
0.0
 11
2138.9512720967214
 21
1641.1128348759667
 31
0.0
  0
LINE
  5
1F4
100
AcDbEntity
  8
0
  6
Continuous
 62
               7
100
AcDbLine
 10
2138.9512720967214
 20
1641.1128348759667
 30
0.0
 11
2138.9512720967214
 21
1637.6128348759667
 31
0.0
  0
LINE
  5
1F5
100
AcDbEntity
  8
0
  6
Continuous
 62
               7
100
AcDbLine
 10
2138.9512720967214
 20
1637.6128348759667
 30
0.0
 11
2158.9512720967214
 21
1637.6128348759667
 31
0.0
  0
LINE
  5
1F6
100
AcDbEntity
  8
0
  6
Continuous
 62
               7
100
AcDbLine
 10
2158.9512720967214
 20
1637.6128348759667
 30
0.0
 11
2158.9512720967214
 21
1638.5128348759667
 31
0.0
  0
LINE
  5
1F7
100
AcDbEntity
  8
0
  6
Continuous
 62
               7
100
AcDbLine
 10
2158.9512720967214
 20
1638.5128348759667
 30
0.0
 11
2161.4512720967214
 21
1638.5128348759667
 31
0.0
  0
LINE
  5
1F8
100
AcDbEntity
  8
0
  6
Continuous
 62
               7
100
AcDbLine
 10
2073.1512720967216
 20
1552.6128348759667
 30
0.0
 11
2065.4512720967214
 21
1552.6128348759667
 31
0.0
  0
LINE
  5
1F9
100
AcDbEntity
  8
0
  6
Continuous
 62
               7
100
AcDbLine
 10
2065.4512720967214
 20
1552.6128348759667
 30
0.0
 11
2065.4512720967214
 21
1547.6128348759667
 31
0.0
  0
LINE
  5
1FA
100
AcDbEntity
  8
0
  6
Continuous
 62
               7
100
AcDbLine
 10
2065.4512720967214
 20
1547.6128348759667
 30
0.0
 11
2061.4512720967214
 21
1547.6128348759667
 31
0.0
  0
LINE
  5
1FB
100
AcDbEntity
  8
0
  6
Continuous
 62
               7
100
AcDbLine
 10
2061.4512720967214
 20
1547.6128348759667
 30
0.0
 11
2061.4512720967214
 21
1582.6128348759667
 31
0.0
  0
LINE
  5
1FC
100
AcDbEntity
  8
0
  6
Continuous
 62
               7
100
AcDbLine
 10
2061.4512720967214
 20
1582.6128348759667
 30
0.0
 11
2089.0526820967216
 21
1588.3302748759666
 31
0.0
  0
LINE
  5
1FD
100
AcDbEntity
  8
0
  6
Continuous
 62
               7
100
AcDbLine
 10
2089.4512720967214
 20
1588.8198748759664
 30
0.0
 11
2089.4512720967214
 21
1592.0932248759664
 31
0.0
  0
LINE
  5
1FE
100
AcDbEntity
  8
0
  6
Continuous
 62
               7
100
AcDbLine
 10
2089.4512720967214
 20
1593.1324548759667
 30
0.0
 11
2089.4512720967214
 21
1594.5932248759668
 31
0.0
  0
LINE
  5
1FF
100
AcDbEntity
  8
0
  6
Continuous
 62
               7
100
AcDbLine
 10
2089.4512720967214
 20
1595.6324548759667
 30
0.0
 11
2089.4512720967214
 21
1600.1128348759667
 31
0.0
  0
LINE
  5
200
100
AcDbEntity
  8
0
  6
Continuous
 62
               7
100
AcDbLine
 10
2089.4512720967214
 20
1600.1128348759667
 30
0.0
 11
2091.4512720967214
 21
1600.1128348759667
 31
0.0
  0
LINE
  5
201
100
AcDbEntity
  8
0
  6
Continuous
 62
               7
100
AcDbLine
 10
2091.4512720967214
 20
1600.1128348759667
 30
0.0
 11
2091.4512720967214
 21
1587.5987448759665
 31
0.0
  0
LINE
  5
202
100
AcDbEntity
  8
0
  6
Continuous
 62
               7
100
AcDbLine
 10
2090.6541020967215
 20
1586.6195348759666
 30
0.0
 11
2065.0455920967215
 21
1581.3149148759667
 31
0.0
  0
LINE
  5
203
100
AcDbEntity
  8
0
  6
Continuous
 62
               7
100
AcDbLine
 10
2063.4512720967214
 20
1579.3564948759663
 30
0.0
 11
2063.4512720967214
 21
1555.1128348759667
 31
0.0
  0
LINE
  5
204
100
AcDbEntity
  8
0
  6
Continuous
 62
               7
100
AcDbLine
 10
2063.9512720967214
 20
1554.6128348759667
 30
0.0
 11
2138.9512720967214
 21
1554.6128348759667
 31
0.0
  0
LINE
  5
205
100
AcDbEntity
  8
0
  6
Continuous
 62
               7
100
AcDbLine
 10
2139.4512720967214
 20
1555.1128348759667
 30
0.0
 11
2139.4512720967214
 21
1575.6128348759667
 31
0.0
  0
LINE
  5
206
100
AcDbEntity
  8
0
  6
Continuous
 62
               7
100
AcDbLine
 10
2139.4512720967214
 20
1575.6128348759667
 30
0.0
 11
2133.4512720967214
 21
1575.6128348759667
 31
0.0
  0
LINE
  5
207
100
AcDbEntity
  8
0
  6
Continuous
 62
               7
100
AcDbLine
 10
2133.4512720967214
 20
1575.6128348759667
 30
0.0
 11
2133.4512720967214
 21
1580.6128348759667
 31
0.0
  0
LINE
  5
208
100
AcDbEntity
  8
0
  6
Continuous
 62
               7
100
AcDbLine
 10
2133.4512720967214
 20
1580.6128348759667
 30
0.0
 11
2139.1512720967216
 21
1580.6128348759667
 31
0.0
  0
LINE
  5
209
100
AcDbEntity
  8
0
  6
Continuous
 62
               7
100
AcDbLine
 10
2139.1512720967216
 20
1580.6128348759667
 30
0.0
 11
2139.1512720967216
 21
1579.6042448759663
 31
0.0
  0
LINE
  5
20A
100
AcDbEntity
  8
0
  6
Continuous
 62
               7
100
AcDbLine
 10
2139.1512720967216
 20
1579.6042448759663
 30
0.0
 11
2137.3172920967213
 21
1579.1128348759667
 31
0.0
  0
LINE
  5
20B
100
AcDbEntity
  8
0
  6
Continuous
 62
               7
100
AcDbLine
 10
2137.3172920967213
 20
1579.1128348759667
 30
0.0
 11
2135.4512720967214
 21
1579.1128348759667
 31
0.0
  0
LINE
  5
20C
100
AcDbEntity
  8
0
  6
Continuous
 62
               7
100
AcDbLine
 10
2135.4512720967214
 20
1579.1128348759667
 30
0.0
 11
2135.4512720967214
 21
1577.6128348759667
 31
0.0
  0
LINE
  5
20D
100
AcDbEntity
  8
0
  6
Continuous
 62
               7
100
AcDbLine
 10
2135.4512720967214
 20
1577.6128348759667
 30
0.0
 11
2141.4512720967214
 21
1577.6128348759667
 31
0.0
  0
LINE
  5
20E
100
AcDbEntity
  8
0
  6
Continuous
 62
               7
100
AcDbLine
 10
2141.4512720967214
 20
1577.6128348759667
 30
0.0
 11
2141.4512720967214
 21
1552.6128348759667
 31
0.0
  0
LINE
  5
20F
100
AcDbEntity
  8
0
  6
Continuous
 62
               7
100
AcDbLine
 10
2141.4512720967214
 20
1552.6128348759667
 30
0.0
 11
2077.9957520967214
 21
1552.6128348759667
 31
0.0
  0
LINE
  5
210
100
AcDbEntity
  8
0
  6
Continuous
 62
               7
100
AcDbLine
 10
2139.4512720967214
 20
1635.1128348759667
 30
0.0
 11
2139.4512720967214
 21
1585.1128348759667
 31
0.0
  0
LINE
  5
211
100
AcDbEntity
  8
0
  6
Continuous
 62
               7
100
AcDbLine
 10
2138.9512720967214
 20
1584.6128348759667
 30
0.0
 11
2133.8335720967216
 21
1584.6128348759667
 31
0.0
  0
LINE
  5
212
100
AcDbEntity
  8
0
  6
Continuous
 62
               7
100
AcDbLine
 10
2132.7250320967214
 20
1588.7128348759666
 30
0.0
 11
2132.0012720967216
 21
1588.7128348759666
 31
0.0
  0
LINE
  5
213
100
AcDbEntity
  8
0
  6
Continuous
 62
               7
100
AcDbLine
 10
2131.6012720967215
 20
1588.3128348759665
 30
0.0
 11
2131.6012720967215
 21
1588.1740848759664
 31
0.0
  0
LINE
  5
214
100
AcDbEntity
  8
0
  6
Continuous
 62
               7
100
AcDbLine
 10
2131.1012720967215
 20
1584.6128348759667
 30
0.0
 11
2129.8012720967213
 21
1584.6128348759667
 31
0.0
  0
LINE
  5
215
100
AcDbEntity
  8
0
  6
Continuous
 62
               7
100
AcDbLine
 10
2129.3012720967213
 20
1588.1740848759664
 30
0.0
 11
2129.3012720967213
 21
1588.3128348759665
 31
0.0
  0
LINE
  5
216
100
AcDbEntity
  8
0
  6
Continuous
 62
               7
100
AcDbLine
 10
2128.9012720967216
 20
1588.7128348759666
 30
0.0
 11
2128.1775020967216
 21
1588.7128348759666
 31
0.0
  0
LINE
  5
217
100
AcDbEntity
  8
0
  6
Continuous
 62
               7
100
AcDbLine
 10
2127.0689620967214
 20
1584.6128348759667
 30
0.0
 11
2113.9512720967214
 21
1584.6128348759667
 31
0.0
  0
LINE
  5
218
100
AcDbEntity
  8
0
  6
Continuous
 62
               7
100
AcDbLine
 10
2113.4512720967214
 20
1585.1128348759667
 30
0.0
 11
2113.4512720967214
 21
1635.1128348759667
 31
0.0
  0
LINE
  5
219
100
AcDbEntity
  8
0
  6
Continuous
 62
               7
100
AcDbLine
 10
2113.9512720967214
 20
1635.6128348759667
 30
0.0
 11
2127.0689620967214
 21
1635.6128348759667
 31
0.0
  0
LINE
  5
21A
100
AcDbEntity
  8
0
  6
Continuous
 62
               7
100
AcDbLine
 10
2128.1775020967216
 20
1631.5128348759667
 30
0.0
 11
2128.9012720967216
 21
1631.5128348759667
 31
0.0
  0
LINE
  5
21B
100
AcDbEntity
  8
0
  6
Continuous
 62
               7
100
AcDbLine
 10
2129.3012720967213
 20
1631.9128348759668
 30
0.0
 11
2129.3012720967213
 21
1632.0515848759665
 31
0.0
  0
LINE
  5
21C
100
AcDbEntity
  8
0
  6
Continuous
 62
               7
100
AcDbLine
 10
2129.8012720967213
 20
1635.6128348759667
 30
0.0
 11
2131.1012720967215
 21
1635.6128348759667
 31
0.0
  0
LINE
  5
21D
100
AcDbEntity
  8
0
  6
Continuous
 62
               7
100
AcDbLine
 10
2131.6012720967215
 20
1632.0515848759665
 30
0.0
 11
2131.6012720967215
 21
1631.9128348759668
 31
0.0
  0
LINE
  5
21E
100
AcDbEntity
  8
0
  6
Continuous
 62
               7
100
AcDbLine
 10
2132.0012720967216
 20
1631.5128348759667
 30
0.0
 11
2132.7250320967214
 21
1631.5128348759667
 31
0.0
  0
LINE
  5
21F
100
AcDbEntity
  8
0
  6
Continuous
 62
               7
100
AcDbLine
 10
2133.8335720967216
 20
1635.6128348759667
 30
0.0
 11
2138.9512720967214
 21
1635.6128348759667
 31
0.0
  0
LINE
  5
220
100
AcDbEntity
  8
0
  6
Continuous
 62
               4
100
AcDbLine
 10
2143.4512620967216
 20
1647.6128348759667
 30
0.0
 11
2249.4506920967215
 21
1647.6128348759667
 31
0.0
  0
LINE
  5
221
100
AcDbEntity
  8
0
  6
Continuous
 62
               4
100
AcDbLine
 10
2251.4506920967215
 20
1645.6128348759667
 30
0.0
 11
2251.4506920967215
 21
1627.6228348759664
 31
0.0
  0
LINE
  5
222
100
AcDbEntity
  8
0
  6
Continuous
 62
               4
100
AcDbLine
 10
2251.4606920967212
 20
1627.6128348759667
 30
0.0
 11
2266.4506920967215
 21
1627.6128348759667
 31
0.0
  0
LINE
  5
223
100
AcDbEntity
  8
0
  6
Continuous
 62
               4
100
AcDbLine
 10
2266.4506920967215
 20
1627.6128348759667
 30
0.0
 11
2266.4506920967215
 21
1625.6128348759667
 31
0.0
  0
LINE
  5
224
100
AcDbEntity
  8
0
  6
Continuous
 62
               4
100
AcDbLine
 10
2266.4506920967215
 20
1625.6128348759667
 30
0.0
 11
2251.4506920967215
 21
1625.6128348759667
 31
0.0
  0
LINE
  5
225
100
AcDbEntity
  8
0
  6
Continuous
 62
               4
100
AcDbLine
 10
2249.4506920967215
 20
1627.6128348759667
 30
0.0
 11
2249.4506920967215
 21
1645.6028348759664
 31
0.0
  0
LINE
  5
226
100
AcDbEntity
  8
0
  6
Continuous
 62
               4
100
AcDbLine
 10
2249.4406920967212
 20
1645.6128348759667
 30
0.0
 11
2143.4612620967214
 21
1645.6128348759667
 31
0.0
  0
LINE
  5
227
100
AcDbEntity
  8
0
  6
Continuous
 62
               4
100
AcDbLine
 10
2143.4512620967216
 20
1645.6028348759664
 30
0.0
 11
2143.4512620967216
 21
1637.6128348759667
 31
0.0
  0
LINE
  5
228
100
AcDbEntity
  8
0
  6
Continuous
 62
               4
100
AcDbLine
 10
2143.4512620967216
 20
1637.6128348759667
 30
0.0
 11
2141.4512620967216
 21
1637.6128348759667
 31
0.0
  0
LINE
  5
229
100
AcDbEntity
  8
0
  6
Continuous
 62
               4
100
AcDbLine
 10
2141.4512620967216
 20
1637.6128348759667
 30
0.0
 11
2141.4512620967216
 21
1645.6128348759667
 31
0.0
  0
LINE
  5
22A
100
AcDbEntity
  8
0
  6
Continuous
 62
               4
100
AcDbLine
 10
2098.4512720967214
 20
1522.6128348759667
 30
0.0
 11
2098.4512720967214
 21
1550.6028348759664
 31
0.0
  0
LINE
  5
22B
100
AcDbEntity
  8
0
  6
Continuous
 62
               4
100
AcDbLine
 10
2098.4612720967216
 20
1550.6128348759667
 30
0.0
 11
2116.4512720967214
 21
1550.6128348759667
 31
0.0
  0
LINE
  5
22C
100
AcDbEntity
  8
0
  6
Continuous
 62
               4
100
AcDbLine
 10
2116.4512720967214
 20
1550.6128348759667
 30
0.0
 11
2116.4512720967214
 21
1552.6128348759667
 31
0.0
  0
LINE
  5
22D
100
AcDbEntity
  8
0
  6
Continuous
 62
               4
100
AcDbLine
 10
2116.4512720967214
 20
1552.6128348759667
 30
0.0
 11
2098.4512720967214
 21
1552.6128348759667
 31
0.0
  0
LINE
  5
22E
100
AcDbEntity
  8
0
  6
Continuous
 62
               4
100
AcDbLine
 10
2096.4512720967214
 20
1550.6128348759667
 30
0.0
 11
2096.4512720967214
 21
1522.6128348759667
 31
0.0
  0
LINE
  5
22F
100
AcDbEntity
  8
0
  6
Continuous
 62
               4
100
AcDbLine
 10
2096.4512720967214
 20
1522.6128348759667
 30
0.0
 11
2098.4512720967214
 21
1522.6128348759667
 31
0.0
  0
LINE
  5
230
100
AcDbEntity
  8
0
  6
Continuous
 62
               4
100
AcDbLine
 10
2256.4506920967215
 20
1627.6128348759667
 30
0.0
 11
2256.4506920967215
 21
1635.6128348759667
 31
0.0
  0
LINE
  5
231
100
AcDbEntity
  8
0
  6
Continuous
 62
               4
100
AcDbLine
 10
2256.4506920967215
 20
1635.6128348759667
 30
0.0
 11
2756.4512720967223
 21
1635.6128348759667
 31
0.0
  0
LINE
  5
232
100
AcDbEntity
  8
0
  6
Continuous
 62
               4
100
AcDbLine
 10
2753.1375224340677
 20
1627.6128348759667
 30
0.0
 11
2256.4506920967215
 21
1627.6128348759667
 31
0.0
  0
LINE
  5
233
100
AcDbEntity
  8
0
  6
Continuous
 62
               4
100
AcDbLine
 10
2248.4506920967215
 20
1622.6128348759667
 30
0.0
 11
2264.4506920967215
 21
1622.6128348759667
 31
0.0
  0
LINE
  5
234
100
AcDbEntity
  8
0
  6
Continuous
 62
               4
100
AcDbLine
 10
2266.4506920967215
 20
1624.6128348759667
 30
0.0
 11
2266.4506920967215
 21
1625.6128348759667
 31
0.0
  0
LINE
  5
235
100
AcDbEntity
  8
0
  6
Continuous
 62
               4
100
AcDbLine
 10
2266.4506920967215
 20
1625.6128348759667
 30
0.0
 11
2241.4506920967215
 21
1625.6128348759667
 31
0.0
  0
LINE
  5
236
100
AcDbEntity
  8
0
  6
Continuous
 62
               4
100
AcDbLine
 10
2241.4506920967215
 20
1625.6128348759667
 30
0.0
 11
2241.4506920967215
 21
1600.6128348759667
 31
0.0
  0
LINE
  5
237
100
AcDbEntity
  8
0
  6
Continuous
 62
               4
100
AcDbLine
 10
2241.4506920967215
 20
1600.6128348759667
 30
0.0
 11
2242.4506920967215
 21
1600.6128348759667
 31
0.0
  0
LINE
  5
238
100
AcDbEntity
  8
0
  6
Continuous
 62
               4
100
AcDbLine
 10
2244.4506920967215
 20
1602.6128348759667
 30
0.0
 11
2244.4506920967215
 21
1618.6128348759667
 31
0.0
  0
LINE
  5
239
100
AcDbEntity
  8
0
  6
DASHDOT
 62
               7
100
AcDbLine
 10
2232.4512720967214
 20
1482.7703148759665
 30
0.0
 11
2190.4512720967214
 21
1482.7703148759665
 31
0.0
  0
LINE
  5
23A
100
AcDbEntity
  8
0
  6
DASHDOT
 62
               7
100
AcDbLine
 10
2232.4512720967214
 20
1527.7703148759665
 30
0.0
 11
2190.4512720967214
 21
1527.7703148759665
 31
0.0
  0
LINE
  5
23B
100
AcDbEntity
  8
0
  6
DASHDOT
 62
               7
100
AcDbLine
 10
2211.4512720967214
 20
1506.7703148759665
 30
0.0
 11
2211.4512720967214
 21
1548.7703148759665
 31
0.0
  0
LINE
  5
23C
100
AcDbEntity
  8
0
  6
DASHDOT
 62
               7
100
AcDbLine
 10
2211.4512720967214
 20
1461.7703148759665
 30
0.0
 11
2211.4512720967214
 21
1503.7703148759665
 31
0.0
  0
LINE
  5
23D
100
AcDbEntity
  8
0
  6
Continuous
 62
               7
100
AcDbLine
 10
2074.4512720967214
 20
1623.6128348759667
 30
0.0
 11
2074.4512720967214
 21
1835.6133148759664
 31
0.0
  0
LINE
  5
23E
100
AcDbEntity
  8
0
  6
Continuous
 62
               7
100
AcDbLine
 10
2082.4512720967214
 20
1623.6128348759667
 30
0.0
 11
2074.4512720967214
 21
1623.6128348759667
 31
0.0
  0
LINE
  5
23F
100
AcDbEntity
  8
0
  6
Continuous
 62
               7
100
AcDbLine
 10
2082.4512720967214
 20
1623.6128348759667
 30
0.0
 11
2082.4512720967214
 21
1835.6133148759664
 31
0.0
  0
LINE
  5
240
100
AcDbEntity
  8
0
  6
Continuous
 62
               7
100
AcDbLine
 10
2295.8895620967214
 20
1465.5203148759665
 30
0.0
 11
2305.8895620967214
 21
1475.5203148759665
 31
0.0
  0
LINE
  5
241
100
AcDbEntity
  8
0
  6
Continuous
 62
               7
100
AcDbLine
 10
2293.7682420967212
 20
1465.5203148759665
 30
0.0
 11
2303.7682420967212
 21
1475.5203148759665
 31
0.0
  0
LINE
  5
242
100
AcDbEntity
  8
0
  6
Continuous
 62
               7
100
AcDbLine
 10
2296.6512720967216
 20
1509.5703148759662
 30
0.0
 11
2296.6512720967216
 21
1501.5703148759667
 31
0.0
  0
LINE
  5
243
100
AcDbEntity
  8
0
  6
Continuous
 62
               7
100
AcDbLine
 10
2283.4512720967214
 20
1509.5496748759665
 30
0.0
 11
2283.4512720967214
 21
1501.549674875967
 31
0.0
  0
LINE
  5
244
100
AcDbEntity
  8
0
  6
Continuous
 62
               7
100
AcDbLine
 10
2295.6512720967216
 20
1510.3616048759663
 30
0.0
 11
2295.6512720967216
 21
1500.7790248759666
 31
0.0
  0
LINE
  5
245
100
AcDbEntity
  8
0
  6
DASHED
 62
               7
100
AcDbLine
 10
2271.4512720967214
 20
1498.5203148759665
 30
0.0
 11
2281.4512720967214
 21
1498.5203148759665
 31
0.0
  0
LINE
  5
246
100
AcDbEntity
  8
0
  6
DASHED
 62
               7
100
AcDbLine
 10
2271.4512720967214
 20
1512.5203148759665
 30
0.0
 11
2281.4512720967214
 21
1512.5203148759665
 31
0.0
  0
LINE
  5
247
100
AcDbEntity
  8
0
  6
Continuous
 62
               7
100
AcDbLine
 10
2271.4512720967214
 20
1519.1432048759666
 30
0.0
 11
2281.4512720967214
 21
1529.1432048759666
 31
0.0
  0
LINE
  5
248
100
AcDbEntity
  8
0
  6
Continuous
 62
               7
100
AcDbLine
 10
2282.4512720967214
 20
1510.3409648759662
 30
0.0
 11
2282.4512720967214
 21
1500.7583948759666
 31
0.0
  0
LINE
  5
249
100
AcDbEntity
  8
0
  6
Continuous
 62
               7
100
AcDbLine
 10
2284.6512720967216
 20
1496.0963848759666
 30
0.0
 11
2281.4512720967214
 21
1492.8963848759668
 31
0.0
  0
LINE
  5
24A
100
AcDbEntity
  8
0
  6
Continuous
 62
               7
100
AcDbLine
 10
2284.6512720967216
 20
1493.9750648759668
 30
0.0
 11
2281.4512720967214
 21
1490.7750648759666
 31
0.0
  0
LINE
  5
24B
100
AcDbEntity
  8
0
  6
Continuous
 62
               7
100
AcDbLine
 10
2284.6512720967216
 20
1522.1355948759665
 30
0.0
 11
2281.4512720967214
 21
1518.9355948759667
 31
0.0
  0
LINE
  5
24C
100
AcDbEntity
  8
0
  6
Continuous
 62
               7
100
AcDbLine
 10
2284.6512720967216
 20
1520.0142748759663
 30
0.0
 11
2281.4512720967214
 21
1516.8142748759665
 31
0.0
  0
LINE
  5
24D
100
AcDbEntity
  8
0
  6
Continuous
 62
               7
100
AcDbLine
 10
2312.8611620967213
 20
1468.5203148759665
 30
0.0
 11
2390.1526720967213
 21
1468.5203148759665
 31
0.0
  0
LINE
  5
24E
100
AcDbEntity
  8
0
  6
DASHED
 62
               7
100
AcDbLine
 10
2318.9512720967214
 20
1473.8536448759669
 30
0.0
 11
2383.9512720967214
 21
1473.8536448759669
 31
0.0
  0
LINE
  5
24F
100
AcDbEntity
  8
0
  6
DASHED
 62
               7
100
AcDbLine
 10
2318.9512720967214
 20
1472.1869848759666
 30
0.0
 11
2383.9512720967214
 21
1472.1869848759666
 31
0.0
  0
LINE
  5
250
100
AcDbEntity
  8
0
  6
DASHED
 62
               7
100
AcDbLine
 10
2318.9512720967214
 20
1470.5203148759665
 30
0.0
 11
2383.9512720967214
 21
1470.5203148759665
 31
0.0
  0
LINE
  5
251
100
AcDbEntity
  8
0
  6
Continuous
 62
               7
100
AcDbLine
 10
2311.7988220967213
 20
1467.0203148759665
 30
0.0
 11
2391.2149720967213
 21
1467.0203148759665
 31
0.0
  0
LINE
  5
252
100
AcDbEntity
  8
0
  6
Continuous
 62
               7
100
AcDbLine
 10
2385.2841720967212
 20
1469.1037748759668
 30
0.0
 11
2391.4185720967216
 21
1475.2381748759667
 31
0.0
  0
LINE
  5
253
100
AcDbEntity
  8
0
  6
Continuous
 62
               7
100
AcDbLine
 10
2383.9512720967214
 20
1469.8921548759668
 30
0.0
 11
2389.5793720967213
 21
1475.5203148759665
 31
0.0
  0
LINE
  5
254
100
AcDbEntity
  8
0
  6
Continuous
 62
               7
100
AcDbLine
 10
2367.0664720967216
 20
1478.7203148759668
 30
0.0
 11
2363.8665520967215
 21
1475.5203148759665
 31
0.0
  0
LINE
  5
255
100
AcDbEntity
  8
0
  6
Continuous
 62
               7
100
AcDbLine
 10
2364.9451720967213
 20
1478.7203148759668
 30
0.0
 11
2361.7452320967213
 21
1475.5203148759665
 31
0.0
  0
LINE
  5
256
100
AcDbEntity
  8
0
  6
Continuous
 62
               7
100
AcDbLine
 10
2343.0273420967214
 20
1478.7203148759668
 30
0.0
 11
2339.8273420967216
 21
1475.5203148759665
 31
0.0
  0
LINE
  5
257
100
AcDbEntity
  8
0
  6
Continuous
 62
               7
100
AcDbLine
 10
2340.9060220967212
 20
1478.7203148759668
 30
0.0
 11
2337.7060220967214
 21
1475.5203148759665
 31
0.0
  0
LINE
  5
258
100
AcDbEntity
  8
0
  6
Continuous
 62
               7
100
AcDbLine
 10
2347.4664420967215
 20
1490.7203148759668
 30
0.0
 11
2355.4664420967215
 21
1490.7203148759668
 31
0.0
  0
LINE
  5
259
100
AcDbEntity
  8
0
  6
Continuous
 62
               7
100
AcDbLine
 10
2346.6751520967214
 20
1489.7203148759668
 30
0.0
 11
2356.2577320967216
 21
1489.7203148759668
 31
0.0
  0
LINE
  5
25A
100
AcDbEntity
  8
0
  6
Continuous
 62
               7
100
AcDbLine
 10
2264.4512720967214
 20
1519.0142748759663
 30
0.0
 11
2261.2512720967216
 21
1515.8142748759665
 31
0.0
  0
LINE
  5
25B
100
AcDbEntity
  8
0
  6
Continuous
 62
               7
100
AcDbLine
 10
2264.4512720967214
 20
1521.1355948759665
 30
0.0
 11
2261.2512720967216
 21
1517.9355948759667
 31
0.0
  0
LINE
  5
25C
100
AcDbEntity
  8
0
  6
Continuous
 62
               7
100
AcDbLine
 10
2264.4512720967214
 20
1494.9750648759668
 30
0.0
 11
2261.2512720967216
 21
1491.7750648759666
 31
0.0
  0
LINE
  5
25D
100
AcDbEntity
  8
0
  6
Continuous
 62
               7
100
AcDbLine
 10
2264.4512720967214
 20
1497.0963848759666
 30
0.0
 11
2261.2512720967216
 21
1493.8963848759668
 31
0.0
  0
LINE
  5
25E
100
AcDbEntity
  8
0
  6
Continuous
 62
               7
100
AcDbLine
 10
2271.4512720967214
 20
1521.2645248759663
 30
0.0
 11
2281.4512720967214
 21
1531.2645248759663
 31
0.0
  0
LINE
  5
25F
100
AcDbEntity
  8
0
  6
Continuous
 62
               7
100
AcDbLine
 10
2257.4506920967215
 20
1628.6128348759667
 30
0.0
 11
2257.4506920967215
 21
1634.6128348759667
 31
0.0
  0
LINE
  5
260
100
AcDbEntity
  8
0
  6
Continuous
 62
               7
100
AcDbLine
 10
2257.4506920967215
 20
1634.6128348759667
 30
0.0
 11
2756.0370621375878
 21
1634.6128348759667
 31
0.0
  0
LINE
  5
261
100
AcDbEntity
  8
0
  6
Continuous
 62
               7
100
AcDbLine
 10
2753.5517219709291
 20
1628.6128348759667
 30
0.0
 11
2257.4506920967215
 21
1628.6128348759667
 31
0.0
  0
LINE
  5
262
100
AcDbEntity
  8
0
  6
Continuous
 62
               7
100
AcDbLine
 10
2291.4512720967214
 20
1348.3040748759663
 30
0.0
 11
2299.2350320967216
 21
1340.5203148759665
 31
0.0
  0
LINE
  5
263
100
AcDbEntity
  8
0
  6
Continuous
 62
               7
100
AcDbLine
 10
2327.7116920967214
 20
1349.5203148759665
 30
0.0
 11
2336.7116920967214
 21
1340.5203148759665
 31
0.0
  0
LINE
  5
264
100
AcDbEntity
  8
0
  6
Continuous
 62
               7
100
AcDbLine
 10
2364.9260720967213
 20
1349.7825748759665
 30
0.0
 11
2374.1882720967214
 21
1340.5203148759665
 31
0.0
  0
LINE
  5
265
100
AcDbEntity
  8
0
  6
Continuous
 62
               7
100
AcDbLine
 10
2350.7012720967214
 20
1364.0073948759664
 30
0.0
 11
2357.4635320967213
 21
1357.2451348759664
 31
0.0
  0
LINE
  5
266
100
AcDbEntity
  8
0
  6
Continuous
 62
               7
100
AcDbLine
 10
2350.7012720967214
 20
1401.4840548759662
 30
0.0
 11
2357.2012720967214
 21
1394.9840548759664
 31
0.0
  0
LINE
  5
267
100
AcDbEntity
  8
0
  6
Continuous
 62
               7
100
AcDbLine
 10
2402.6649720967216
 20
1349.5203148759665
 30
0.0
 11
2411.6649720967216
 21
1340.5203148759665
 31
0.0
  0
LINE
  5
268
100
AcDbEntity
  8
0
  6
Continuous
 62
               7
100
AcDbLine
 10
2291.4512720967214
 20
1460.7340548759666
 30
0.0
 11
2295.6650120967215
 21
1456.5203148759665
 31
0.0
  0
LINE
  5
269
100
AcDbEntity
  8
0
  6
Continuous
 62
               7
100
AcDbLine
 10
2350.7012720967214
 20
1438.9607148759669
 30
0.0
 11
2357.2012720967214
 21
1432.4607148759669
 31
0.0
  0
LINE
  5
26A
100
AcDbEntity
  8
0
  6
Continuous
 62
               7
100
AcDbLine
 10
2324.1416720967213
 20
1465.5203148759665
 30
0.0
 11
2333.1416720967213
 21
1456.5203148759665
 31
0.0
  0
LINE
  5
26B
100
AcDbEntity
  8
0
  6
Continuous
 62
               7
100
AcDbLine
 10
2361.6183320967216
 20
1465.5203148759665
 30
0.0
 11
2370.6182720967213
 21
1456.5203148759665
 31
0.0
  0
LINE
  5
26C
100
AcDbEntity
  8
0
  6
Continuous
 62
               7
100
AcDbLine
 10
2399.0949720967214
 20
1465.5203148759665
 30
0.0
 11
2408.0949720967214
 21
1456.5203148759665
 31
0.0
  0
LINE
  5
26D
100
AcDbEntity
  8
0
  6
Continuous
 62
               7
100
AcDbLine
 10
2292.3580320967212
 20
1349.5203148759665
 30
0.0
 11
2301.3580320967212
 21
1340.5203148759665
 31
0.0
  0
LINE
  5
26E
100
AcDbEntity
  8
0
  6
Continuous
 62
               7
100
AcDbLine
 10
2329.8346920967215
 20
1349.5203148759665
 30
0.0
 11
2338.8346920967215
 21
1340.5203148759665
 31
0.0
  0
LINE
  5
26F
100
AcDbEntity
  8
0
  6
Continuous
 62
               7
100
AcDbLine
 10
2367.3112720967215
 20
1349.5203148759665
 30
0.0
 11
2376.3112720967215
 21
1340.5203148759665
 31
0.0
  0
LINE
  5
270
100
AcDbEntity
  8
0
  6
Continuous
 62
               7
100
AcDbLine
 10
2350.7012720967214
 20
1366.1303948759664
 30
0.0
 11
2357.2012720967214
 21
1359.6303948759664
 31
0.0
  0
LINE
  5
271
100
AcDbEntity
  8
0
  6
Continuous
 62
               7
100
AcDbLine
 10
2350.7012720967214
 20
1403.6070548759662
 30
0.0
 11
2357.2012720967214
 21
1397.1070548759665
 31
0.0
  0
LINE
  5
272
100
AcDbEntity
  8
0
  6
Continuous
 62
               7
100
AcDbLine
 10
2404.7879720967217
 20
1349.5203148759665
 30
0.0
 11
2413.7879720967217
 21
1340.5203148759665
 31
0.0
  0
LINE
  5
273
100
AcDbEntity
  8
0
  6
Continuous
 62
               7
100
AcDbLine
 10
2291.4512720967214
 20
1462.8570548759667
 30
0.0
 11
2297.7880120967216
 21
1456.5203148759665
 31
0.0
  0
LINE
  5
274
100
AcDbEntity
  8
0
  6
Continuous
 62
               7
100
AcDbLine
 10
2350.7012720967214
 20
1441.0837148759665
 30
0.0
 11
2357.2012720967214
 21
1434.5837148759665
 31
0.0
  0
LINE
  5
275
100
AcDbEntity
  8
0
  6
Continuous
 62
               7
100
AcDbLine
 10
2326.2646720967214
 20
1465.5203148759665
 30
0.0
 11
2335.2646720967214
 21
1456.5203148759665
 31
0.0
  0
LINE
  5
276
100
AcDbEntity
  8
0
  6
Continuous
 62
               7
100
AcDbLine
 10
2363.7413320967216
 20
1465.5203148759665
 30
0.0
 11
2372.7412720967213
 21
1456.5203148759665
 31
0.0
  0
LINE
  5
277
100
AcDbEntity
  8
0
  6
Continuous
 62
               7
100
AcDbLine
 10
2401.2179720967215
 20
1465.5203148759665
 30
0.0
 11
2410.2179720967215
 21
1456.5203148759665
 31
0.0
  0
LINE
  5
278
100
AcDbEntity
  8
0
  6
Continuous
 62
               7
100
AcDbLine
 10
2091.4347820967214
 20
1629.6128448759664
 30
0.0
 11
2093.4512720967214
 21
1631.6293248759666
 31
0.0
  0
LINE
  5
279
100
AcDbEntity
  8
0
  6
Continuous
 62
               7
100
AcDbLine
 10
2088.6063620967216
 20
1629.6128448759664
 30
0.0
 11
2093.4512720967214
 21
1634.4577548759667
 31
0.0
  0
LINE
  5
27A
100
AcDbEntity
  8
0
  6
Continuous
 62
               7
100
AcDbLine
 10
2085.7779420967213
 20
1629.6128548759666
 30
0.0
 11
2093.4512720967214
 21
1637.2861748759665
 31
0.0
  0
LINE
  5
27B
100
AcDbEntity
  8
0
  6
Continuous
 62
               7
100
AcDbLine
 10
2083.4512620967216
 20
1630.1146048759665
 30
0.0
 11
2091.1370720967216
 21
1637.8004048759667
 31
0.0
  0
LINE
  5
27C
100
AcDbEntity
  8
0
  6
Continuous
 62
               7
100
AcDbLine
 10
2083.4512620967216
 20
1632.9430348759665
 30
0.0
 11
2088.5208020967216
 21
1638.0125748759665
 31
0.0
  0
LINE
  5
27D
100
AcDbEntity
  8
0
  6
Continuous
 62
               7
100
AcDbLine
 10
2083.4512620967216
 20
1635.7714548759668
 30
0.0
 11
2085.9045420967213
 21
1638.2247348759665
 31
0.0
  0
LINE
  5
27E
100
AcDbEntity
  8
0
  6
Continuous
 62
               7
100
AcDbLine
 10
2083.4512620967216
 20
1638.5998848759668
 30
0.0
 11
2083.7077520967214
 21
1638.8563748759666
 31
0.0
  0
LINE
  5
27F
100
AcDbEntity
  8
0
  6
Continuous
 62
               7
100
AcDbLine
 10
2093.4512720967214
 20
1637.1903648759667
 30
0.0
 11
2092.9916220967216
 21
1637.6500148759665
 31
0.0
  0
LINE
  5
280
100
AcDbEntity
  8
0
  6
Continuous
 62
               7
100
AcDbLine
 10
2093.4512720967214
 20
1634.3619348759667
 30
0.0
 11
2089.9135820967213
 21
1637.8996248759668
 31
0.0
  0
LINE
  5
281
100
AcDbEntity
  8
0
  6
Continuous
 62
               7
100
AcDbLine
 10
2093.4512720967214
 20
1631.5335048759666
 30
0.0
 11
2086.8355420967214
 21
1638.1492348759666
 31
0.0
  0
LINE
  5
282
100
AcDbEntity
  8
0
  6
Continuous
 62
               7
100
AcDbLine
 10
2092.5435120967213
 20
1629.6128348759667
 30
0.0
 11
2083.4512620967216
 21
1638.7050848759668
 31
0.0
  0
LINE
  5
283
100
AcDbEntity
  8
0
  6
Continuous
 62
               7
100
AcDbLine
 10
2089.7150720967215
 20
1629.6128448759664
 30
0.0
 11
2083.4512620967216
 21
1635.8766548759668
 31
0.0
  0
LINE
  5
284
100
AcDbEntity
  8
0
  6
Continuous
 62
               7
100
AcDbLine
 10
2086.8866420967215
 20
1629.6128548759666
 30
0.0
 11
2083.4512620967216
 21
1633.0482248759668
 31
0.0
  0
LINE
  5
285
100
AcDbEntity
  8
0
  6
Continuous
 62
               7
100
AcDbLine
 10
2084.0582020967213
 20
1629.6128648759668
 30
0.0
 11
2083.4512620967216
 21
1630.2198048759665
 31
0.0
  0
LINE
  5
286
100
AcDbEntity
  8
0
  6
Continuous
 62
               7
100
AcDbLine
 10
2073.4512720967214
 20
1638.5998848759668
 30
0.0
 11
2073.1947820967216
 21
1638.8563748759666
 31
0.0
  0
LINE
  5
287
100
AcDbEntity
  8
0
  6
Continuous
 62
               7
100
AcDbLine
 10
2073.4512720967214
 20
1635.7714548759668
 30
0.0
 11
2071.0325220967216
 21
1638.1902048759666
 31
0.0
  0
LINE
  5
288
100
AcDbEntity
  8
0
  6
Continuous
 62
               7
100
AcDbLine
 10
2073.4512720967214
 20
1632.9430348759665
 30
0.0
 11
2068.4693020967215
 21
1637.9250048759668
 31
0.0
  0
LINE
  5
289
100
AcDbEntity
  8
0
  6
Continuous
 62
               7
100
AcDbLine
 10
2073.4512720967214
 20
1630.1146048759665
 30
0.0
 11
2065.9060820967215
 21
1637.6597948759668
 31
0.0
  0
LINE
  5
28A
100
AcDbEntity
  8
0
  6
Continuous
 62
               7
100
AcDbLine
 10
2071.1245920967212
 20
1629.6128548759666
 30
0.0
 11
2065.4512720967214
 21
1635.2861748759665
 31
0.0
  0
LINE
  5
28B
100
AcDbEntity
  8
0
  6
Continuous
 62
               7
100
AcDbLine
 10
2068.2961720967214
 20
1629.6128448759664
 30
0.0
 11
2065.4512720967214
 21
1632.4577448759665
 31
0.0
  0
LINE
  5
28C
100
AcDbEntity
  8
0
  6
Continuous
 62
               7
100
AcDbLine
 10
2065.4677620967213
 20
1629.6128348759667
 30
0.0
 11
2065.4512720967214
 21
1629.6293248759666
 31
0.0
  0
LINE
  5
28D
100
AcDbEntity
  8
0
  6
Continuous
 62
               7
100
AcDbLine
 10
2072.8443320967212
 20
1629.6128648759668
 30
0.0
 11
2073.4512720967214
 21
1630.2198048759665
 31
0.0
  0
LINE
  5
28E
100
AcDbEntity
  8
0
  6
Continuous
 62
               7
100
AcDbLine
 10
2070.0158920967215
 20
1629.6128548759666
 30
0.0
 11
2073.4512720967214
 21
1633.0482248759668
 31
0.0
  0
LINE
  5
28F
100
AcDbEntity
  8
0
  6
Continuous
 62
               7
100
AcDbLine
 10
2067.1874520967212
 20
1629.6128448759664
 30
0.0
 11
2073.4512720967214
 21
1635.8766548759668
 31
0.0
  0
LINE
  5
290
100
AcDbEntity
  8
0
  6
Continuous
 62
               7
100
AcDbLine
 10
2065.4512720967214
 20
1630.7050848759668
 30
0.0
 11
2073.4512720967214
 21
1638.7050848759668
 31
0.0
  0
LINE
  5
291
100
AcDbEntity
  8
0
  6
Continuous
 62
               7
100
AcDbLine
 10
2065.4512720967214
 20
1633.5335148759668
 30
0.0
 11
2070.0012620967213
 21
1638.0835048759668
 31
0.0
  0
LINE
  5
292
100
AcDbEntity
  8
0
  6
Continuous
 62
               7
100
AcDbLine
 10
2065.4512720967214
 20
1636.3619348759667
 30
0.0
 11
2066.8464220967217
 21
1637.7570848759665
 31
0.0
  0
LINE
  5
293
100
AcDbEntity
  8
0
  6
DASHED
 62
               7
100
AcDbLine
 10
2266.2512720967216
 20
1527.7703148759665
 30
0.0
 11
2266.2512720967216
 21
1477.7703148759665
 31
0.0
  0
LINE
  5
294
100
AcDbEntity
  8
0
  6
DASHED
 62
               7
100
AcDbLine
 10
2269.6512720967216
 20
1527.7703148759665
 30
0.0
 11
2269.6512720967216
 21
1477.7703148759665
 31
0.0
  0
LINE
  5
295
100
AcDbEntity
  8
0
  6
DASHED
 62
               7
100
AcDbLine
 10
2267.9512720967214
 20
1527.7703148759665
 30
0.0
 11
2267.9512720967214
 21
1477.7703148759665
 31
0.0
  0
LINE
  5
296
100
AcDbEntity
  8
0
  6
Continuous
 62
               7
100
AcDbLine
 10
2257.4506920967215
 20
1631.6128348759667
 30
0.0
 11
2754.7943422327708
 21
1631.6128348759667
 31
0.0
  0
LINE
  5
297
100
AcDbEntity
  8
0
  6
Continuous
 62
               7
100
AcDbLine
 10
2257.4506920967215
 20
1633.1128348759667
 30
0.0
 11
2755.4157020991884
 21
1633.1128348759667
 31
0.0
  0
LINE
  5
298
100
AcDbEntity
  8
0
  6
Continuous
 62
               7
100
AcDbLine
 10
2257.4506920967215
 20
1630.1128348759667
 30
0.0
 11
2754.1730820967223
 21
1630.1128348759667
 31
0.0
  0
LINE
  5
299
100
AcDbEntity
  8
0
  6
Continuous
 62
               7
100
AcDbLine
 10
2291.4512720967214
 20
1465.5203148759665
 30
0.0
 11
2291.4512720967214
 21
1456.5203148759665
 31
0.0
  0
LINE
  5
29A
100
AcDbEntity
  8
0
  6
Continuous
 62
               7
100
AcDbLine
 10
2291.4512720967214
 20
1456.5203148759665
 30
0.0
 11
2340.7012720967214
 21
1456.5203148759665
 31
0.0
  0
LINE
  5
29B
100
AcDbEntity
  8
0
  6
Continuous
 62
               7
100
AcDbLine
 10
2350.7012720967214
 20
1446.5203148759665
 30
0.0
 11
2350.7012720967214
 21
1359.5203148759665
 31
0.0
  0
LINE
  5
29C
100
AcDbEntity
  8
0
  6
Continuous
 62
               7
100
AcDbLine
 10
2340.7012720967214
 20
1349.5203148759665
 30
0.0
 11
2291.4512720967214
 21
1349.5203148759665
 31
0.0
  0
LINE
  5
29D
100
AcDbEntity
  8
0
  6
Continuous
 62
               7
100
AcDbLine
 10
2291.4512720967214
 20
1349.5203148759665
 30
0.0
 11
2291.4512720967214
 21
1340.5203148759665
 31
0.0
  0
LINE
  5
29E
100
AcDbEntity
  8
0
  6
Continuous
 62
               7
100
AcDbLine
 10
2291.4512720967214
 20
1340.5203148759665
 30
0.0
 11
2416.4512720967214
 21
1340.5203148759665
 31
0.0
  0
LINE
  5
29F
100
AcDbEntity
  8
0
  6
Continuous
 62
               7
100
AcDbLine
 10
2416.4512720967214
 20
1340.5203148759665
 30
0.0
 11
2416.4512720967214
 21
1349.5203148759665
 31
0.0
  0
LINE
  5
2A0
100
AcDbEntity
  8
0
  6
Continuous
 62
               7
100
AcDbLine
 10
2416.4512720967214
 20
1349.5203148759665
 30
0.0
 11
2367.2012720967214
 21
1349.5203148759665
 31
0.0
  0
LINE
  5
2A1
100
AcDbEntity
  8
0
  6
Continuous
 62
               7
100
AcDbLine
 10
2357.2012720967214
 20
1359.5203148759665
 30
0.0
 11
2357.2012720967214
 21
1446.5203148759665
 31
0.0
  0
LINE
  5
2A2
100
AcDbEntity
  8
0
  6
Continuous
 62
               7
100
AcDbLine
 10
2367.2012720967214
 20
1456.5203148759665
 30
0.0
 11
2416.4512720967214
 21
1456.5203148759665
 31
0.0
  0
LINE
  5
2A3
100
AcDbEntity
  8
0
  6
Continuous
 62
               7
100
AcDbLine
 10
2416.4512720967214
 20
1456.5203148759665
 30
0.0
 11
2416.4512720967214
 21
1465.5203148759665
 31
0.0
  0
LINE
  5
2A4
100
AcDbEntity
  8
0
  6
Continuous
 62
               7
100
AcDbLine
 10
2416.4512720967214
 20
1465.5203148759665
 30
0.0
 11
2291.4512720967214
 21
1465.5203148759665
 31
0.0
  0
LINE
  5
2A5
100
AcDbEntity
  8
0
  6
Continuous
 62
               4
100
AcDbLine
 10
2086.9512720967214
 20
1622.6128348759667
 30
0.0
 11
2095.9512720967214
 21
1613.6128348759667
 31
0.0
  0
LINE
  5
2A6
100
AcDbEntity
  8
0
  6
Continuous
 62
               4
100
AcDbLine
 10
2075.9512720967214
 20
1602.6128348759667
 30
0.0
 11
2095.9512720967214
 21
1602.6128348759667
 31
0.0
  0
LINE
  5
2A7
100
AcDbEntity
  8
0
  6
Continuous
 62
               4
100
AcDbLine
 10
2075.9512720967214
 20
1622.6128348759667
 30
0.0
 11
2095.9512720967214
 21
1602.6128348759667
 31
0.0
  0
LINE
  5
2A8
100
AcDbEntity
  8
0
  6
Continuous
 62
               4
100
AcDbLine
 10
2075.9512720967214
 20
1622.6128348759667
 30
0.0
 11
2075.9512720967214
 21
1602.6128348759667
 31
0.0
  0
LINE
  5
2A9
100
AcDbEntity
  8
0
  6
Continuous
 62
               4
100
AcDbLine
 10
2086.9512720967214
 20
1622.6128348759667
 30
0.0
 11
2075.9512720967214
 21
1602.6128348759667
 31
0.0
  0
LINE
  5
2AA
100
AcDbEntity
  8
0
  6
Continuous
 62
               4
100
AcDbLine
 10
2086.9512720967214
 20
1622.6128348759667
 30
0.0
 11
2075.9512720967214
 21
1622.6128348759667
 31
0.0
  0
LINE
  5
2AB
100
AcDbEntity
  8
0
  6
Continuous
 62
               4
100
AcDbLine
 10
2095.9512720967214
 20
1602.6128348759667
 30
0.0
 11
2095.9512720967214
 21
1613.6128348759667
 31
0.0
  0
LINE
  5
2AC
100
AcDbEntity
  8
0
  6
Continuous
 62
               4
100
AcDbLine
 10
2089.4512720967214
 20
1527.6128348759662
 30
0.0
 11
2085.4512720967214
 21
1527.6128348759662
 31
0.0
  0
LINE
  5
2AD
100
AcDbEntity
  8
0
  6
Continuous
 62
               4
100
AcDbLine
 10
2084.4512720967214
 20
1528.6128348759662
 30
0.0
 11
2084.4512720967214
 21
1551.6128348759662
 31
0.0
  0
LINE
  5
2AE
100
AcDbEntity
  8
0
  6
Continuous
 62
               4
100
AcDbLine
 10
2090.4512720967214
 20
1551.6128348759662
 30
0.0
 11
2090.4512720967214
 21
1528.6128348759662
 31
0.0
  0
LINE
  5
2AF
100
AcDbEntity
  8
0
  6
Continuous
 62
               4
100
AcDbLine
 10
2085.4512720967214
 20
1527.6128348759662
 30
0.0
 11
2072.4512720967214
 21
1527.6128348759662
 31
0.0
  0
LINE
  5
2B0
100
AcDbEntity
  8
0
  6
Continuous
 62
               4
100
AcDbLine
 10
2072.4512720967214
 20
1527.6128348759662
 30
0.0
 11
2073.2012720967214
 21
1528.3628348759662
 31
0.0
  0
LINE
  5
2B1
100
AcDbEntity
  8
0
  6
Continuous
 62
               4
100
AcDbLine
 10
2073.2012720967214
 20
1528.3628348759662
 30
0.0
 11
2073.2012720967214
 21
1551.8628348759662
 31
0.0
  0
LINE
  5
2B2
100
AcDbEntity
  8
0
  6
Continuous
 62
               4
100
AcDbLine
 10
2073.2012720967214
 20
1551.8628348759662
 30
0.0
 11
2072.4512720967214
 21
1552.6128348759662
 31
0.0
  0
LINE
  5
2B3
100
AcDbEntity
  8
0
  6
Continuous
 62
               4
100
AcDbLine
 10
2072.4512720967214
 20
1552.6128348759662
 30
0.0
 11
2085.4512720967214
 21
1552.6128348759662
 31
0.0
  0
LINE
  5
2B4
100
AcDbEntity
  8
0
  6
Continuous
 62
               7
100
AcDbLine
 10
2074.6656320967213
 20
1552.6128348759662
 30
0.0
 11
2073.2012720967214
 21
1551.1484748759663
 31
0.0
  0
LINE
  5
2B5
100
AcDbEntity
  8
0
  6
Continuous
 62
               7
100
AcDbLine
 10
2077.4940620967213
 20
1552.6128348759662
 30
0.0
 11
2073.2012720967214
 21
1548.3200448759662
 31
0.0
  0
LINE
  5
2B6
100
AcDbEntity
  8
0
  6
Continuous
 62
               7
100
AcDbLine
 10
2080.3224820967216
 20
1552.6128348759662
 30
0.0
 11
2073.2012720967214
 21
1545.4916148759662
 31
0.0
  0
LINE
  5
2B7
100
AcDbEntity
  8
0
  6
Continuous
 62
               7
100
AcDbLine
 10
2083.1509120967216
 20
1552.6128348759662
 30
0.0
 11
2073.2012720967214
 21
1542.6631948759664
 31
0.0
  0
LINE
  5
2B8
100
AcDbEntity
  8
0
  6
Continuous
 62
               7
100
AcDbLine
 10
2084.4512720967214
 20
1551.0847648759664
 30
0.0
 11
2073.2012720967214
 21
1539.8347648759664
 31
0.0
  0
LINE
  5
2B9
100
AcDbEntity
  8
0
  6
Continuous
 62
               7
100
AcDbLine
 10
2084.4512720967214
 20
1548.2563348759663
 30
0.0
 11
2073.2012720967214
 21
1537.0063348759663
 31
0.0
  0
LINE
  5
2BA
100
AcDbEntity
  8
0
  6
Continuous
 62
               7
100
AcDbLine
 10
2084.4512720967214
 20
1545.4279148759665
 30
0.0
 11
2073.2012720967214
 21
1534.1779148759665
 31
0.0
  0
LINE
  5
2BB
100
AcDbEntity
  8
0
  6
Continuous
 62
               7
100
AcDbLine
 10
2084.4512720967214
 20
1542.5994848759665
 30
0.0
 11
2073.2012720967214
 21
1531.3494848759665
 31
0.0
  0
LINE
  5
2BC
100
AcDbEntity
  8
0
  6
Continuous
 62
               7
100
AcDbLine
 10
2084.4512720967214
 20
1539.7710548759665
 30
0.0
 11
2073.2012720967214
 21
1528.5210548759665
 31
0.0
  0
LINE
  5
2BD
100
AcDbEntity
  8
0
  6
Continuous
 62
               7
100
AcDbLine
 10
2084.4512720967214
 20
1536.9426248759664
 30
0.0
 11
2075.1214720967214
 21
1527.6128348759662
 31
0.0
  0
LINE
  5
2BE
100
AcDbEntity
  8
0
  6
Continuous
 62
               7
100
AcDbLine
 10
2084.4512720967214
 20
1534.1142048759666
 30
0.0
 11
2077.9499020967214
 21
1527.6128348759662
 31
0.0
  0
LINE
  5
2BF
100
AcDbEntity
  8
0
  6
Continuous
 62
               7
100
AcDbLine
 10
2084.4512720967214
 20
1531.2857748759666
 30
0.0
 11
2080.7783320967214
 21
1527.6128348759662
 31
0.0
  0
LINE
  5
2C0
100
AcDbEntity
  8
0
  6
Continuous
 62
               7
100
AcDbLine
 10
2084.4512720967214
 20
1528.4573448759666
 30
0.0
 11
2083.6067520967213
 21
1527.6128348759662
 31
0.0
  0
LINE
  5
2C1
100
AcDbEntity
  8
0
  6
Continuous
 62
               7
100
AcDbLine
 10
2084.4512720967214
 20
1549.9440648759664
 30
0.0
 11
2081.7824920967214
 21
1552.6128348759662
 31
0.0
  0
LINE
  5
2C2
100
AcDbEntity
  8
0
  6
Continuous
 62
               7
100
AcDbLine
 10
2084.4512720967214
 20
1547.1156348759664
 30
0.0
 11
2078.9540720967216
 21
1552.6128348759662
 31
0.0
  0
LINE
  5
2C3
100
AcDbEntity
  8
0
  6
Continuous
 62
               7
100
AcDbLine
 10
2084.4512720967214
 20
1544.2872048759664
 30
0.0
 11
2076.1256420967215
 21
1552.6128348759662
 31
0.0
  0
LINE
  5
2C4
100
AcDbEntity
  8
0
  6
Continuous
 62
               7
100
AcDbLine
 10
2084.4512720967214
 20
1541.4587848759666
 30
0.0
 11
2073.2972120967215
 21
1552.6128348759662
 31
0.0
  0
LINE
  5
2C5
100
AcDbEntity
  8
0
  6
Continuous
 62
               7
100
AcDbLine
 10
2084.4512720967214
 20
1538.6303548759665
 30
0.0
 11
2073.2012720967214
 21
1549.8803548759665
 31
0.0
  0
LINE
  5
2C6
100
AcDbEntity
  8
0
  6
Continuous
 62
               7
100
AcDbLine
 10
2084.4512720967214
 20
1535.8019248759665
 30
0.0
 11
2073.2012720967214
 21
1547.0519248759665
 31
0.0
  0
LINE
  5
2C7
100
AcDbEntity
  8
0
  6
Continuous
 62
               7
100
AcDbLine
 10
2084.4512720967214
 20
1532.9735048759662
 30
0.0
 11
2073.2012720967214
 21
1544.2235048759662
 31
0.0
  0
LINE
  5
2C8
100
AcDbEntity
  8
0
  6
Continuous
 62
               7
100
AcDbLine
 10
2084.4512720967214
 20
1530.1450748759662
 30
0.0
 11
2073.2012720967214
 21
1541.3950748759662
 31
0.0
  0
LINE
  5
2C9
100
AcDbEntity
  8
0
  6
Continuous
 62
               7
100
AcDbLine
 10
2084.1550820967213
 20
1527.6128348759662
 30
0.0
 11
2073.2012720967214
 21
1538.5666448759662
 31
0.0
  0
LINE
  5
2CA
100
AcDbEntity
  8
0
  6
Continuous
 62
               7
100
AcDbLine
 10
2081.3266520967213
 20
1527.6128348759662
 30
0.0
 11
2073.2012720967214
 21
1535.7382148759666
 31
0.0
  0
LINE
  5
2CB
100
AcDbEntity
  8
0
  6
Continuous
 62
               7
100
AcDbLine
 10
2078.4982220967213
 20
1527.6128348759662
 30
0.0
 11
2073.2012720967214
 21
1532.9097948759663
 31
0.0
  0
LINE
  5
2CC
100
AcDbEntity
  8
0
  6
Continuous
 62
               7
100
AcDbLine
 10
2075.6697920967213
 20
1527.6128348759662
 30
0.0
 11
2073.2012720967214
 21
1530.0813648759663
 31
0.0
  0
LINE
  5
2CD
100
AcDbEntity
  8
0
  6
Continuous
 62
               7
100
AcDbLine
 10
2087.6596120967215
 20
1552.4878348759662
 30
0.0
 11
2087.6596120967215
 21
1552.6128348759662
 31
0.0
  0
LINE
  5
2CE
100
AcDbEntity
  8
0
  6
Continuous
 62
               7
100
AcDbLine
 10
2087.6596120967215
 20
1549.4578348759665
 30
0.0
 11
2087.6596120967215
 21
1549.6578348759663
 31
0.0
  0
LINE
  5
2CF
100
AcDbEntity
  8
0
  6
Continuous
 62
               7
100
AcDbLine
 10
2087.6596120967215
 20
1546.4278348759663
 30
0.0
 11
2087.6596120967215
 21
1546.6278348759665
 31
0.0
  0
LINE
  5
2D0
100
AcDbEntity
  8
0
  6
Continuous
 62
               7
100
AcDbLine
 10
2087.6596120967215
 20
1543.3978348759665
 30
0.0
 11
2087.6596120967215
 21
1543.5978348759663
 31
0.0
  0
LINE
  5
2D1
100
AcDbEntity
  8
0
  6
Continuous
 62
               7
100
AcDbLine
 10
2087.6596120967215
 20
1540.3678348759663
 30
0.0
 11
2087.6596120967215
 21
1540.5678348759666
 31
0.0
  0
LINE
  5
2D2
100
AcDbEntity
  8
0
  6
Continuous
 62
               7
100
AcDbLine
 10
2087.6596120967215
 20
1537.3378348759666
 30
0.0
 11
2087.6596120967215
 21
1537.5378348759664
 31
0.0
  0
LINE
  5
2D3
100
AcDbEntity
  8
0
  6
Continuous
 62
               7
100
AcDbLine
 10
2087.6596120967215
 20
1534.3078348759664
 30
0.0
 11
2087.6596120967215
 21
1534.5078348759662
 31
0.0
  0
LINE
  5
2D4
100
AcDbEntity
  8
0
  6
Continuous
 62
               7
100
AcDbLine
 10
2087.6596120967215
 20
1531.2778348759662
 30
0.0
 11
2087.6596120967215
 21
1531.4778348759664
 31
0.0
  0
LINE
  5
2D5
100
AcDbEntity
  8
0
  6
Continuous
 62
               7
100
AcDbLine
 10
2087.6596120967215
 20
1528.2478348759664
 30
0.0
 11
2087.6596120967215
 21
1528.4478348759662
 31
0.0
  0
LINE
  5
2D6
100
AcDbEntity
  8
0
  6
Continuous
 62
               7
100
AcDbLine
 10
2084.8296120967216
 20
1549.4578348759665
 30
0.0
 11
2084.8296120967216
 21
1549.6578348759663
 31
0.0
  0
LINE
  5
2D7
100
AcDbEntity
  8
0
  6
Continuous
 62
               7
100
AcDbLine
 10
2084.8296120967216
 20
1546.4278348759663
 30
0.0
 11
2084.8296120967216
 21
1546.6278348759665
 31
0.0
  0
LINE
  5
2D8
100
AcDbEntity
  8
0
  6
Continuous
 62
               7
100
AcDbLine
 10
2084.8296120967216
 20
1543.3978348759665
 30
0.0
 11
2084.8296120967216
 21
1543.5978348759663
 31
0.0
  0
LINE
  5
2D9
100
AcDbEntity
  8
0
  6
Continuous
 62
               7
100
AcDbLine
 10
2084.8296120967216
 20
1540.3678348759663
 30
0.0
 11
2084.8296120967216
 21
1540.5678348759666
 31
0.0
  0
LINE
  5
2DA
100
AcDbEntity
  8
0
  6
Continuous
 62
               7
100
AcDbLine
 10
2084.8296120967216
 20
1537.3378348759666
 30
0.0
 11
2084.8296120967216
 21
1537.5378348759664
 31
0.0
  0
LINE
  5
2DB
100
AcDbEntity
  8
0
  6
Continuous
 62
               7
100
AcDbLine
 10
2084.8296120967216
 20
1534.3078348759664
 30
0.0
 11
2084.8296120967216
 21
1534.5078348759662
 31
0.0
  0
LINE
  5
2DC
100
AcDbEntity
  8
0
  6
Continuous
 62
               7
100
AcDbLine
 10
2084.8296120967216
 20
1531.2778348759662
 30
0.0
 11
2084.8296120967216
 21
1531.4778348759664
 31
0.0
  0
LINE
  5
2DD
100
AcDbEntity
  8
0
  6
Continuous
 62
               7
100
AcDbLine
 10
2084.8296120967216
 20
1528.2478348759664
 30
0.0
 11
2084.8296120967216
 21
1528.4478348759662
 31
0.0
  0
LINE
  5
2DE
100
AcDbEntity
  8
0
  6
Continuous
 62
               7
100
AcDbLine
 10
2089.0746120967215
 20
1551.0728348759662
 30
0.0
 11
2089.0746120967215
 21
1551.2728348759665
 31
0.0
  0
LINE
  5
2DF
100
AcDbEntity
  8
0
  6
Continuous
 62
               7
100
AcDbLine
 10
2089.0746120967215
 20
1548.0428348759665
 30
0.0
 11
2089.0746120967215
 21
1548.2428348759663
 31
0.0
  0
LINE
  5
2E0
100
AcDbEntity
  8
0
  6
Continuous
 62
               7
100
AcDbLine
 10
2089.0746120967215
 20
1545.0128348759663
 30
0.0
 11
2089.0746120967215
 21
1545.2128348759666
 31
0.0
  0
LINE
  5
2E1
100
AcDbEntity
  8
0
  6
Continuous
 62
               7
100
AcDbLine
 10
2089.0746120967215
 20
1541.9828348759665
 30
0.0
 11
2089.0746120967215
 21
1542.1828348759664
 31
0.0
  0
LINE
  5
2E2
100
AcDbEntity
  8
0
  6
Continuous
 62
               7
100
AcDbLine
 10
2089.0746120967215
 20
1538.9528348759663
 30
0.0
 11
2089.0746120967215
 21
1539.1528348759662
 31
0.0
  0
LINE
  5
2E3
100
AcDbEntity
  8
0
  6
Continuous
 62
               7
100
AcDbLine
 10
2089.0746120967215
 20
1535.9228348759666
 30
0.0
 11
2089.0746120967215
 21
1536.1228348759664
 31
0.0
  0
LINE
  5
2E4
100
AcDbEntity
  8
0
  6
Continuous
 62
               7
100
AcDbLine
 10
2089.0746120967215
 20
1532.8928348759664
 30
0.0
 11
2089.0746120967215
 21
1533.0928348759662
 31
0.0
  0
LINE
  5
2E5
100
AcDbEntity
  8
0
  6
Continuous
 62
               7
100
AcDbLine
 10
2089.0746120967215
 20
1529.8628348759662
 30
0.0
 11
2089.0746120967215
 21
1530.0628348759665
 31
0.0
  0
LINE
  5
2E6
100
AcDbEntity
  8
0
  6
Continuous
 62
               7
100
AcDbLine
 10
2086.2446120967215
 20
1551.0728348759662
 30
0.0
 11
2086.2446120967215
 21
1551.2728348759665
 31
0.0
  0
LINE
  5
2E7
100
AcDbEntity
  8
0
  6
Continuous
 62
               7
100
AcDbLine
 10
2086.2446120967215
 20
1548.0428348759665
 30
0.0
 11
2086.2446120967215
 21
1548.2428348759663
 31
0.0
  0
LINE
  5
2E8
100
AcDbEntity
  8
0
  6
Continuous
 62
               7
100
AcDbLine
 10
2086.2446120967215
 20
1545.0128348759663
 30
0.0
 11
2086.2446120967215
 21
1545.2128348759666
 31
0.0
  0
LINE
  5
2E9
100
AcDbEntity
  8
0
  6
Continuous
 62
               7
100
AcDbLine
 10
2086.2446120967215
 20
1541.9828348759665
 30
0.0
 11
2086.2446120967215
 21
1542.1828348759664
 31
0.0
  0
LINE
  5
2EA
100
AcDbEntity
  8
0
  6
Continuous
 62
               7
100
AcDbLine
 10
2086.2446120967215
 20
1538.9528348759663
 30
0.0
 11
2086.2446120967215
 21
1539.1528348759662
 31
0.0
  0
LINE
  5
2EB
100
AcDbEntity
  8
0
  6
Continuous
 62
               7
100
AcDbLine
 10
2086.2446120967215
 20
1535.9228348759666
 30
0.0
 11
2086.2446120967215
 21
1536.1228348759664
 31
0.0
  0
LINE
  5
2EC
100
AcDbEntity
  8
0
  6
Continuous
 62
               7
100
AcDbLine
 10
2086.2446120967215
 20
1532.8928348759664
 30
0.0
 11
2086.2446120967215
 21
1533.0928348759662
 31
0.0
  0
LINE
  5
2ED
100
AcDbEntity
  8
0
  6
Continuous
 62
               7
100
AcDbLine
 10
2086.2446120967215
 20
1529.8628348759662
 30
0.0
 11
2086.2446120967215
 21
1530.0628348759665
 31
0.0
  0
LINE
  5
2EE
100
AcDbEntity
  8
0
  6
Continuous
 62
               7
100
AcDbLine
 10
2091.7257688128025
 20
1532.35116625521
 30
0.0
 11
2091.7257688128025
 21
1541.3511662552096
 31
0.0
  0
LINE
  5
2EF
100
AcDbEntity
  8
0
  6
Continuous
 62
               7
100
AcDbLine
 10
2117.7257688128025
 20
1534.8511662552096
 30
0.0
 11
2093.7257688128029
 21
1534.8511662552114
 31
0.0
  0
LINE
  5
2F0
100
AcDbEntity
  8
0
  6
Continuous
 62
               7
100
AcDbLine
 10
2117.725768812802
 20
1538.8511662552096
 30
0.0
 11
2093.7257688128025
 21
1538.8511662552096
 31
0.0
  0
LINE
  5
2F1
100
AcDbEntity
  8
0
  6
Continuous
 62
               7
100
AcDbLine
 10
2093.7257688128029
 20
1534.8511662552114
 30
0.0
 11
2093.7257688128025
 21
1538.8511662552096
 31
0.0
  0
LINE
  5
2F2
100
AcDbEntity
  8
0
  6
Continuous
 62
               7
100
AcDbLine
 10
2091.7257688128025
 20
1532.35116625521
 30
0.0
 11
2093.7257688128029
 21
1534.8511662552114
 31
0.0
  0
LINE
  5
2F3
100
AcDbEntity
  8
0
  6
Continuous
 62
               7
100
AcDbLine
 10
2093.7257688128025
 20
1538.8511662552096
 30
0.0
 11
2091.7257688128025
 21
1541.3511662552096
 31
0.0
  0
LINE
  5
2F4
100
AcDbEntity
  8
0
  6
DOT
 62
               7
100
AcDbLine
 10
2091.7257688128025
 20
1534.8511662552091
 30
0.0
 11
2093.725768812802
 21
1535.8511662552096
 31
0.0
  0
LINE
  5
2F5
100
AcDbEntity
  8
0
  6
DOT
 62
               7
100
AcDbLine
 10
2093.7257688128025
 20
1537.8511662552096
 30
0.0
 11
2091.7257688128025
 21
1538.851166255211
 31
0.0
  0
LINE
  5
2F6
100
AcDbEntity
  8
0
  6
Continuous
 62
               7
100
AcDbLine
 10
2121.7257688128025
 20
1536.8511662552119
 30
0.0
 11
2117.725768812802
 21
1538.8511662552096
 31
0.0
  0
LINE
  5
2F7
100
AcDbEntity
  8
0
  6
Continuous
 62
               7
100
AcDbLine
 10
2121.7257688128025
 20
1536.8511662552119
 30
0.0
 11
2117.7257688128025
 21
1534.8511662552096
 31
0.0
  0
LINE
  5
2F8
100
AcDbEntity
  8
0
  6
Continuous
 62
               4
100
AcDbLine
 10
2959.1697720967227
 20
1421.5806148759666
 30
0.0
 11
2753.1375224340677
 21
1627.6128348759667
 31
0.0
  0
LINE
  5
2F9
100
AcDbEntity
  8
0
  6
Continuous
 62
               4
100
AcDbLine
 10
2756.4512720967223
 20
1635.6128348759667
 30
0.0
 11
2959.1697720967227
 21
1432.8943148759668
 31
0.0
  0
LINE
  5
2FA
100
AcDbEntity
  8
0
  6
Continuous
 62
               4
100
AcDbLine
 10
2959.1697720967227
 20
1169.5387148759664
 30
0.0
 11
2800.4683720967228
 21
894.65984487596643
 31
0.0
  0
LINE
  5
2FB
100
AcDbEntity
  8
0
  6
Continuous
 62
               4
100
AcDbLine
 10
2791.2307720967228
 20
894.65984487596643
 30
0.0
 11
2959.1697720967227
 21
1185.5387148759664
 31
0.0
  0
LINE
  5
2FC
100
AcDbEntity
  8
0
  6
Continuous
 62
               7
100
AcDbLine
 10
2959.1697779560977
 20
1422.9947596335651
 30
0.0
 11
2753.5517219709291
 21
1628.6128348759667
 31
0.0
  0
LINE
  5
2FD
100
AcDbEntity
  8
0
  6
Continuous
 62
               7
100
AcDbLine
 10
2756.0370621375878
 20
1634.6128348759667
 30
0.0
 11
2959.1697720967227
 21
1431.4801048759668
 31
0.0
  0
LINE
  5
2FE
100
AcDbEntity
  8
0
  6
Continuous
 62
               7
100
AcDbLine
 10
2959.1697720967227
 20
1171.5387148759664
 30
0.0
 11
2799.3136720967227
 21
894.65984487596643
 31
0.0
  0
LINE
  5
2FF
100
AcDbEntity
  8
0
  6
Continuous
 62
               7
100
AcDbLine
 10
2792.3854720967224
 20
894.65984487596643
 30
0.0
 11
2959.1697720967227
 21
1183.5387148759664
 31
0.0
  0
LINE
  5
300
100
AcDbEntity
  8
0
  6
Continuous
 62
               7
100
AcDbLine
 10
2754.1730820967223
 20
1630.1128348759667
 30
0.0
 11
2959.1697720967227
 21
1425.1161448759667
 31
0.0
  0
LINE
  5
301
100
AcDbEntity
  8
0
  6
Continuous
 62
               7
100
AcDbLine
 10
2755.4157020991884
 20
1633.1128348759667
 30
0.0
 11
2959.1697720967227
 21
1429.3587848759666
 31
0.0
  0
LINE
  5
302
100
AcDbEntity
  8
0
  6
Continuous
 62
               7
100
AcDbLine
 10
2754.7943422327708
 20
1631.6128348759667
 30
0.0
 11
2959.1697720967227
 21
1427.2374648759665
 31
0.0
  0
LINE
  5
303
100
AcDbEntity
  8
0
  6
Continuous
 62
               7
100
AcDbLine
 10
2795.8495720967226
 20
894.65984487596643
 30
0.0
 11
2959.1697720967227
 21
1177.5387148759664
 31
0.0
  0
LINE
  5
304
100
AcDbEntity
  8
0
  6
Continuous
 62
               7
100
AcDbLine
 10
2794.1174720967224
 20
894.65984487596643
 30
0.0
 11
2959.1697720967227
 21
1180.5387148759664
 31
0.0
  0
LINE
  5
305
100
AcDbEntity
  8
0
  6
Continuous
 62
               7
100
AcDbLine
 10
2797.5815720967225
 20
894.65984487596643
 30
0.0
 11
2959.1697720967227
 21
1174.5387148759664
 31
0.0
  0
LINE
  5
306
100
AcDbEntity
  8
0
  6
Continuous
 62
               7
100
AcDbLine
 10
2052.9495737419452
 20
1414.7200453710525
 30
0.0
 11
2061.9013361075899
 21
1415.6506100109445
 31
0.0
  0
LINE
  5
307
100
AcDbEntity
  8
0
  6
Continuous
 62
               7
100
AcDbLine
 10
2058.1244722476445
 20
1389.1178887147141
 30
0.0
 11
2055.6429665412684
 21
1412.9892550231011
 31
0.0
  0
LINE
  5
308
100
AcDbEntity
  8
0
  6
Continuous
 62
               7
100
AcDbLine
 10
2062.1030332990426
 20
1389.5314729991105
 30
0.0
 11
2059.6215275926643
 21
1413.4028393074977
 31
0.0
  0
LINE
  5
309
100
AcDbEntity
  8
0
  6
Continuous
 62
               7
100
AcDbLine
 10
2055.6429665412684
 20
1412.9892550231011
 30
0.0
 11
2059.6215275926643
 21
1413.4028393074977
 31
0.0
  0
LINE
  5
30A
100
AcDbEntity
  8
0
  6
Continuous
 62
               7
100
AcDbLine
 10
2052.9495737419452
 20
1414.7200453710525
 30
0.0
 11
2055.6429665412684
 21
1412.9892550231011
 31
0.0
  0
LINE
  5
30B
100
AcDbEntity
  8
0
  6
Continuous
 62
               7
100
AcDbLine
 10
2059.6215275926643
 20
1413.4028393074977
 30
0.0
 11
2061.9013361075899
 21
1415.6506100109445
 31
0.0
  0
LINE
  5
30C
100
AcDbEntity
  8
0
  6
DOT
 62
               7
100
AcDbLine
 10
2055.436174399068
 20
1414.9785355488002
 30
0.0
 11
2056.6376068041159
 21
1413.0926510942008
 31
0.0
  0
LINE
  5
30D
100
AcDbEntity
  8
0
  6
DOT
 62
               7
100
AcDbLine
 10
2058.626887329815
 20
1413.2994432363985
 30
0.0
 11
2059.4147354504676
 21
1415.3921198331968
 31
0.0
  0
LINE
  5
30E
100
AcDbEntity
  8
0
  6
Continuous
 62
               7
100
AcDbLine
 10
2060.5273370577424
 20
1385.3461198055143
 30
0.0
 11
2062.1030332990426
 21
1389.5314729991105
 31
0.0
  0
LINE
  5
30F
100
AcDbEntity
  8
0
  6
Continuous
 62
               7
100
AcDbLine
 10
2060.5273370577424
 20
1385.3461198055143
 30
0.0
 11
2058.1244722476445
 21
1389.1178887147141
 31
0.0
  0
CIRCLE
  5
310
100
AcDbEntity
  8
0
  6
Continuous
 62
               4
100
AcDbCircle
 10
1233.8107695709969
 20
1327.286474830059
 30
0.0
 40
1.5
  0
CIRCLE
  5
311
100
AcDbEntity
  8
0
  6
Continuous
 62
               4
100
AcDbCircle
 10
1236.3956653467633
 20
1302.4204676348991
 30
0.0
 40
1.5
  0
CIRCLE
  5
312
100
AcDbEntity
  8
0
  6
Continuous
 62
               4
100
AcDbCircle
 10
1236.4473631201495
 20
1301.9231488582411
 30
0.0
 40
1.5
  0
CIRCLE
  5
313
100
AcDbEntity
  8
0
  6
Continuous
 62
               4
100
AcDbCircle
 10
1237.4813214693565
 20
1291.9767456059626
 30
0.0
 40
1.5
  0
CIRCLE
  5
314
100
AcDbEntity
  8
0
  6
Continuous
 62
               4
100
AcDbCircle
 10
1237.5330389015376
 20
1291.4792377169458
 30
0.0
 40
1.5
  0
CIRCLE
  5
315
100
AcDbEntity
  8
0
  6
Continuous
 62
               4
100
AcDbCircle
 10
1243.2198096082175
 20
1236.7740218876529
 30
0.0
 40
1.5
  0
CIRCLE
  5
316
100
AcDbEntity
  8
0
  6
Continuous
 62
               4
100
AcDbCircle
 10
1603.6425997518645
 20
1397.3996571994358
 30
0.0
 40
1.5
  0
CIRCLE
  5
317
100
AcDbEntity
  8
0
  6
Continuous
 62
               4
100
AcDbCircle
 10
1620.3433632841934
 20
1368.4730862362485
 30
0.0
 40
1.5
  0
CIRCLE
  5
318
100
AcDbEntity
  8
0
  6
Continuous
 62
               4
100
AcDbCircle
 10
1627.7359111490559
 20
1355.6688177369219
 30
0.0
 40
1.5
  0
CIRCLE
  5
319
100
AcDbEntity
  8
0
  6
Continuous
 62
               4
100
AcDbCircle
 10
1635.1284587296864
 20
1342.8645497298996
 30
0.0
 40
1.5
  0
CIRCLE
  5
31A
100
AcDbEntity
  8
0
  6
Continuous
 62
               4
100
AcDbCircle
 10
1670.722383427765
 20
1281.2140637120465
 30
0.0
 40
1.5
  0
CIRCLE
  5
31B
100
AcDbEntity
  8
0
  6
Continuous
 62
               4
100
AcDbCircle
 10
2676.4512720967214
 20
1808.6133148759664
 30
0.0
 40
1.5
  0
CIRCLE
  5
31C
100
AcDbEntity
  8
0
  6
Continuous
 62
               4
100
AcDbCircle
 10
2061.4512720967209
 20
1808.6133148759664
 30
0.0
 40
1.5
  0
CIRCLE
  5
31D
100
AcDbEntity
  8
0
  6
Continuous
 62
               4
100
AcDbCircle
 10
2676.4512720967214
 20
1900.6133148759664
 30
0.0
 40
15.0
  0
CIRCLE
  5
31E
100
AcDbEntity
  8
0
  6
Continuous
 62
               4
100
AcDbCircle
 10
1941.4635437624161
 20
1491.3327219262997
 30
0.0
 40
1.5
  0
CIRCLE
  5
31F
100
AcDbEntity
  8
0
  6
Continuous
 62
               4
100
AcDbCircle
 10
2090.6595867664964
 20
1506.8420981847025
 30
0.0
 40
1.5
  0
CIRCLE
  5
320
100
AcDbEntity
  8
0
  6
Continuous
 62
               4
100
AcDbCircle
 10
2043.4512720967214
 20
1527.6133148759654
 30
0.0
 40
1.5
  0
CIRCLE
  5
321
100
AcDbEntity
  8
0
  6
Continuous
 62
               4
100
AcDbCircle
 10
2043.4512720967214
 20
1547.6133148759654
 30
0.0
 40
1.5
  0
CIRCLE
  5
322
100
AcDbEntity
  8
0
  6
Continuous
 62
               4
100
AcDbCircle
 10
2043.4512720967214
 20
1527.6133148759654
 30
0.0
 40
1.5
  0
CIRCLE
  5
323
100
AcDbEntity
  8
0
  6
Continuous
 62
               4
100
AcDbCircle
 10
2043.4512720967214
 20
1487.6133148759654
 30
0.0
 40
1.5
  0
CIRCLE
  5
324
100
AcDbEntity
  8
0
  6
Continuous
 62
               4
100
AcDbCircle
 10
1233.3973864554603
 20
1331.263098184852
 30
0.0
 40
1.5
  0
CIRCLE
  5
325
100
AcDbEntity
  8
0
  6
Continuous
 62
               4
100
AcDbCircle
 10
1227.7105735024434
 20
1385.9687204126283
 30
0.0
 40
1.5
  0
CIRCLE
  5
326
100
AcDbEntity
  8
0
  6
Continuous
 62
               4
100
AcDbCircle
 10
2211.4512720967214
 20
1527.7703148759665
 30
0.0
 40
20.0
  0
CIRCLE
  5
327
100
AcDbEntity
  8
0
  6
Continuous
 62
               4
100
AcDbCircle
 10
2211.4512720967214
 20
1527.7703148759665
 30
0.0
 40
9.5
  0
CIRCLE
  5
328
100
AcDbEntity
  8
0
  6
Continuous
 62
               4
100
AcDbCircle
 10
2211.4512720967214
 20
1482.7703148759665
 30
0.0
 40
9.5
  0
CIRCLE
  5
329
100
AcDbEntity
  8
0
  6
Continuous
 62
               4
100
AcDbCircle
 10
2211.4512720967214
 20
1482.7703148759665
 30
0.0
 40
20.0
  0
ARC
  5
32A
100
AcDbEntity
  8
0
  6
Continuous
 62
               7
100
AcDbCircle
 10
2094.4522720967211
 20
1418.3603148759667
 30
0.0
 40
1.6000000000000001
100
AcDbArc
 50
275.93475999999993
 51
0.0
  0
ARC
  5
32B
100
AcDbEntity
  8
0
  6
Continuous
 62
               6
100
AcDbCircle
 10
1941.1912128992544
 20
1277.6092200761859
 30
0.0
 40
1.1500001
100
AcDbArc
 50
185.93475138381169
 51
275.93475138381183
  0
ARC
  5
32C
100
AcDbEntity
  8
0
  6
Continuous
 62
               6
100
AcDbCircle
 10
1941.1912128992544
 20
1277.6092200761859
 30
0.0
 40
3.4499998999999999
100
AcDbArc
 50
185.93475138381169
 51
275.93475138381183
  0
ARC
  5
32D
100
AcDbEntity
  8
0
  6
Continuous
 62
               6
100
AcDbCircle
 10
2008.9282057793771
 20
1284.6506829610271
 30
0.0
 40
1.1500001
100
AcDbArc
 50
275.93475138381183
 51
5.9347513838116503
  0
ARC
  5
32E
100
AcDbEntity
  8
0
  6
Continuous
 62
               6
100
AcDbCircle
 10
2008.9282057793771
 20
1284.6506829610271
 30
0.0
 40
3.4499998999999999
100
AcDbArc
 50
275.93475138381183
 51
5.9347513838116503
  0
ARC
  5
32F
100
AcDbEntity
  8
0
  6
Continuous
 62
               6
100
AcDbCircle
 10
1938.2857900472968
 20
1305.5586121635167
 30
0.0
 40
1.1500001
100
AcDbArc
 50
95.934751383811673
 51
185.93475138381169
  0
ARC
  5
330
100
AcDbEntity
  8
0
  6
Continuous
 62
               6
100
AcDbCircle
 10
1938.2857900472968
 20
1305.5586121635167
 30
0.0
 40
3.4499998999999999
100
AcDbArc
 50
95.934751383811673
 51
185.93475138381169
  0
ARC
  5
331
100
AcDbEntity
  8
0
  6
Continuous
 62
               6
100
AcDbCircle
 10
2006.0227829274195
 20
1312.6000750483581
 30
0.0
 40
1.1500001
100
AcDbArc
 50
5.9347513838117649
 51
95.934751383811673
  0
ARC
  5
332
100
AcDbEntity
  8
0
  6
Continuous
 62
               6
100
AcDbCircle
 10
2006.0227829274195
 20
1312.6000750483581
 30
0.0
 40
3.4499998999999999
100
AcDbArc
 50
5.9347513838117649
 51
95.934751383811673
  0
ARC
  5
333
100
AcDbEntity
  8
0
  6
Continuous
 62
               3
100
AcDbCircle
 10
1944.4103228552249
 20
1462.9854968071709
 30
0.0
 40
0.500000000000004
100
AcDbArc
 50
95.934751999730764
 51
275.93475199972761
  0
ARC
  5
334
100
AcDbEntity
  8
0
  6
Continuous
 62
               2
100
AcDbCircle
 10
1944.4103228552249
 20
1462.9854968071709
 30
0.0
 40
1.4999999999999949
100
AcDbArc
 50
95.934751999727553
 51
275.93475199972744
  0
ARC
  5
335
100
AcDbEntity
  8
0
  6
Continuous
 62
               3
100
AcDbCircle
 10
1970.5389187048586
 20
1409.9025756435271
 30
0.0
 40
0.500000000000004
100
AcDbArc
 50
185.93474218393283
 51
5.9347421839327597
  0
ARC
  5
336
100
AcDbEntity
  8
0
  6
Continuous
 62
               2
100
AcDbCircle
 10
2061.9512720967214
 20
1487.6133148759654
 30
0.0
 40
0.5
100
AcDbArc
 50
180.0
 51
0.0
  0
ARC
  5
337
100
AcDbEntity
  8
0
  6
Continuous
 62
               2
100
AcDbCircle
 10
2092.4080316913232
 20
1421.5653368026997
 30
0.0
 40
1.0
100
AcDbArc
 50
275.93475959534294
 51
5.9349906728940498
  0
ARC
  5
338
100
AcDbEntity
  8
0
  6
Continuous
 62
               6
100
AcDbCircle
 10
2660.7012720967214
 20
1319.5203148759665
 30
0.0
 40
13.0
100
AcDbArc
 50
0.0
 51
89.999999999999957
  0
ARC
  5
339
100
AcDbEntity
  8
0
  6
Continuous
 62
               6
100
AcDbCircle
 10
2660.7012720967214
 20
1063.5203148759665
 30
0.0
 40
13.0
100
AcDbArc
 50
270.0
 51
0.0
  0
ARC
  5
33A
100
AcDbEntity
  8
0
  6
Continuous
 62
               6
100
AcDbCircle
 10
2692.2012720967214
 20
1063.5203148759665
 30
0.0
 40
13.0
100
AcDbArc
 50
180.0
 51
270.0
  0
ARC
  5
33B
100
AcDbEntity
  8
0
  6
Continuous
 62
               6
100
AcDbCircle
 10
2692.2012720967214
 20
1319.5203148759665
 30
0.0
 40
13.0
100
AcDbArc
 50
89.999999999999957
 51
180.0
  0
ARC
  5
33C
100
AcDbEntity
  8
0
  6
Continuous
 62
               6
100
AcDbCircle
 10
2291.4512720967214
 20
1485.5203148759665
 30
0.0
 40
10.0
100
AcDbArc
 50
180.0
 51
270.0
  0
ARC
  5
33D
100
AcDbEntity
  8
0
  6
Continuous
 62
               6
100
AcDbCircle
 10
2389.4512720967214
 20
1468.5203148759665
 30
0.0
 40
7.0
100
AcDbArc
 50
0.0
 51
89.999999999999957
  0
ARC
  5
33E
100
AcDbEntity
  8
0
  6
Continuous
 62
               6
100
AcDbCircle
 10
2274.4512720967214
 20
1533.5203148759665
 30
0.0
 40
7.0
100
AcDbArc
 50
0.0
 51
89.999999999999957
  0
ARC
  5
33F
100
AcDbEntity
  8
0
  6
Continuous
 62
               4
100
AcDbCircle
 10
2106.4512720967214
 20
1553.6441748759667
 30
0.0
 40
5.5313395999999999
100
AcDbArc
 50
219.79411999999994
 51
320.20586999999995
  0
ARC
  5
340
100
AcDbEntity
  8
0
  6
Continuous
 62
               4
100
AcDbCircle
 10
2289.7952020967214
 20
1497.2930748759668
 30
0.0
 40
4.8560632000000004
100
AcDbArc
 50
325.61574999999999
 51
34.384246999999974
  0
ARC
  5
341
100
AcDbEntity
  8
0
  6
Continuous
 62
               4
100
AcDbCircle
 10
2289.7952020967214
 20
1513.7475548759662
 30
0.0
 40
4.8560632000000004
100
AcDbArc
 50
325.61574999999999
 51
34.384246999999974
  0
ARC
  5
342
100
AcDbEntity
  8
0
  6
Continuous
 62
               4
100
AcDbCircle
 10
2276.4997720967212
 20
1505.5203148759665
 30
0.0
 40
18.151494
100
AcDbArc
 50
342.41203999999999
 51
17.587952999999999
  0
ARC
  5
343
100
AcDbEntity
  8
0
  6
Continuous
 62
               4
100
AcDbCircle
 10
2359.6785120967215
 20
1483.8642548759667
 30
0.0
 40
4.8560632000000004
100
AcDbArc
 50
55.615751999999979
 51
124.38423999999998
  0
ARC
  5
344
100
AcDbEntity
  8
0
  6
Continuous
 62
               4
100
AcDbCircle
 10
2343.2240320967212
 20
1483.8642548759667
 30
0.0
 40
4.8560632000000004
100
AcDbArc
 50
55.615751999999979
 51
124.38423999999998
  0
ARC
  5
345
100
AcDbEntity
  8
0
  6
Continuous
 62
               4
100
AcDbCircle
 10
2351.4512720967214
 20
1470.5688148759668
 30
0.0
 40
18.151494
100
AcDbArc
 50
72.412045999999961
 51
107.58794999999999
  0
ARC
  5
346
100
AcDbEntity
  8
0
  6
Continuous
 62
               4
100
AcDbCircle
 10
2271.4027620967213
 20
1505.5203148759665
 30
0.0
 40
18.151494
100
AcDbArc
 50
162.41203999999996
 51
197.58794999999995
  0
ARC
  5
347
100
AcDbEntity
  8
0
  6
Continuous
 62
               4
100
AcDbCircle
 10
2258.1073320967216
 20
1513.7475548759662
 30
0.0
 40
4.8560632000000004
100
AcDbArc
 50
145.61574999999993
 51
214.38424000000003
  0
ARC
  5
348
100
AcDbEntity
  8
0
  6
Continuous
 62
               4
100
AcDbCircle
 10
2258.1073320967216
 20
1497.2930748759668
 30
0.0
 40
4.8560632000000004
100
AcDbArc
 50
145.61574999999993
 51
214.38424000000003
  0
ARC
  5
349
100
AcDbEntity
  8
0
  6
Continuous
 62
               7
100
AcDbCircle
 10
2161.1512720967216
 20
1630.6324548759667
 30
0.0
 40
0.3
100
AcDbArc
 50
300.0
 51
0.0
  0
ARC
  5
34A
100
AcDbEntity
  8
0
  6
Continuous
 62
               7
100
AcDbCircle
 10
2161.4512720967214
 20
1630.1128348759667
 30
0.0
 40
0.3
100
AcDbArc
 50
119.99999999999997
 51
240.00000000000003
  0
ARC
  5
34B
100
AcDbEntity
  8
0
  6
Continuous
 62
               7
100
AcDbCircle
 10
2161.1512720967216
 20
1629.5932248759668
 30
0.0
 40
0.3
100
AcDbArc
 50
0.0
 51
59.999999999999957
  0
ARC
  5
34C
100
AcDbEntity
  8
0
  6
Continuous
 62
               7
100
AcDbCircle
 10
2158.4512720967214
 20
1634.6128348759667
 30
0.0
 40
0.5
100
AcDbArc
 50
0.0
 51
89.999999999999957
  0
ARC
  5
34D
100
AcDbEntity
  8
0
  6
Continuous
 62
               7
100
AcDbCircle
 10
2158.4512720967214
 20
1585.6128348759667
 30
0.0
 40
0.5
100
AcDbArc
 50
270.0
 51
0.0
  0
ARC
  5
34E
100
AcDbEntity
  8
0
  6
Continuous
 62
               7
100
AcDbCircle
 10
2161.1512720967216
 20
1590.6324548759667
 30
0.0
 40
0.3
100
AcDbArc
 50
300.0
 51
0.0
  0
ARC
  5
34F
100
AcDbEntity
  8
0
  6
Continuous
 62
               7
100
AcDbCircle
 10
2161.4512720967214
 20
1590.1128348759667
 30
0.0
 40
0.3
100
AcDbArc
 50
119.99999999999997
 51
240.00000000000003
  0
ARC
  5
350
100
AcDbEntity
  8
0
  6
Continuous
 62
               7
100
AcDbCircle
 10
2161.1512720967216
 20
1589.5932248759664
 30
0.0
 40
0.3
100
AcDbArc
 50
0.0
 51
59.999999999999957
  0
ARC
  5
351
100
AcDbEntity
  8
0
  6
Continuous
 62
               7
100
AcDbCircle
 10
2160.9512720967214
 20
1583.1128348759667
 30
0.0
 40
0.5
100
AcDbArc
 50
270.0
 51
0.0
  0
ARC
  5
352
100
AcDbEntity
  8
0
  6
Continuous
 62
               7
100
AcDbCircle
 10
2098.8335720967216
 20
1599.6128348759667
 30
0.0
 40
0.5
100
AcDbArc
 50
89.999999999999957
 51
203.91652999999999
  0
ARC
  5
353
100
AcDbEntity
  8
0
  6
Continuous
 62
               7
100
AcDbCircle
 10
2095.4512720967214
 20
1598.1128348759667
 30
0.0
 40
3.2000000000000002
100
AcDbArc
 50
6.6334859999999676
 51
23.916533999999977
  0
ARC
  5
354
100
AcDbEntity
  8
0
  6
Continuous
 62
               7
100
AcDbCircle
 10
2098.3318520967214
 20
1598.4478348759667
 30
0.0
 40
0.3
100
AcDbArc
 50
314.99998999999997
 51
6.6334859999999871
  0
ARC
  5
355
100
AcDbEntity
  8
0
  6
Continuous
 62
               7
100
AcDbCircle
 10
2097.7493620967216
 20
1598.0067648759668
 30
0.0
 40
0.4
100
AcDbArc
 50
224.99999
 51
314.99998999999997
  0
ARC
  5
356
100
AcDbEntity
  8
0
  6
Continuous
 62
               7
100
AcDbCircle
 10
2097.6512520967212
 20
1598.1048848759665
 30
0.0
 40
0.4
100
AcDbArc
 50
179.79282999999998
 51
224.99999
  0
ARC
  5
357
100
AcDbEntity
  8
0
  6
Continuous
 62
               7
100
AcDbCircle
 10
2095.4512720967214
 20
1598.1128348759667
 30
0.0
 40
1.8
100
AcDbArc
 50
359.79282999999998
 51
89.999999999999943
  0
ARC
  5
358
100
AcDbEntity
  8
0
  6
Continuous
 62
               7
100
AcDbCircle
 10
2094.1512720967216
 20
1599.4128348759668
 30
0.0
 40
0.5
100
AcDbArc
 50
89.999999999999957
 51
180.0
  0
ARC
  5
359
100
AcDbEntity
  8
0
  6
Continuous
 62
               7
100
AcDbCircle
 10
2095.4512720967214
 20
1598.1128348759667
 30
0.0
 40
1.8
100
AcDbArc
 50
180.0
 51
270.20715999999999
  0
ARC
  5
35A
100
AcDbEntity
  8
0
  6
Continuous
 62
               7
100
AcDbCircle
 10
2095.4592220967215
 20
1595.9128548759668
 30
0.0
 40
0.4
100
AcDbArc
 50
45.000008999999956
 51
90.207165999999987
  0
ARC
  5
35B
100
AcDbEntity
  8
0
  6
Continuous
 62
               7
100
AcDbCircle
 10
2095.5573320967214
 20
1595.8147348759667
 30
0.0
 40
0.4
100
AcDbArc
 50
314.99999999999994
 51
45.000008999999956
  0
ARC
  5
35C
100
AcDbEntity
  8
0
  6
Continuous
 62
               7
100
AcDbCircle
 10
2095.1162720967213
 20
1595.2322548759666
 30
0.0
 40
0.3
100
AcDbArc
 50
263.36650999999995
 51
314.99999999999994
  0
ARC
  5
35D
100
AcDbEntity
  8
0
  6
Continuous
 62
               7
100
AcDbCircle
 10
2095.4512720967214
 20
1598.1128348759667
 30
0.0
 40
3.2000000000000002
100
AcDbArc
 50
246.08346
 51
263.36650999999995
  0
ARC
  5
35E
100
AcDbEntity
  8
0
  6
Continuous
 62
               7
100
AcDbCircle
 10
2093.9512720967214
 20
1594.7305248759667
 30
0.0
 40
0.5
100
AcDbArc
 50
66.083466000000001
 51
180.0
  0
ARC
  5
35F
100
AcDbEntity
  8
0
  6
Continuous
 62
               7
100
AcDbCircle
 10
2110.9512720967214
 20
1603.1128348759667
 30
0.0
 40
0.5
100
AcDbArc
 50
270.0
 51
0.0
  0
ARC
  5
360
100
AcDbEntity
  8
0
  6
Continuous
 62
               7
100
AcDbCircle
 10
2095.9512720967214
 20
1635.1128348759667
 30
0.0
 40
0.5
100
AcDbArc
 50
89.999999999999957
 51
180.0
  0
ARC
  5
361
100
AcDbEntity
  8
0
  6
Continuous
 62
               7
100
AcDbCircle
 10
2094.9512720967214
 20
1624.6128348759667
 30
0.0
 40
0.5
100
AcDbArc
 50
270.0
 51
0.0
  0
ARC
  5
362
100
AcDbEntity
  8
0
  6
Continuous
 62
               7
100
AcDbCircle
 10
2135.4512720967214
 20
1639.6128348759667
 30
0.0
 40
2.0
100
AcDbArc
 50
270.0
 51
0.0
  0
ARC
  5
363
100
AcDbEntity
  8
0
  6
Continuous
 62
               7
100
AcDbCircle
 10
2088.9512720967214
 20
1588.8198748759664
 30
0.0
 40
0.5
100
AcDbArc
 50
281.70289000000002
 51
0.0
  0
ARC
  5
364
100
AcDbEntity
  8
0
  6
Continuous
 62
               7
100
AcDbCircle
 10
2089.7512720967216
 20
1592.0932248759664
 30
0.0
 40
0.3
100
AcDbArc
 50
119.99999999999997
 51
180.0
  0
ARC
  5
365
100
AcDbEntity
  8
0
  6
Continuous
 62
               7
100
AcDbCircle
 10
2089.4512720967214
 20
1592.6128348759667
 30
0.0
 40
0.3
100
AcDbArc
 50
300.0
 51
59.999999999999929
  0
ARC
  5
366
100
AcDbEntity
  8
0
  6
Continuous
 62
               7
100
AcDbCircle
 10
2089.7512720967216
 20
1593.1324548759667
 30
0.0
 40
0.3
100
AcDbArc
 50
180.0
 51
240.00000000000003
  0
ARC
  5
367
100
AcDbEntity
  8
0
  6
Continuous
 62
               7
100
AcDbCircle
 10
2089.7512720967216
 20
1594.5932248759668
 30
0.0
 40
0.3
100
AcDbArc
 50
119.99999999999997
 51
180.0
  0
ARC
  5
368
100
AcDbEntity
  8
0
  6
Continuous
 62
               7
100
AcDbCircle
 10
2089.4512720967214
 20
1595.1128348759667
 30
0.0
 40
0.3
100
AcDbArc
 50
300.0
 51
59.999999999999929
  0
ARC
  5
369
100
AcDbEntity
  8
0
  6
Continuous
 62
               7
100
AcDbCircle
 10
2089.7512720967216
 20
1595.6324548759667
 30
0.0
 40
0.3
100
AcDbArc
 50
180.0
 51
240.00000000000003
  0
ARC
  5
36A
100
AcDbEntity
  8
0
  6
Continuous
 62
               7
100
AcDbCircle
 10
2090.4512720967214
 20
1587.5987448759665
 30
0.0
 40
1.0
100
AcDbArc
 50
281.7029
 51
0.0
  0
ARC
  5
36B
100
AcDbEntity
  8
0
  6
Continuous
 62
               7
100
AcDbCircle
 10
2065.4512720967214
 20
1579.3564948759663
 30
0.0
 40
2.0
100
AcDbArc
 50
101.70289999999996
 51
180.0
  0
ARC
  5
36C
100
AcDbEntity
  8
0
  6
Continuous
 62
               7
100
AcDbCircle
 10
2063.9512720967214
 20
1555.1128348759667
 30
0.0
 40
0.5
100
AcDbArc
 50
180.0
 51
270.0
  0
ARC
  5
36D
100
AcDbEntity
  8
0
  6
Continuous
 62
               7
100
AcDbCircle
 10
2138.9512720967214
 20
1555.1128348759667
 30
0.0
 40
0.5
100
AcDbArc
 50
270.0
 51
0.0
  0
ARC
  5
36E
100
AcDbEntity
  8
0
  6
Continuous
 62
               7
100
AcDbCircle
 10
2138.9512720967214
 20
1635.1128348759667
 30
0.0
 40
0.5
100
AcDbArc
 50
0.0
 51
89.999999999999957
  0
ARC
  5
36F
100
AcDbEntity
  8
0
  6
Continuous
 62
               7
100
AcDbCircle
 10
2138.9512720967214
 20
1585.1128348759667
 30
0.0
 40
0.5
100
AcDbArc
 50
269.99999000000003
 51
0.0
  0
ARC
  5
370
100
AcDbEntity
  8
0
  6
Continuous
 62
               7
100
AcDbCircle
 10
2133.8335720967216
 20
1585.1128348759667
 30
0.0
 40
0.5
100
AcDbArc
 50
156.08345999999997
 51
269.99999000000003
  0
ARC
  5
371
100
AcDbEntity
  8
0
  6
Continuous
 62
               7
100
AcDbCircle
 10
2130.4512720967214
 20
1586.6128348759667
 30
0.0
 40
3.2000000000000002
100
AcDbArc
 50
336.08346
 51
38.36651399999996
  0
ARC
  5
372
100
AcDbEntity
  8
0
  6
Continuous
 62
               7
100
AcDbCircle
 10
2132.7250320967214
 20
1588.4128348759664
 30
0.0
 40
0.3
100
AcDbArc
 50
38.36651399999996
 51
89.999999000000003
  0
ARC
  5
373
100
AcDbEntity
  8
0
  6
Continuous
 62
               7
100
AcDbCircle
 10
2132.0012720967216
 20
1588.3128348759665
 30
0.0
 40
0.4
100
AcDbArc
 50
89.999999000000003
 51
180.0
  0
ARC
  5
374
100
AcDbEntity
  8
0
  6
Continuous
 62
               7
100
AcDbCircle
 10
2132.0012720967216
 20
1588.1740848759664
 30
0.0
 40
0.4
100
AcDbArc
 50
180.0
 51
225.20715999999996
  0
ARC
  5
375
100
AcDbEntity
  8
0
  6
Continuous
 62
               7
100
AcDbCircle
 10
2130.4512720967214
 20
1586.6128348759667
 30
0.0
 40
1.8
100
AcDbArc
 50
313.65906000000001
 51
45.207165999999923
  0
ARC
  5
376
100
AcDbEntity
  8
0
  6
Continuous
 62
               7
100
AcDbCircle
 10
2131.9010320967213
 20
1585.0935648759664
 30
0.0
 40
0.3
100
AcDbArc
 50
133.65906000000001
 51
178.61994999999999
  0
ARC
  5
377
100
AcDbEntity
  8
0
  6
Continuous
 62
               7
100
AcDbCircle
 10
2131.1012720967215
 20
1585.1128348759667
 30
0.0
 40
0.5
100
AcDbArc
 50
270.0
 51
358.61995000000002
  0
ARC
  5
378
100
AcDbEntity
  8
0
  6
Continuous
 62
               7
100
AcDbCircle
 10
2129.8012720967213
 20
1585.1128348759667
 30
0.0
 40
0.5
100
AcDbArc
 50
181.38004000000001
 51
270.0
  0
ARC
  5
379
100
AcDbEntity
  8
0
  6
Continuous
 62
               7
100
AcDbCircle
 10
2129.0015020967217
 20
1585.0935648759664
 30
0.0
 40
0.3
100
AcDbArc
 50
1.3800469999999894
 51
46.340936999999968
  0
ARC
  5
37A
100
AcDbEntity
  8
0
  6
Continuous
 62
               7
100
AcDbCircle
 10
2130.4512720967214
 20
1586.6128348759667
 30
0.0
 40
1.8
100
AcDbArc
 50
134.79282999999998
 51
226.34092999999996
  0
ARC
  5
37B
100
AcDbEntity
  8
0
  6
Continuous
 62
               7
100
AcDbCircle
 10
2128.9012720967216
 20
1588.1740848759664
 30
0.0
 40
0.4
100
AcDbArc
 50
314.79282999999998
 51
0.0
  0
ARC
  5
37C
100
AcDbEntity
  8
0
  6
Continuous
 62
               7
100
AcDbCircle
 10
2128.9012720967216
 20
1588.3128348759665
 30
0.0
 40
0.4
100
AcDbArc
 50
0.0
 51
89.999999999999957
  0
ARC
  5
37D
100
AcDbEntity
  8
0
  6
Continuous
 62
               7
100
AcDbCircle
 10
2128.1775020967216
 20
1588.4128348759664
 30
0.0
 40
0.3
100
AcDbArc
 50
89.999999999999957
 51
141.63347999999999
  0
ARC
  5
37E
100
AcDbEntity
  8
0
  6
Continuous
 62
               7
100
AcDbCircle
 10
2130.4512720967214
 20
1586.6128348759667
 30
0.0
 40
3.2000000000000002
100
AcDbArc
 50
141.63347999999999
 51
203.91652999999999
  0
ARC
  5
37F
100
AcDbEntity
  8
0
  6
Continuous
 62
               7
100
AcDbCircle
 10
2127.0689620967214
 20
1585.1128348759667
 30
0.0
 40
0.5
100
AcDbArc
 50
270.0
 51
23.916533999999974
  0
ARC
  5
380
100
AcDbEntity
  8
0
  6
Continuous
 62
               7
100
AcDbCircle
 10
2113.9512720967214
 20
1585.1128348759667
 30
0.0
 40
0.5
100
AcDbArc
 50
180.0
 51
270.0
  0
ARC
  5
381
100
AcDbEntity
  8
0
  6
Continuous
 62
               7
100
AcDbCircle
 10
2127.0689620967214
 20
1635.1128348759667
 30
0.0
 40
0.5
100
AcDbArc
 50
336.08346
 51
89.999999000000017
  0
ARC
  5
382
100
AcDbEntity
  8
0
  6
Continuous
 62
               7
100
AcDbCircle
 10
2130.4512720967214
 20
1633.6128348759667
 30
0.0
 40
3.2000000000000002
100
AcDbArc
 50
156.08345999999997
 51
218.36651000000003
  0
ARC
  5
383
100
AcDbEntity
  8
0
  6
Continuous
 62
               7
100
AcDbCircle
 10
2128.1775020967216
 20
1631.8128348759665
 30
0.0
 40
0.3
100
AcDbArc
 50
218.36651000000003
 51
269.99999000000003
  0
ARC
  5
384
100
AcDbEntity
  8
0
  6
Continuous
 62
               7
100
AcDbCircle
 10
2128.9012720967216
 20
1631.9128348759668
 30
0.0
 40
0.4
100
AcDbArc
 50
269.99999000000003
 51
0.0
  0
ARC
  5
385
100
AcDbEntity
  8
0
  6
Continuous
 62
               7
100
AcDbCircle
 10
2128.9012720967216
 20
1632.0515848759665
 30
0.0
 40
0.4
100
AcDbArc
 50
0.0
 51
45.207165999999951
  0
ARC
  5
386
100
AcDbEntity
  8
0
  6
Continuous
 62
               7
100
AcDbCircle
 10
2130.4512720967214
 20
1633.6128348759667
 30
0.0
 40
1.8
100
AcDbArc
 50
133.65906000000001
 51
225.20715999999996
  0
ARC
  5
387
100
AcDbEntity
  8
0
  6
Continuous
 62
               7
100
AcDbCircle
 10
2129.0015020967217
 20
1635.1321048759664
 30
0.0
 40
0.3
100
AcDbArc
 50
313.65906000000001
 51
358.61995000000002
  0
ARC
  5
388
100
AcDbEntity
  8
0
  6
Continuous
 62
               7
100
AcDbCircle
 10
2129.8012720967213
 20
1635.1128348759667
 30
0.0
 40
0.5
100
AcDbArc
 50
89.999999999999957
 51
178.61994999999999
  0
ARC
  5
389
100
AcDbEntity
  8
0
  6
Continuous
 62
               7
100
AcDbCircle
 10
2131.1012720967215
 20
1635.1128348759667
 30
0.0
 40
0.5
100
AcDbArc
 50
1.3800469999999894
 51
89.999999999999957
  0
ARC
  5
38A
100
AcDbEntity
  8
0
  6
Continuous
 62
               7
100
AcDbCircle
 10
2131.9010320967213
 20
1635.1321048759664
 30
0.0
 40
0.3
100
AcDbArc
 50
181.38004000000001
 51
226.34092999999996
  0
ARC
  5
38B
100
AcDbEntity
  8
0
  6
Continuous
 62
               7
100
AcDbCircle
 10
2130.4512720967214
 20
1633.6128348759667
 30
0.0
 40
1.8
100
AcDbArc
 50
314.79282999999998
 51
46.340936999999983
  0
ARC
  5
38C
100
AcDbEntity
  8
0
  6
Continuous
 62
               7
100
AcDbCircle
 10
2132.0012720967216
 20
1632.0515848759665
 30
0.0
 40
0.4
100
AcDbArc
 50
134.79282999999998
 51
179.99999
  0
ARC
  5
38D
100
AcDbEntity
  8
0
  6
Continuous
 62
               7
100
AcDbCircle
 10
2132.0012720967216
 20
1631.9128348759668
 30
0.0
 40
0.4
100
AcDbArc
 50
179.99999
 51
270.0
  0
ARC
  5
38E
100
AcDbEntity
  8
0
  6
Continuous
 62
               7
100
AcDbCircle
 10
2132.7250320967214
 20
1631.8128348759665
 30
0.0
 40
0.3
100
AcDbArc
 50
270.0
 51
321.63348000000002
  0
ARC
  5
38F
100
AcDbEntity
  8
0
  6
Continuous
 62
               7
100
AcDbCircle
 10
2130.4512720967214
 20
1633.6128348759667
 30
0.0
 40
3.2000000000000002
100
AcDbArc
 50
321.63348000000002
 51
23.916533999999974
  0
ARC
  5
390
100
AcDbEntity
  8
0
  6
Continuous
 62
               7
100
AcDbCircle
 10
2133.8335720967216
 20
1635.1128348759667
 30
0.0
 40
0.5
100
AcDbArc
 50
89.999999999999957
 51
203.91652999999999
  0
ARC
  5
391
100
AcDbEntity
  8
0
  6
Continuous
 62
               4
100
AcDbCircle
 10
2143.4512620967216
 20
1645.6128348759667
 30
0.0
 40
2.0
100
AcDbArc
 50
89.999999999999957
 51
180.0
  0
ARC
  5
392
100
AcDbEntity
  8
0
  6
Continuous
 62
               4
100
AcDbCircle
 10
2249.4506920967215
 20
1645.6128348759667
 30
0.0
 40
2.0
100
AcDbArc
 50
0.0
 51
89.999999999999957
  0
ARC
  5
393
100
AcDbEntity
  8
0
  6
Continuous
 62
               4
100
AcDbCircle
 10
2251.4606920967212
 20
1627.6228348759664
 30
0.0
 40
0.01
100
AcDbArc
 50
180.0
 51
270.0
  0
ARC
  5
394
100
AcDbEntity
  8
0
  6
Continuous
 62
               4
100
AcDbCircle
 10
2251.4506920967215
 20
1627.6128348759667
 30
0.0
 40
2.0
100
AcDbArc
 50
180.0
 51
270.0
  0
ARC
  5
395
100
AcDbEntity
  8
0
  6
Continuous
 62
               4
100
AcDbCircle
 10
2249.4406920967212
 20
1645.6028348759664
 30
0.0
 40
0.01
100
AcDbArc
 50
0.0
 51
89.999999999999957
  0
ARC
  5
396
100
AcDbEntity
  8
0
  6
Continuous
 62
               4
100
AcDbCircle
 10
2143.4612620967214
 20
1645.6028348759664
 30
0.0
 40
0.01
100
AcDbArc
 50
89.999999999999957
 51
180.0
  0
ARC
  5
397
100
AcDbEntity
  8
0
  6
Continuous
 62
               4
100
AcDbCircle
 10
2098.4612720967216
 20
1550.6028348759664
 30
0.0
 40
0.01
100
AcDbArc
 50
89.999999999999957
 51
180.0
  0
ARC
  5
398
100
AcDbEntity
  8
0
  6
Continuous
 62
               4
100
AcDbCircle
 10
2098.4512720967214
 20
1550.6128348759667
 30
0.0
 40
2.0
100
AcDbArc
 50
89.999999999999957
 51
180.0
  0
ARC
  5
399
100
AcDbEntity
  8
0
  6
Continuous
 62
               4
100
AcDbCircle
 10
2248.4506920967215
 20
1618.6128348759667
 30
0.0
 40
4.0
100
AcDbArc
 50
89.999999999999957
 51
180.0
  0
ARC
  5
39A
100
AcDbEntity
  8
0
  6
Continuous
 62
               4
100
AcDbCircle
 10
2264.4506920967215
 20
1624.6128348759667
 30
0.0
 40
2.0
100
AcDbArc
 50
270.0
 51
0.0
  0
ARC
  5
39B
100
AcDbEntity
  8
0
  6
Continuous
 62
               4
100
AcDbCircle
 10
2242.4506920967215
 20
1602.6128348759667
 30
0.0
 40
2.0
100
AcDbArc
 50
270.0
 51
0.0
  0
ARC
  5
39C
100
AcDbEntity
  8
0
  6
Continuous
 62
               7
100
AcDbCircle
 10
2294.6512720967216
 20
1505.5703148759662
 30
0.0
 40
2.5
100
AcDbArc
 50
270.0
 51
29.999999999999964
  0
ARC
  5
39D
100
AcDbEntity
  8
0
  6
Continuous
 62
               7
100
AcDbCircle
 10
2294.6512720967216
 20
1508.0703148759662
 30
0.0
 40
2.5
100
AcDbArc
 50
270.0
 51
89.999999999999943
  0
ARC
  5
39E
100
AcDbEntity
  8
0
  6
Continuous
 62
               7
100
AcDbCircle
 10
2294.6512720967216
 20
1503.0703148759667
 30
0.0
 40
2.5
100
AcDbArc
 50
270.0
 51
29.999999999999964
  0
ARC
  5
39F
100
AcDbEntity
  8
0
  6
Continuous
 62
               7
100
AcDbCircle
 10
2281.4512720967214
 20
1508.0496748759665
 30
0.0
 40
2.5
100
AcDbArc
 50
270.0
 51
89.999999999999943
  0
ARC
  5
3A0
100
AcDbEntity
  8
0
  6
Continuous
 62
               7
100
AcDbCircle
 10
2281.4512720967214
 20
1505.5496748759665
 30
0.0
 40
2.5
100
AcDbArc
 50
270.0
 51
29.999999999999964
  0
ARC
  5
3A1
100
AcDbEntity
  8
0
  6
Continuous
 62
               7
100
AcDbCircle
 10
2281.4512720967214
 20
1503.049674875967
 30
0.0
 40
2.5
100
AcDbArc
 50
270.0
 51
29.999999999999964
  0
ARC
  5
3A2
100
AcDbEntity
  8
0
  6
Continuous
 62
               7
100
AcDbCircle
 10
2315.5069220967216
 20
1465.5203148759665
 30
0.0
 40
4.0
100
AcDbArc
 50
0.0
 51
180.0
  0
ARC
  5
3A3
100
AcDbEntity
  8
0
  6
Continuous
 62
               7
100
AcDbCircle
 10
2319.5069220967216
 20
1465.5203148759665
 30
0.0
 40
4.0
100
AcDbArc
 50
0.0
 51
119.99999999999997
  0
ARC
  5
3A4
100
AcDbEntity
  8
0
  6
Continuous
 62
               7
100
AcDbCircle
 10
2323.5069220967216
 20
1465.5203148759665
 30
0.0
 40
4.0
100
AcDbArc
 50
0.0
 51
119.99999999999997
  0
ARC
  5
3A5
100
AcDbEntity
  8
0
  6
Continuous
 62
               7
100
AcDbCircle
 10
2327.5069220967216
 20
1465.5203148759665
 30
0.0
 40
4.0
100
AcDbArc
 50
0.0
 51
119.99999999999997
  0
ARC
  5
3A6
100
AcDbEntity
  8
0
  6
Continuous
 62
               7
100
AcDbCircle
 10
2331.5069220967216
 20
1465.5203148759665
 30
0.0
 40
4.0
100
AcDbArc
 50
0.0
 51
119.99999999999997
  0
ARC
  5
3A7
100
AcDbEntity
  8
0
  6
Continuous
 62
               7
100
AcDbCircle
 10
2335.5069220967216
 20
1465.5203148759665
 30
0.0
 40
4.0
100
AcDbArc
 50
0.0
 51
119.99999999999997
  0
ARC
  5
3A8
100
AcDbEntity
  8
0
  6
Continuous
 62
               7
100
AcDbCircle
 10
2339.5069220967216
 20
1465.5203148759665
 30
0.0
 40
4.0
100
AcDbArc
 50
0.0
 51
119.99999999999997
  0
ARC
  5
3A9
100
AcDbEntity
  8
0
  6
Continuous
 62
               7
100
AcDbCircle
 10
2343.5069220967216
 20
1465.5203148759665
 30
0.0
 40
4.0
100
AcDbArc
 50
0.0
 51
119.99999999999997
  0
ARC
  5
3AA
100
AcDbEntity
  8
0
  6
Continuous
 62
               7
100
AcDbCircle
 10
2347.5069220967216
 20
1465.5203148759665
 30
0.0
 40
4.0
100
AcDbArc
 50
0.0
 51
119.99999999999997
  0
ARC
  5
3AB
100
AcDbEntity
  8
0
  6
Continuous
 62
               7
100
AcDbCircle
 10
2351.5069220967216
 20
1465.5203148759665
 30
0.0
 40
4.0
100
AcDbArc
 50
0.0
 51
119.99999999999997
  0
ARC
  5
3AC
100
AcDbEntity
  8
0
  6
Continuous
 62
               7
100
AcDbCircle
 10
2355.5069220967216
 20
1465.5203148759665
 30
0.0
 40
4.0
100
AcDbArc
 50
0.0
 51
119.99999999999997
  0
ARC
  5
3AD
100
AcDbEntity
  8
0
  6
Continuous
 62
               7
100
AcDbCircle
 10
2359.5069220967216
 20
1465.5203148759665
 30
0.0
 40
4.0
100
AcDbArc
 50
0.0
 51
119.99999999999997
  0
ARC
  5
3AE
100
AcDbEntity
  8
0
  6
Continuous
 62
               7
100
AcDbCircle
 10
2363.5069220967216
 20
1465.5203148759665
 30
0.0
 40
4.0
100
AcDbArc
 50
0.0
 51
119.99999999999997
  0
ARC
  5
3AF
100
AcDbEntity
  8
0
  6
Continuous
 62
               7
100
AcDbCircle
 10
2367.5068720967215
 20
1465.5203148759665
 30
0.0
 40
4.0
100
AcDbArc
 50
0.0
 51
119.99999999999997
  0
ARC
  5
3B0
100
AcDbEntity
  8
0
  6
Continuous
 62
               7
100
AcDbCircle
 10
2371.5068720967215
 20
1465.5203148759665
 30
0.0
 40
4.0
100
AcDbArc
 50
0.0
 51
119.99999999999997
  0
ARC
  5
3B1
100
AcDbEntity
  8
0
  6
Continuous
 62
               7
100
AcDbCircle
 10
2375.5068720967215
 20
1465.5203148759665
 30
0.0
 40
4.0
100
AcDbArc
 50
0.0
 51
119.99999999999997
  0
ARC
  5
3B2
100
AcDbEntity
  8
0
  6
Continuous
 62
               7
100
AcDbCircle
 10
2379.5068720967215
 20
1465.5203148759665
 30
0.0
 40
4.0
100
AcDbArc
 50
0.0
 51
119.99999999999997
  0
ARC
  5
3B3
100
AcDbEntity
  8
0
  6
Continuous
 62
               7
100
AcDbCircle
 10
2383.5068720967215
 20
1465.5203148759665
 30
0.0
 40
4.0
100
AcDbArc
 50
0.0
 51
119.99999999999997
  0
ARC
  5
3B4
100
AcDbEntity
  8
0
  6
Continuous
 62
               7
100
AcDbCircle
 10
2387.5068720967215
 20
1465.5203148759665
 30
0.0
 40
4.0
100
AcDbArc
 50
0.0
 51
119.99999999999997
  0
ARC
  5
3B5
100
AcDbEntity
  8
0
  6
Continuous
 62
               7
100
AcDbCircle
 10
2353.9664420967215
 20
1488.7203148759668
 30
0.0
 40
2.5
100
AcDbArc
 50
0.0
 51
119.99999999999997
  0
ARC
  5
3B6
100
AcDbEntity
  8
0
  6
Continuous
 62
               7
100
AcDbCircle
 10
2348.9664420967215
 20
1488.7203148759668
 30
0.0
 40
2.5
100
AcDbArc
 50
0.0
 51
180.0
  0
ARC
  5
3B7
100
AcDbEntity
  8
0
  6
Continuous
 62
               7
100
AcDbCircle
 10
2351.4664420967215
 20
1488.7203148759668
 30
0.0
 40
2.5
100
AcDbArc
 50
0.0
 51
119.99999999999997
  0
ARC
  5
3B8
100
AcDbEntity
  8
0
  6
Continuous
 62
               7
100
AcDbCircle
 10
2340.7012720967214
 20
1446.5203148759665
 30
0.0
 40
10.0
100
AcDbArc
 50
0.0
 51
89.999999999999957
  0
ARC
  5
3B9
100
AcDbEntity
  8
0
  6
Continuous
 62
               7
100
AcDbCircle
 10
2340.7012720967214
 20
1359.5203148759665
 30
0.0
 40
10.0
100
AcDbArc
 50
270.0
 51
0.0
  0
ARC
  5
3BA
100
AcDbEntity
  8
0
  6
Continuous
 62
               7
100
AcDbCircle
 10
2367.2012720967214
 20
1359.5203148759665
 30
0.0
 40
10.0
100
AcDbArc
 50
180.0
 51
270.0
  0
ARC
  5
3BB
100
AcDbEntity
  8
0
  6
Continuous
 62
               7
100
AcDbCircle
 10
2367.2012720967214
 20
1446.5203148759665
 30
0.0
 40
10.0
100
AcDbArc
 50
89.999999999999957
 51
180.0
  0
ARC
  5
3BC
100
AcDbEntity
  8
0
  6
Continuous
 62
               4
100
AcDbCircle
 10
2089.4512720967214
 20
1528.6128348759662
 30
0.0
 40
1.0
100
AcDbArc
 50
270.0
 51
0.0
  0
ARC
  5
3BD
100
AcDbEntity
  8
0
  6
Continuous
 62
               4
100
AcDbCircle
 10
2085.4512720967214
 20
1528.6128348759662
 30
0.0
 40
1.0
100
AcDbArc
 50
179.99999
 51
270.0
  0
ARC
  5
3BE
100
AcDbEntity
  8
0
  6
Continuous
 62
               4
100
AcDbCircle
 10
2085.4512720967214
 20
1551.6128348759662
 30
0.0
 40
1.0
100
AcDbArc
 50
89.999999999999957
 51
179.99999
  0
ARC
  5
3BF
100
AcDbEntity
  8
0
  6
Continuous
 62
               4
100
AcDbCircle
 10
2089.4512720967214
 20
1551.6128348759662
 30
0.0
 40
1.0
100
AcDbArc
 50
0.0
 51
89.999999999999957
  0
TEXT
  5
3C0
100
AcDbEntity
  8
0
 62
               7
100
AcDbText
 10
2091.8561620189403
 20
1163.9908846894637
 30
0.0
 40
12.000000000000012
  1
C-75X45X15X2.3（屋根工事外）
 41
0.7695
  7
FontTableH_0
 72
               5
 11
2259.8561620189403
 21
1163.9908846894637
 31
0.0
100
AcDbText
  0
TEXT
  5
3C1
100
AcDbEntity
  8
0
 62
               7
100
AcDbText
 10
1131.7672032787059
 20
1603.4957675019637
 30
0.0
 40
12.000000000000012
  1
ハ－パ－ズストロングル－フ300：カラ－ガルバリウム鋼板 t0.4
 41
0.7695
  7
FontTableH_0
 72
               5
 11
1479.7672032787063
 21
1603.4957675019637
 31
0.0
100
AcDbText
  0
TEXT
  5
3C2
100
AcDbEntity
  8
0
 62
               7
100
AcDbText
 10
1131.7672032787059
 20
1585.4957675019637
 30
0.0
 40
12.000000000000012
  1
ゴムアスファルトル－フィング t1.0
 41
0.7695
  7
FontTableH_0
 72
               5
 11
1329.7672032787061
 21
1585.4957675019637
 31
0.0
100
AcDbText
  0
TEXT
  5
3C3
100
AcDbEntity
  8
0
 62
               7
100
AcDbText
 10
1131.7672032787059
 20
1567.4957675019637
 30
0.0
 40
12.000000000000012
  1
木毛セメント板 t25
 41
0.7695
  7
FontTableH_0
 72
               5
 11
1239.7672032787059
 21
1567.4957675019637
 31
0.0
100
AcDbText
  0
TEXT
  5
3C4
100
AcDbEntity
  8
0
 62
               7
100
AcDbText
 10
1131.7672032787059
 20
1549.4957675019637
 30
0.0
 40
12.000000000000012
  1
金属垂木（@300）：ガルバリウム鋼板 t1.0
 41
0.7695
  7
FontTableH_0
 72
               5
 11
1365.7672032787061
 21
1549.4957675019637
 31
0.0
100
AcDbText
  0
TEXT
  5
3C5
100
AcDbEntity
  8
0
 62
               7
100
AcDbText
 10
1131.7672032787059
 20
1531.4957675019637
 30
0.0
 40
12.000000000000012
  1
グラスウ－ル t50,64kg/㎡
 41
0.7695
  7
FontTableH_0
 72
               5
 11
1275.7672032787061
 21
1531.4957675019637
 31
0.0
100
AcDbText
  0
TEXT
  5
3C6
100
AcDbEntity
  8
0
 62
               7
100
AcDbText
 10
1131.7672032787059
 20
1513.4957675019637
 30
0.0
 40
12.000000000000012
  1
ハ－パ－ズストロングル－フ300C：ガルバリウム鋼板 t1.0
 41
0.7695
  7
FontTableH_0
 72
               5
 11
1449.7672032787061
 21
1513.4957675019637
 31
0.0
100
AcDbText
  0
TEXT
  5
3C7
100
AcDbEntity
  8
0
 62
               7
100
AcDbText
 10
1235.9731358958934
 20
1320.9772128144637
 30
0.0
 40
12.000000000000012
  1
25
 50
275.93395975112571
 41
0.7695
  7
FontTableH_0
 72
               5
 11
1237.2137209576154
 21
1309.0415122189966
 31
0.0
100
AcDbText
  0
TEXT
  5
3C8
100
AcDbEntity
  8
0
 62
               7
100
AcDbText
 10
1237.8343419505809
 20
1303.0737704316512
 30
0.0
 40
12.000000000000012
  1
10
 50
275.93395975112571
 41
0.7695
  7
FontTableH_0
 72
               5
 11
1239.0749270123029
 21
1291.1380698361841
 31
0.0
100
AcDbText
  0
TEXT
  5
3C9
100
AcDbEntity
  8
0
 62
               7
100
AcDbText
 10
1241.2462071849559
 20
1270.2504061738387
 30
0.0
 40
12.000000000000012
  1
55
 50
275.93395975112571
 41
0.7695
  7
FontTableH_0
 72
               5
 11
1242.4867922466779
 21
1258.3147055783716
 31
0.0
100
AcDbText
  0
TEXT
  5
3CA
100
AcDbEntity
  8
0
 62
               7
100
AcDbText
 10
1806.4449071361278
 20
1568.0283602754012
 30
0.0
 40
12.000000000000012
  1
面戸：屋根同材
 41
0.7695
  7
FontTableH_0
 72
               5
 11
1890.4449071361278
 21
1568.0283602754012
 31
0.0
100
AcDbText
  0
TEXT
  5
3CB
100
AcDbEntity
  8
0
 62
               7
100
AcDbText
 10
2359.9521092845653
 20
1810.1141757050887
 30
0.0
 40
12.000000000000012
  1
615
 41
0.7695
  7
FontTableH_0
 72
               5
 11
2377.9521092845653
 21
1810.1141757050887
 31
0.0
100
AcDbText
  0
TEXT
  5
3CC
100
AcDbEntity
  8
0
 62
               7
100
AcDbText
 10
2670.4538182689403
 20
1894.6168612519637
 30
0.0
 40
12.000000000000012
  1
Ｅ
 41
0.7695
  7
FontTableH_0
 72
               5
 11
2682.4538182689403
 21
1894.6168612519637
 31
0.0
100
AcDbText
  0
TEXT
  5
3CD
100
AcDbEntity
  8
0
 62
               7
100
AcDbText
 10
2006.9556493236278
 20
1499.6500643769637
 30
0.0
 40
12.000000000000012
  1
150
 50
5.934751796710878
 41
0.7695
  7
FontTableH_0
 72
               5
 11
2024.8591744907119
 21
1501.5111894645345
 31
0.0
100
AcDbText
  0
TEXT
  5
3CE
100
AcDbEntity
  8
0
 62
               7
100
AcDbText
 10
2041.9521092845653
 20
1531.6141757050887
 30
0.0
 40
12.000000000000012
  1
20
 50
90.000002504478189
 41
0.7695
  7
FontTableH_0
 72
               5
 11
2041.9521087600285
 21
1543.6141757050887
 31
0.0
100
AcDbText
  0
TEXT
  5
3CF
100
AcDbEntity
  8
0
 62
               7
100
AcDbText
 10
1844.9900731517528
 20
1603.4941805879012
 30
0.0
 40
12.000000000000012
  1
水切り：屋根同材
 41
0.7695
  7
FontTableH_0
 72
               5
 11
1940.9900731517528
 21
1603.4941805879012
 31
0.0
100
AcDbText
  0
TEXT
  5
3D0
100
AcDbEntity
  8
0
 62
               7
100
AcDbText
 10
1876.8825292064403
 20
1628.4890536347762
 30
0.0
 40
12.000000000000012
  1
コ－キング（屋根工事外）
 41
0.7695
  7
FontTableH_0
 72
               5
 11
2020.8825292064405
 21
1628.4890536347762
 31
0.0
100
AcDbText
  0
TEXT
  5
3D1
100
AcDbEntity
  8
0
 62
               7
100
AcDbText
 10
2166.1287450267528
 20
1316.4404696504012
 30
0.0
 40
12.000000000000012
  1
補強材：ガルバリウム鋼板 t1.2
 41
0.7695
  7
FontTableH_0
 72
               5
 11
2340.1287450267532
 21
1316.4404696504012
 31
0.0
100
AcDbText
  0
TEXT
  5
3D2
100
AcDbEntity
  8
0
 62
               7
100
AcDbText
 10
2041.9513768626903
 20
1501.6133212129012
 30
0.0
 40
12.000000000000012
  1
40
 50
90.000002504478189
 41
0.7695
  7
FontTableH_0
 72
               5
 11
2041.9513763381535
 21
1513.6133212129012
 31
0.0
100
AcDbText
  0
TEXT
  5
3D3
100
AcDbEntity
  8
0
 62
               7
100
AcDbText
 10
1231.4257115794871
 20
1364.7388705293074
 30
0.0
 40
12.000000000000012
  1
55
 50
275.93475205306942
 41
0.7695
  7
FontTableH_0
 72
               5
 11
1232.6664616912715
 21
1352.8031870901361
 31
0.0
100
AcDbText
  0
ENDSEC
  0
SECTION
  2
OBJECTS
  0
DICTIONARY
  5
19
100
AcDbDictionary
  3
ACAD_GROUP
350
1A
  3
ACAD_MLINESTYLE
350
1B
  3
DWGPROPS
350
3D4
  0
DICTIONARY
  5
1A
102
{ACAD_REACTORS
330
19
102
}
100
AcDbDictionary
  0
DICTIONARY
  5
1B
102
{ACAD_REACTORS
330
19
102
}
100
AcDbDictionary
  3
STANDARD
350
1C
  0
MLINESTYLE
  5
1C
102
{ACAD_REACTORS
330
1B
102
}
100
AcDbMlineStyle
  2
Standard
 70
               0
  3

 62
               0
 51
90.0
 52
90.0
 71
               2
 49
0.5
 62
             256
  6
ByLayer
 49
-0.5
 62
             256
  6
ByLayer
  0
XRECORD
  5
3D4
100
AcDbXrecord
  1
DWGPROPS COOKIE
  2

  3

  4

  6

  7

  0
ENDSEC
  0
EOF
