  0
SECTION
  2
HEADER
  9
$ACADVER
  1
AC1014
  9
$ACADMAINTVER
 70
               0
  9
$DWGCODEPAGE
  3
ANSI_932
  9
$INSBASE
 10
0.0
 20
0.0
 30
0.0
  9
$EXTMIN
 10
0.0
 20
0.0
 30
0.0
  9
$EXTMAX
 10
891.00000000000091
 20
630.00000000000068
 30
0.0
  9
$LIMMIN
 10
0.0
 20
0.0
  9
$LIMMAX
 10
891.00000000000091
 20
630.00000000000068
  9
$ORTHOMODE
 70
               0
  9
$REGENMODE
 70
               1
  9
$FILLMODE
 70
               1
  9
$QTEXTMODE
 70
               0
  9
$MIRRTEXT
 70
               1
  9
$DRAGMODE
 70
               2
  9
$LTSCALE
 40
3.0000000000000031
  9
$OSMODE
 70
               0
  9
$ATTMODE
 70
               1
  9
$TEXTSIZE
 40
0.2
  9
$TRACEWID
 40
0.05
  9
$TEXTSTYLE
  7
Standard
  9
$CLAYER
  8
0
  9
$CELTYPE
  6
Continuous
  9
$CECOLOR
 62
             256
  9
$CELTSCALE
 40
1.0
  9
$DELOBJ
 70
               1
  9
$DISPSILH
 70
               0
  9
$DIMSCALE
 40
1.0
  9
$DIMASZ
 40
0.18
  9
$DIMEXO
 40
0.0625
  9
$DIMDLI
 40
0.38
  9
$DIMRND
 40
0.0
  9
$DIMDLE
 40
0.0
  9
$DIMEXE
 40
0.18
  9
$DIMTP
 40
0.0
  9
$DIMTM
 40
0.0
  9
$DIMTXT
 40
0.18
  9
$DIMCEN
 40
0.09
  9
$DIMTSZ
 40
0.0
  9
$DIMTOL
 70
               0
  9
$DIMLIM
 70
               0
  9
$DIMTIH
 70
               1
  9
$DIMTOH
 70
               1
  9
$DIMSE1
 70
               0
  9
$DIMSE2
 70
               0
  9
$DIMTAD
 70
               0
  9
$DIMZIN
 70
               0
  9
$DIMBLK
  1

  9
$DIMASO
 70
               1
  9
$DIMSHO
 70
               1
  9
$DIMPOST
  1

  9
$DIMAPOST
  1

  9
$DIMALT
 70
               0
  9
$DIMALTD
 70
               2
  9
$DIMALTF
 40
25.399999999999999
  9
$DIMLFAC
 40
1.0
  9
$DIMTOFL
 70
               0
  9
$DIMTVP
 40
0.0
  9
$DIMTIX
 70
               0
  9
$DIMSOXD
 70
               0
  9
$DIMSAH
 70
               0
  9
$DIMBLK1
  1

  9
$DIMBLK2
  1

  9
$DIMSTYLE
  2
Standard
  9
$DIMCLRD
 70
               0
  9
$DIMCLRE
 70
               0
  9
$DIMCLRT
 70
               0
  9
$DIMTFAC
 40
1.0
  9
$DIMGAP
 40
0.09
  9
$DIMJUST
 70
               0
  9
$DIMSD1
 70
               0
  9
$DIMSD2
 70
               0
  9
$DIMTOLJ
 70
               1
  9
$DIMTZIN
 70
               0
  9
$DIMALTZ
 70
               0
  9
$DIMALTTZ
 70
               0
  9
$DIMFIT
 70
               3
  9
$DIMUPT
 70
               0
  9
$DIMUNIT
 70
               2
  9
$DIMDEC
 70
               4
  9
$DIMTDEC
 70
               4
  9
$DIMALTU
 70
               2
  9
$DIMALTTD
 70
               2
  9
$DIMTXSTY
  7
Standard
  9
$DIMAUNIT
 70
               0
  9
$LUNITS
 70
               2
  9
$LUPREC
 70
               4
  9
$SKETCHINC
 40
0.1
  9
$FILLETRAD
 40
0.0
  9
$AUNITS
 70
               0
  9
$AUPREC
 70
               0
  9
$MENU
  1
acad
  9
$ELEVATION
 40
0.0
  9
$PELEVATION
 40
0.0
  9
$THICKNESS
 40
0.0
  9
$LIMCHECK
 70
               0
  9
$BLIPMODE
 70
               1
  9
$CHAMFERA
 40
0.0
  9
$CHAMFERB
 40
0.0
  9
$CHAMFERC
 40
0.0
  9
$CHAMFERD
 40
0.0
  9
$SKPOLY
 70
               0
  9
$TDCREATE
 40
0.000000000
  9
$TDUPDATE
 40
0.000000000
  9
$TDINDWG
 40
0.0000000000
  9
$TDUSRTIMER
 40
0.0000000000
  9
$USRTIMER
 70
               1
  9
$ANGBASE
 50
0.0
  9
$ANGDIR
 70
               0
  9
$PDMODE
 70
               0
  9
$PDSIZE
 40
0.0
  9
$PLINEWID
 40
0.0
  9
$COORDS
 70
               0
  9
$SPLFRAME
 70
               0
  9
$SPLINETYPE
 70
               6
  9
$SPLINESEGS
 70
               8
  9
$ATTDIA
 70
               0
  9
$ATTREQ
 70
               1
  9
$HANDLING
 70
               1
  9
$HANDSEED
  5
18A
  9
$SURFTAB1
 70
               6
  9
$SURFTAB2
 70
               6
  9
$SURFTYPE
 70
               6
  9
$SURFU
 70
               6
  9
$SURFV
 70
               6
  9
$UCSNAME
  2

  9
$UCSORG
 10
0.0
 20
0.0
 30
0.0
  9
$UCSXDIR
 10
1.0
 20
0.0
 30
0.0
  9
$UCSYDIR
 10
0.0
 20
1.0
 30
0.0
  9
$PUCSNAME
  2

  9
$PUCSORG
 10
0.0
 20
0.0
 30
0.0
  9
$PUCSXDIR
 10
1.0
 20
0.0
 30
0.0
  9
$PUCSYDIR
 10
0.0
 20
1.0
 30
0.0
  9
$USERI1
 70
               0
  9
$USERI2
 70
               0
  9
$USERI3
 70
               0
  9
$USERI4
 70
               0
  9
$USERI5
 70
               0
  9
$USERR1
 40
0.0
  9
$USERR2
 40
0.0
  9
$USERR3
 40
0.0
  9
$USERR4
 40
0.0
  9
$USERR5
 40
0.0
  9
$WORLDVIEW
 70
               1
  9
$SHADEDGE
 70
               3
  9
$SHADEDIF
 70
              70
  9
$TILEMODE
 70
               1
  9
$MAXACTVP
 70
              16
  9
$PINSBASE
 10
0.0
 20
0.0
 30
0.0
  9
$PLIMCHECK
 70
               0
  9
$PEXTMIN
 10
1.0000000000000000E+20
 20
1.0000000000000000E+20
 30
1.0000000000000000E+20
  9
$PEXTMAX
 10
-1.0000000000000000E+20
 20
-1.0000000000000000E+20
 30
-1.0000000000000000E+20
  9
$PLIMMIN
 10
0.0
 20
0.0
  9
$PLIMMAX
 10
12.0
 20
9.0
  9
$UNITMODE
 70
               0
  9
$VISRETAIN
 70
               0
  9
$PLINEGEN
 70
               1
  9
$PSLTSCALE
 70
               0
  9
$TREEDEPTH
 70
            3020
  9
$PICKSTYLE
 70
               1
  9
$CMLSTYLE
  2
Standard
  9
$CMLJUST
 70
               0
  9
$CMLSCALE
 40
1.0
  9
$PROXYGRAPHICS
 70
               0
  9
$MEASUREMENT
 70
               0
  0
ENDSEC
  0
SECTION
  2
CLASSES
  0
CLASS
  1
LWPOLYLINE
  2
AcDbPolyline
  3
"AutoCAD"
 90
        0
280
               0
281
               1
  0
CLASS
  1
IMAGE
  2
AcDbRasterImage
  3
ISM
 90
      127
280
               0
281
               1
  0
CLASS
  1
OLE2FRAME
  2
AcDbOle2Frame
  3
""
 90
        0
280
               0
281
               1
  0
CLASS
  1
HATCH
  2
AcDbHatch
  3
"ACAD_SEDONA"
 90
        0
280
               0
281
               1
  0
CLASS
  1
DICTIONARYVAR
  2
AcDbDictionaryVar
  3
"AutoCAD"
 90
        0
280
               0
281
               0
  0
CLASS
  1
RASTERVARIABLES
  2
AcDbRasterVariables
  3
ISM
 90
        0
280
               0
281
               0
  0
CLASS
  1
IMAGEDEF
  2
AcDbRasterImageDef
  3
ISM
 90
        0
280
               0
281
               0
  0
CLASS
  1
IMAGEDEF_REACTOR
  2
AcDbRasterImageDefReactor
  3
ISM
 90
        1
280
               0
281
               0
  0
CLASS
  1
IDBUFFER
  2
AcDbIdBuffer
  3
"Acad"
 90
        0
280
               0
281
               0
  0
CLASS
  1
SPATIAL_FILTER
  2
AcDbSpatialFilter
  3
"Acad"
 90
        0
280
               0
281
               0
  0
CLASS
  1
XRECORD
  2
AcDbXrecord
  3
"<Built In>"
 90
        0
280
               0
281
               0
  0
CLASS
  1
SORTENTSTABLE
  2
AcDbSortentsTable
  3
"AutoCAD"
 90
        0
280
               0
281
               0
  0
CLASS
  1
LAYER_INDEX
  2
AcDbLayerIndex
  3
"Acad"
 90
        0
280
               0
281
               0
  0
CLASS
  1
SPATIAL_INDEX
  2
AcDbSpatialIndex
  3
"Acad"
 90
        0
280
               0
281
               0
  0
CLASS
  1
OBJECT_PTR
  2
CAseDLPNTableRecord
  3
"ASE-LPNTableRecord"
 90
        1
280
               0
281
               0
  0
CLASS
  1
LAYOUT
  2
AcDbLayout
  3
"AutoCAD 2000"
 90
        0
280
               0
281
               0
  0
CLASS
  1
PLOTSETTINGS
  2
AcDbPlotSettings
  3
"AutoCAD 2000"
 90
        0
280
               0
281
               0
  0
CLASS
  1
ACDBDICTIONARYWDFLT
  2
AcDbDictionaryWithDefault
  3
"AutoCAD 2000"
 90
        0
280
               0
281
               0
  0
CLASS
  1
ACDBPLACEHOLDER
  2
AcDbPlaceHolder
  3
"AutoCAD 2000"
 90
        0
280
               0
281
               0
  0
CLASS
  1
VBA_PROJECT
  2
AcDbVbaProject
  3
"acadvba"
 90
        0
280
               0
281
               0
  0
CLASS
  1
WIPEOUT
  2
AcDbWipeout
  3
WipeOut|AutoCAD Express Tool|expresstools@autodesk.com
 90
      127
280
               0
281
               1
  0
CLASS
  1
WIPEOUTVARIABLES
  2
AcDbWipeoutVariables
  3
WipeOut|AutoCAD Express Tool|expresstools@autodesk.com
 90
        0
280
               0
281
               0
  0
CLASS
  1
RTEXT
  2
RText
  3
RText|AutoCAD Express Tool|expresstools@autodesk.com
 90
        0
280
               0
281
               1
  0
CLASS
  1
ARCALIGNEDTEXT
  2
AcDbArcAlignedText
  3
ATEXT|AutoCAD Express Tool|expresstools@autodesk.com
 90
        0
280
               0
281
               1
  0
ENDSEC
  0
SECTION
  2
TABLES
  0
TABLE
  2
VPORT
  5
7
100
AcDbSymbolTable
 70
               1
  0
VPORT
  5
15
100
AcDbSymbolTableRecord
100
AcDbViewportTableRecord
  2
*ACTIVE
 70
               0
 10
0.0
 20
0.0
 11
1.0
 21
1.0
 12
445.50000000000045
 22
315.00000000000034
 13
0.0
 23
0.0
 14
10.0
 24
10.0
 15
10.0
 25
10.0
 16
0.0
 26
0.0
 36
1.0
 17
0.0
 27
0.0
 37
0.0
 40
630.00000000000068
 41
1.4142857142857141
 42
50.0
 43
0.0
 44
0.0
 50
0.0
 51
0.0
 71
               0
 72
             100
 73
               1
 74
               1
 75
               0
 76
               0
 77
               0
 78
               0
  0
ENDTAB
  0
TABLE
  2
LTYPE
  5
4
100
AcDbSymbolTable
 70
              24
  0
LTYPE
  5
11
100
AcDbSymbolTableRecord
100
AcDbLinetypeTableRecord
  2
ByBlock
 70
              64
  3

 72
              65
 73
               0
 40
0.0
  0
LTYPE
  5
12
100
AcDbSymbolTableRecord
100
AcDbLinetypeTableRecord
  2
ByLayer
 70
              64
  3

 72
              65
 73
               0
 40
0.0
  0
LTYPE
  5
13
100
AcDbSymbolTableRecord
100
AcDbLinetypeTableRecord
  2
Continuous
 70
              64
  3
Solid line
 72
              65
 73
               0
 40
0.0
  0
LTYPE
  5
1D
100
AcDbSymbolTableRecord
100
AcDbLinetypeTableRecord
  2
DOT
 70
              64
  3
Dot . . . . . . . . . . . . . . . . . . . . . .
 72
              65
 73
               2
 40
6.3499999999999996
 49
0.35
 74
               0
 49
-6.0
 74
               0
  0
LTYPE
  5
1E
100
AcDbSymbolTableRecord
100
AcDbLinetypeTableRecord
  2
DASHED
 70
              64
  3
Dashed __ __ __ __ __ __ __ __ __ __ __ __ __ _
 72
              65
 73
               2
 40
12.699999999999999
 49
6.3499999999999996
 74
               0
 49
-6.3499999999999996
 74
               0
  0
LTYPE
  5
1F
100
AcDbSymbolTableRecord
100
AcDbLinetypeTableRecord
  2
DASHDOT
 70
              64
  3
Dash dot __ . __ . __ . __ . __ . __ . __ . __
 72
              65
 73
               4
 40
25.399999999999999
 49
12.699999999999999
 74
               0
 49
-6.0
 74
               0
 49
0.7
 74
               0
 49
-6.0
 74
               0
  0
LTYPE
  5
20
100
AcDbSymbolTableRecord
100
AcDbLinetypeTableRecord
  2
DIVIDE
 70
              64
  3
Divide ____ . . ____ . . ____ . . ____ . . ____
 72
              65
 73
               6
 40
31.75
 49
12.699999999999999
 74
               0
 49
-6.0
 74
               0
 49
0.875
 74
               0
 49
-6.0
 74
               0
 49
0.875
 74
               0
 49
-6.0
 74
               0
  0
LTYPE
  5
21
100
AcDbSymbolTableRecord
100
AcDbLinetypeTableRecord
  2
HIDDEN
 70
              64
  3
Hidden __ __ __ __ __ __ __ __ __ __ __ __ __ _
 72
              65
 73
               2
 40
9.5250000000000004
 49
6.3499999999999996
 74
               0
 49
-3.1749999999999998
 74
               0
  0
LTYPE
  5
22
100
AcDbSymbolTableRecord
100
AcDbLinetypeTableRecord
  2
CENTER
 70
              64
  3
Center ____ _ ____ _ ____ _ ____ _ ____ _ ____
 72
              65
 73
               4
 40
50.799999999999997
 49
31.75
 74
               0
 49
-6.3499999999999996
 74
               0
 49
6.3499999999999996
 74
               0
 49
-6.3499999999999996
 74
               0
  0
LTYPE
  5
23
100
AcDbSymbolTableRecord
100
AcDbLinetypeTableRecord
  2
PHANTOM
 70
              64
  3
Phantom ______  __  __  ______  __  __  ______
 72
              65
 73
               6
 40
63.5
 49
31.75
 74
               0
 49
-6.3499999999999996
 74
               0
 49
6.3499999999999996
 74
               0
 49
-6.3499999999999996
 74
               0
 49
6.3499999999999996
 74
               0
 49
-6.3499999999999996
 74
               0
  0
LTYPE
  5
24
100
AcDbSymbolTableRecord
100
AcDbLinetypeTableRecord
  2
ACAD_ISO02W100
 70
              64
  3
ISO dash __ __ __ __ __ __ __ __ __ __ __ __ __
 72
              65
 73
               2
 40
15.0
 49
12.0
 74
               0
 49
-3.0
 74
               0
  0
LTYPE
  5
25
100
AcDbSymbolTableRecord
100
AcDbLinetypeTableRecord
  2
ACAD_ISO03W100
 70
              64
  3
ISO dash space __ __ __ __ __ __ __ __ __ __ __ __ __ __
 72
              65
 73
               2
 40
30.0
 49
12.0
 74
               0
 49
-18.0
 74
               0
  0
LTYPE
  5
26
100
AcDbSymbolTableRecord
100
AcDbLinetypeTableRecord
  2
ACAD_ISO04W100
 70
              64
  3
ISO long-dash dot ____ . ____ . ____ . ____ . _
 72
              65
 73
               4
 40
30.0
 49
24.0
 74
               0
 49
-3.0
 74
               0
 49
0.0
 74
               0
 49
-3.0
 74
               0
  0
LTYPE
  5
27
100
AcDbSymbolTableRecord
100
AcDbLinetypeTableRecord
  2
ACAD_ISO05W100
 70
              64
  3
ISO long-dash double-dot ____ .. ____ .. ____ .
 72
              65
 73
               6
 40
33.0
 49
24.0
 74
               0
 49
-3.0
 74
               0
 49
0.0
 74
               0
 49
-3.0
 74
               0
 49
0.0
 74
               0
 49
-3.0
 74
               0
  0
LTYPE
  5
28
100
AcDbSymbolTableRecord
100
AcDbLinetypeTableRecord
  2
ACAD_ISO06W100
 70
              64
  3
ISO long-dash triple-dot ____ ... ____ ... ____
 72
              65
 73
               8
 40
36.0
 49
24.0
 74
               0
 49
-3.0
 74
               0
 49
0.0
 74
               0
 49
-3.0
 74
               0
 49
0.0
 74
               0
 49
-3.0
 74
               0
 49
0.0
 74
               0
 49
-3.0
 74
               0
  0
LTYPE
  5
29
100
AcDbSymbolTableRecord
100
AcDbLinetypeTableRecord
  2
ACAD_ISO07W100
 70
              64
  3
ISO dot . . . . . . . . . . . . . . . . . . . .
 72
              65
 73
               2
 40
3.0
 49
0.0
 74
               0
 49
-3.0
 74
               0
  0
LTYPE
  5
2A
100
AcDbSymbolTableRecord
100
AcDbLinetypeTableRecord
  2
ACAD_ISO08W100
 70
              64
  3
ISO long-dash short-dash ____ __ ____ __ ____ _
 72
              65
 73
               4
 40
36.0
 49
24.0
 74
               0
 49
-3.0
 74
               0
 49
6.0
 74
               0
 49
-3.0
 74
               0
  0
LTYPE
  5
2B
100
AcDbSymbolTableRecord
100
AcDbLinetypeTableRecord
  2
ACAD_ISO09W100
 70
              64
  3
ISO long-dash double-short-dash ____ __ __ ____
 72
              65
 73
               6
 40
45.0
 49
24.0
 74
               0
 49
-3.0
 74
               0
 49
6.0
 74
               0
 49
-3.0
 74
               0
 49
6.0
 74
               0
 49
-3.0
 74
               0
  0
LTYPE
  5
2C
100
AcDbSymbolTableRecord
100
AcDbLinetypeTableRecord
  2
ACAD_ISO10W100
 70
              64
  3
ISO dash dot __ . __ . __ . __ . __ . __ . __ .
 72
              65
 73
               4
 40
18.0
 49
12.0
 74
               0
 49
-3.0
 74
               0
 49
0.0
 74
               0
 49
-3.0
 74
               0
  0
LTYPE
  5
2D
100
AcDbSymbolTableRecord
100
AcDbLinetypeTableRecord
  2
ACAD_ISO11W100
 70
              64
  3
ISO double-dash dot __ __ . __ __ . __ __ . __ 
 72
              65
 73
               6
 40
33.0
 49
12.0
 74
               0
 49
-3.0
 74
               0
 49
12.0
 74
               0
 49
-3.0
 74
               0
 49
0.0
 74
               0
 49
-3.0
 74
               0
  0
LTYPE
  5
2E
100
AcDbSymbolTableRecord
100
AcDbLinetypeTableRecord
  2
ACAD_ISO12W100
 70
              64
  3
ISO dash double-dot __ . . __ . . __ . . __ . .
 72
              65
 73
               6
 40
21.0
 49
12.0
 74
               0
 49
-3.0
 74
               0
 49
0.0
 74
               0
 49
-3.0
 74
               0
 49
0.0
 74
               0
 49
-3.0
 74
               0
  0
LTYPE
  5
2F
100
AcDbSymbolTableRecord
100
AcDbLinetypeTableRecord
  2
ACAD_ISO13W100
 70
              64
  3
ISO double-dash double-dot __ __ . . __ __ . . 
 72
              65
 73
               8
 40
36.0
 49
12.0
 74
               0
 49
-3.0
 74
               0
 49
12.0
 74
               0
 49
-3.0
 74
               0
 49
0.0
 74
               0
 49
-3.0
 74
               0
 49
0.0
 74
               0
 49
-3.0
 74
               0
  0
LTYPE
  5
30
100
AcDbSymbolTableRecord
100
AcDbLinetypeTableRecord
  2
ACAD_ISO14W100
 70
              64
  3
ISO dash triple-dot __ . . . __ . . . __ . . . 
 72
              65
 73
               8
 40
24.0
 49
12.0
 74
               0
 49
-3.0
 74
               0
 49
0.0
 74
               0
 49
-3.0
 74
               0
 49
0.0
 74
               0
 49
-3.0
 74
               0
 49
0.0
 74
               0
 49
-3.0
 74
               0
  0
LTYPE
  5
31
100
AcDbSymbolTableRecord
100
AcDbLinetypeTableRecord
  2
ACAD_ISO15W100
 70
              64
  3
ISO double-dash double-dot __ __ . . __ __ . . 
 72
              65
 73
              10
 40
39.0
 49
12.0
 74
               0
 49
-3.0
 74
               0
 49
12.0
 74
               0
 49
-3.0
 74
               0
 49
0.0
 74
               0
 49
-3.0
 74
               0
 49
0.0
 74
               0
 49
-3.0
 74
               0
 49
0.0
 74
               0
 49
-3.0
 74
               0
  0
ENDTAB
  0
TABLE
  2
LAYER
  5
2
100
AcDbSymbolTable
 70
              16
  0
LAYER
  5
14
100
AcDbSymbolTableRecord
100
AcDbLayerTableRecord
  2
0
 70
               0
 62
               7
  6
Continuous
  0
LAYER
  5
35
100
AcDbSymbolTableRecord
100
AcDbLayerTableRecord
  2
Layer00001
 70
               0
 62
               7
  6
Continuous
  0
LAYER
  5
36
100
AcDbSymbolTableRecord
100
AcDbLayerTableRecord
  2
Layer00002
 70
               0
 62
               7
  6
Continuous
  0
LAYER
  5
37
100
AcDbSymbolTableRecord
100
AcDbLayerTableRecord
  2
Layer00003
 70
               0
 62
               7
  6
Continuous
  0
LAYER
  5
38
100
AcDbSymbolTableRecord
100
AcDbLayerTableRecord
  2
Layer00004
 70
               0
 62
               7
  6
Continuous
  0
LAYER
  5
39
100
AcDbSymbolTableRecord
100
AcDbLayerTableRecord
  2
Layer00005
 70
               0
 62
               7
  6
Continuous
  0
LAYER
  5
3A
100
AcDbSymbolTableRecord
100
AcDbLayerTableRecord
  2
Layer00006
 70
               0
 62
               7
  6
Continuous
  0
LAYER
  5
3B
100
AcDbSymbolTableRecord
100
AcDbLayerTableRecord
  2
Layer00007
 70
               0
 62
               7
  6
Continuous
  0
LAYER
  5
3C
100
AcDbSymbolTableRecord
100
AcDbLayerTableRecord
  2
Layer00008
 70
               0
 62
               7
  6
Continuous
  0
LAYER
  5
3D
100
AcDbSymbolTableRecord
100
AcDbLayerTableRecord
  2
Layer00009
 70
               0
 62
               7
  6
Continuous
  0
LAYER
  5
3E
100
AcDbSymbolTableRecord
100
AcDbLayerTableRecord
  2
Layer00010
 70
               0
 62
               7
  6
Continuous
  0
LAYER
  5
3F
100
AcDbSymbolTableRecord
100
AcDbLayerTableRecord
  2
Layer00011
 70
               0
 62
               7
  6
Continuous
  0
LAYER
  5
40
100
AcDbSymbolTableRecord
100
AcDbLayerTableRecord
  2
Layer00012
 70
               0
 62
               7
  6
Continuous
  0
LAYER
  5
41
100
AcDbSymbolTableRecord
100
AcDbLayerTableRecord
  2
Layer00013
 70
               0
 62
               7
  6
Continuous
  0
LAYER
  5
42
100
AcDbSymbolTableRecord
100
AcDbLayerTableRecord
  2
Layer00014
 70
               0
 62
               7
  6
Continuous
  0
LAYER
  5
43
100
AcDbSymbolTableRecord
100
AcDbLayerTableRecord
  2
Layer00015
 70
               0
 62
               7
  6
Continuous
  0
ENDTAB
  0
TABLE
  2
STYLE
  5
3
100
AcDbSymbolTable
 70
               4
  0
STYLE
  5
17
100
AcDbSymbolTableRecord
100
AcDbTextStyleTableRecord
  2
Standard
 70
               0
 40
0.0
 41
1.0
 50
0.0
 71
               0
 42
0.0
  3
txt.shx
  4
bigfont.shx
  0
STYLE
  5
32
100
AcDbSymbolTableRecord
100
AcDbTextStyleTableRecord
  2
STANDARD_T
 70
               4
 40
0.0
 41
1.0
 50
0.0
 71
               0
 42
0.0
  3
txt.shx
  4
bigfont.shx
  0
STYLE
  5
33
100
AcDbSymbolTableRecord
100
AcDbTextStyleTableRecord
  2
FontTableH_0
 70
               0
 40
0.0
 41
1.0
 50
0.0
 71
               0
 42
0.0
  3
MS Gothic.ttf
  4

1001
ACAD
1000
MS Gothic
1071
    32817
  0
STYLE
  5
34
100
AcDbSymbolTableRecord
100
AcDbTextStyleTableRecord
  2
FontTableV_0
 70
               0
 40
0.0
 41
1.0
 50
0.0
 71
               0
 42
0.0
  3
@MS Gothic.ttf
  4

1001
ACAD
1000
@MS Gothic
1071
    32817
  0
ENDTAB
  0
TABLE
  2
VIEW
  5
5
100
AcDbSymbolTable
 70
               0
  0
ENDTAB
  0
TABLE
  2
UCS
  5
6
100
AcDbSymbolTable
 70
               0
  0
ENDTAB
  0
TABLE
  2
APPID
  5
8
100
AcDbSymbolTable
 70
               1
  0
APPID
  5
16
100
AcDbSymbolTableRecord
100
AcDbRegAppTableRecord
  2
ACAD
 70
               0
  0
ENDTAB
  0
TABLE
  2
DIMSTYLE
  5
9
100
AcDbSymbolTable
 70
               1
  0
DIMSTYLE
105
18
100
AcDbSymbolTableRecord
100
AcDbDimStyleTableRecord
  2
Standard
 70
               0
  3

  4

  5

  6

  7

 40
1.0
 41
0.18
 42
0.0625
 43
0.38
 44
0.18
 45
0.0
 46
0.0
 47
0.0
 48
0.0
 71
               0
 72
               0
 73
               1
 74
               1
 75
               0
 76
               0
 77
               0
 78
               0
140
0.18
141
0.09
142
0.0
143
25.399999999999999
144
1.0
145
0.0
146
1.0
147
0.09
170
               0
171
               2
172
               0
173
               0
174
               0
175
               0
176
               0
177
               0
178
               0
270
               2
271
               4
272
               4
273
               2
274
               2
275
               0
280
               0
281
               0
282
               0
283
               1
284
               0
285
               0
286
               0
287
               0
288
               0
340
17
  0
ENDTAB
  0
TABLE
  2
BLOCK_RECORD
  5
1
100
AcDbSymbolTable
 70
               0
  0
BLOCK_RECORD
  5
A
100
AcDbSymbolTableRecord
100
AcDbBlockTableRecord
  2
*MODEL_SPACE
  0
BLOCK_RECORD
  5
B
100
AcDbSymbolTableRecord
100
AcDbBlockTableRecord
  2
*PAPER_SPACE
  0
ENDTAB
  0
ENDSEC
  0
SECTION
  2
BLOCKS
  0
BLOCK
  5
D
100
AcDbEntity
  8
0
100
AcDbBlockBegin
  2
*MODEL_SPACE
 70
               0
 10
0.0
 20
0.0
 30
0.0
  3
*MODEL_SPACE
  1

  0
ENDBLK
  5
E
100
AcDbEntity
  8
0
100
AcDbBlockEnd
  0
BLOCK
  5
F
100
AcDbEntity
 67
               1
  8
0
100
AcDbBlockBegin
  2
*PAPER_SPACE
 70
               0
 10
0.0
 20
0.0
 30
0.0
  3
*PAPER_SPACE
  1

  0
ENDBLK
  5
10
100
AcDbEntity
 67
               1
  8
0
100
AcDbBlockEnd
  0
ENDSEC
  0
SECTION
  2
ENTITIES
  0
LINE
  5
44
100
AcDbEntity
  8
0
  6
Continuous
 62
               4
100
AcDbLine
 10
660.08549094427838
 20
380.50586035410305
 30
0.0
 11
674.45288522259602
 21
384.81607863759808
 31
0.0
  0
LINE
  5
45
100
AcDbEntity
  8
0
  6
Continuous
 62
               4
100
AcDbLine
 10
665.25775288447232
 20
363.26498722012224
 30
0.0
 11
679.62514716278997
 21
367.57520550361727
 31
0.0
  0
LINE
  5
46
100
AcDbEntity
  8
0
  6
Continuous
 62
               4
100
AcDbLine
 10
671.57940636693252
 20
383.95403498089917
 30
0.0
 11
676.75166830712647
 21
366.71316184691835
 31
0.0
  0
LINE
  5
47
100
AcDbEntity
  8
0
  6
Continuous
 62
               4
100
AcDbLine
 10
255.01511783681559
 20
423.41957593721003
 30
0.0
 11
248.11876858322347
 21
446.40740678251808
 31
0.0
  0
LINE
  5
48
100
AcDbEntity
  8
0
  6
Continuous
 62
               4
100
AcDbLine
 10
248.98081223992247
 20
443.5339279268548
 30
0.0
 11
268.13733794434563
 21
449.28088563818136
 31
0.0
  0
LINE
  5
49
100
AcDbEntity
  8
0
  6
Continuous
 62
               4
100
AcDbLine
 10
616.55228628097905
 20
525.61654256510815
 30
0.0
 11
630.91968055929669
 21
529.92676084860318
 31
0.0
  0
LINE
  5
4A
100
AcDbEntity
  8
0
  6
Continuous
 62
               4
100
AcDbLine
 10
629.48294113146403
 20
482.51435973015595
 30
0.0
 11
643.85033540978179
 21
486.82457801365098
 31
0.0
  0
LINE
  5
4B
100
AcDbEntity
  8
0
  6
Continuous
 62
               4
100
AcDbLine
 10
628.0462017036333
 20
529.06471719190404
 30
0.0
 11
640.97685655411829
 21
485.96253435695183
 31
0.0
  0
LINE
  5
4C
100
AcDbEntity
  8
0
  6
Continuous
 62
               4
100
AcDbLine
 10
630.34498478816306
 20
479.64088087449267
 30
0.0
 11
644.71237906648071
 21
483.9510991579877
 31
0.0
  0
LINE
  5
4D
100
AcDbEntity
  8
0
  6
Continuous
 62
               4
100
AcDbLine
 10
659.07977334479631
 20
383.85825235237729
 30
0.0
 11
673.44716762311407
 21
388.16847063587232
 31
0.0
  0
LINE
  5
4E
100
AcDbEntity
  8
0
  6
Continuous
 62
               4
100
AcDbLine
 10
641.8389002108172
 20
483.08905550128878
 30
0.0
 11
670.57368876745056
 21
387.30642697917318
 31
0.0
  0
LINE
  5
4F
100
AcDbEntity
  8
0
  6
Continuous
 62
               4
100
AcDbLine
 10
360.71247341756566
 20
342.54302656638464
 30
0.0
 11
286.03350055907708
 21
213.19525131842573
 31
0.0
  0
LINE
  5
50
100
AcDbEntity
  8
0
  6
Continuous
 62
               4
100
AcDbLine
 10
286.03350055907708
 20
213.19525131842573
 30
0.0
 11
247.36969480905449
 21
213.19525131842573
 31
0.0
  0
LINE
  5
51
100
AcDbEntity
  8
0
  6
Continuous
 62
               4
100
AcDbLine
 10
360.71247341756566
 20
342.54302656638464
 30
0.0
 11
357.63429212763464
 21
334.08579297931163
 31
0.0
  0
LINE
  5
52
100
AcDbEntity
  8
0
  6
Continuous
 62
               4
100
AcDbLine
 10
360.71247341756566
 20
342.54302656638464
 30
0.0
 11
354.92738493038678
 21
335.64862657831389
 31
0.0
  0
LINE
  5
53
100
AcDbEntity
  8
0
  6
Continuous
 62
               4
100
AcDbLine
 10
332.80731205891539
 20
251.11481610445969
 30
0.0
 11
294.40571091328121
 21
184.60129182822601
 31
0.0
  0
LINE
  5
54
100
AcDbEntity
  8
0
  6
Continuous
 62
               4
100
AcDbLine
 10
294.40571091328121
 20
184.60129182822601
 30
0.0
 11
254.89846296407825
 21
184.60129182822692
 31
0.0
  0
LINE
  5
55
100
AcDbEntity
  8
0
  6
Continuous
 62
               4
100
AcDbLine
 10
332.80731205891539
 20
251.11481610445969
 30
0.0
 11
329.72913076898431
 21
242.65758251738652
 31
0.0
  0
LINE
  5
56
100
AcDbEntity
  8
0
  6
Continuous
 62
               4
100
AcDbLine
 10
332.80731205891539
 20
251.11481610445969
 30
0.0
 11
327.0222235717365
 21
244.22041611638883
 31
0.0
  0
LINE
  5
57
100
AcDbEntity
  8
0
  6
Continuous
 62
               4
100
AcDbLine
 10
294.91107031403862
 20
360.03511107253456
 30
0.0
 11
258.58105342425443
 21
297.10967597959291
 31
0.0
  0
LINE
  5
58
100
AcDbEntity
  8
0
  6
Continuous
 62
               4
100
AcDbLine
 10
258.58105342425443
 20
297.10967597959291
 30
0.0
 11
231.2960252804971
 21
297.10967597959359
 31
0.0
  0
LINE
  5
59
100
AcDbEntity
  8
0
  6
Continuous
 62
               4
100
AcDbLine
 10
294.91107031403862
 20
360.03511107253456
 30
0.0
 11
291.83288902410766
 21
351.57787748546156
 31
0.0
  0
LINE
  5
5A
100
AcDbEntity
  8
0
  6
Continuous
 62
               4
100
AcDbLine
 10
294.91107031403862
 20
360.03511107253456
 30
0.0
 11
289.12598182685974
 21
353.14071108446382
 31
0.0
  0
LINE
  5
5B
100
AcDbEntity
  8
0
  6
Continuous
 62
               7
100
AcDbLine
 10
595.45714549731781
 20
361.11735672001572
 30
0.0
 11
583.38898913263324
 21
338.70435809457166
 31
0.0
  0
LINE
  5
5C
100
AcDbEntity
  8
0
  6
Continuous
 62
               7
100
AcDbLine
 10
588.6843802188157
 20
359.08552713646503
 30
0.0
 11
576.61622385413102
 21
336.67252851102097
 31
0.0
  0
LINE
  5
5D
100
AcDbEntity
  8
0
  6
Continuous
 62
               7
100
AcDbLine
 10
581.91161494031326
 20
357.05369755291457
 30
0.0
 11
569.84345857562857
 21
334.64069892747028
 31
0.0
  0
LINE
  5
5E
100
AcDbEntity
  8
0
  6
Continuous
 62
               7
100
AcDbLine
 10
575.13884966181104
 20
355.02186796936388
 30
0.0
 11
563.07069329712635
 21
332.60886934391982
 31
0.0
  0
LINE
  5
5F
100
AcDbEntity
  8
0
  6
Continuous
 62
               7
100
AcDbLine
 10
568.36608438330859
 20
352.99003838581319
 30
0.0
 11
556.29792801862391
 21
330.57703976036913
 31
0.0
  0
LINE
  5
60
100
AcDbEntity
  8
0
  6
Continuous
 62
               7
100
AcDbLine
 10
561.59331910480637
 20
350.95820880226273
 30
0.0
 11
549.52516274012169
 21
328.54521017681839
 31
0.0
  0
LINE
  5
61
100
AcDbEntity
  8
0
  6
Continuous
 62
               7
100
AcDbLine
 10
554.82055382630415
 20
348.92637921871204
 30
0.0
 11
542.75239746161947
 21
326.51338059326793
 31
0.0
  0
LINE
  5
62
100
AcDbEntity
  8
0
  6
Continuous
 62
               7
100
AcDbLine
 10
548.0477885478017
 20
346.89454963516158
 30
0.0
 11
535.97963218311702
 21
324.48155100971724
 31
0.0
  0
LINE
  5
63
100
AcDbEntity
  8
0
  6
Continuous
 62
               7
100
AcDbLine
 10
541.27502326929948
 20
344.86272005161089
 30
0.0
 11
529.2068669046148
 21
322.44972142616666
 31
0.0
  0
LINE
  5
64
100
AcDbEntity
  8
0
  6
Continuous
 62
               7
100
AcDbLine
 10
534.50225799079703
 20
342.8308904680602
 30
0.0
 11
522.43410162611258
 21
320.41789184261609
 31
0.0
  0
LINE
  5
65
100
AcDbEntity
  8
0
  6
Continuous
 62
               7
100
AcDbLine
 10
527.72949271229481
 20
340.79906088450974
 30
0.0
 11
515.66133634761013
 21
318.3860622590654
 31
0.0
  0
LINE
  5
66
100
AcDbEntity
  8
0
  6
Continuous
 62
               7
100
AcDbLine
 10
520.95672743379259
 20
338.76723130095905
 30
0.0
 11
508.88857106910785
 21
316.35423267551494
 31
0.0
  0
LINE
  5
67
100
AcDbEntity
  8
0
  6
Continuous
 62
               7
100
AcDbLine
 10
514.18396215529015
 20
336.73540171740837
 30
0.0
 11
502.11580579060552
 21
314.32240309196425
 31
0.0
  0
LINE
  5
68
100
AcDbEntity
  8
0
  6
Continuous
 62
               7
100
AcDbLine
 10
507.41119687678787
 20
334.70357213385768
 30
0.0
 11
495.34304051210319
 21
312.29057350841367
 31
0.0
  0
LINE
  5
69
100
AcDbEntity
  8
0
  6
Continuous
 62
               7
100
AcDbLine
 10
500.63843159828554
 20
332.67174255030721
 30
0.0
 11
488.57027523360097
 21
310.2587439248631
 31
0.0
  0
LINE
  5
6A
100
AcDbEntity
  8
0
  6
Continuous
 62
               7
100
AcDbLine
 10
493.8656663197832
 20
330.63991296675653
 30
0.0
 11
481.79750995509863
 21
308.22691434131241
 31
0.0
  0
LINE
  5
6B
100
AcDbEntity
  8
0
  6
Continuous
 62
               7
100
AcDbLine
 10
487.09290104128098
 20
328.60808338320601
 30
0.0
 11
475.0247446765963
 21
306.19508475776183
 31
0.0
  0
LINE
  5
6C
100
AcDbEntity
  8
0
  6
Continuous
 62
               7
100
AcDbLine
 10
480.32013576277865
 20
326.57625379965532
 30
0.0
 11
468.25197939809397
 21
304.16325517421126
 31
0.0
  0
LINE
  5
6D
100
AcDbEntity
  8
0
  6
Continuous
 62
               7
100
AcDbLine
 10
473.54737048427631
 20
324.54442421610474
 30
0.0
 11
461.47921411959163
 21
302.13142559066057
 31
0.0
  0
LINE
  5
6E
100
AcDbEntity
  8
0
  6
Continuous
 62
               7
100
AcDbLine
 10
466.77460520577409
 20
322.51259463255417
 30
0.0
 11
454.70644884108941
 21
300.09959600711011
 31
0.0
  0
LINE
  5
6F
100
AcDbEntity
  8
0
  6
Continuous
 62
               7
100
AcDbLine
 10
460.00183992727176
 20
320.48076504900348
 30
0.0
 11
447.93368356258708
 21
298.06776642355948
 31
0.0
  0
LINE
  5
70
100
AcDbEntity
  8
0
  6
Continuous
 62
               7
100
AcDbLine
 10
453.22907464876943
 20
318.44893546545302
 30
0.0
 11
441.1609182840848
 21
296.03593684000884
 31
0.0
  0
LINE
  5
71
100
AcDbEntity
  8
0
  6
Continuous
 62
               7
100
AcDbLine
 10
446.45630937026709
 20
316.41710588190233
 30
0.0
 11
434.38815300558247
 21
294.00410725645827
 31
0.0
  0
LINE
  5
72
100
AcDbEntity
  8
0
  6
Continuous
 62
               7
100
AcDbLine
 10
439.68354409176476
 20
314.38527629835176
 30
0.0
 11
427.61538772708019
 21
291.97227767290764
 31
0.0
  0
LINE
  5
73
100
AcDbEntity
  8
0
  6
Continuous
 62
               7
100
AcDbLine
 10
432.91077881326248
 20
312.35344671480118
 30
0.0
 11
420.84262244857786
 21
289.94044808935706
 31
0.0
  0
LINE
  5
74
100
AcDbEntity
  8
0
  6
Continuous
 62
               7
100
AcDbLine
 10
426.1380135347602
 20
310.32161713125049
 30
0.0
 11
414.06985717007547
 21
287.90861850580643
 31
0.0
  0
LINE
  5
75
100
AcDbEntity
  8
0
  6
Continuous
 62
               7
100
AcDbLine
 10
419.36524825625787
 20
308.28978754770003
 30
0.0
 11
407.2970918915733
 21
285.87678892225574
 31
0.0
  0
LINE
  5
76
100
AcDbEntity
  8
0
  6
Continuous
 62
               7
100
AcDbLine
 10
412.59248297775559
 20
306.25795796414934
 30
0.0
 11
400.52432661307085
 21
283.84495933870528
 31
0.0
  0
LINE
  5
77
100
AcDbEntity
  8
0
  6
Continuous
 62
               7
100
AcDbLine
 10
405.81971769925326
 20
304.22612838059877
 30
0.0
 11
393.75156133456869
 21
281.81312975515465
 31
0.0
  0
LINE
  5
78
100
AcDbEntity
  8
0
  6
Continuous
 62
               7
100
AcDbLine
 10
399.04695242075098
 20
302.19429879704819
 30
0.0
 11
386.9787960560663
 21
279.78130017160396
 31
0.0
  0
LINE
  5
79
100
AcDbEntity
  8
0
  6
Continuous
 62
               7
100
AcDbLine
 10
392.27418714224871
 20
300.1624692134975
 30
0.0
 11
380.20603077756397
 21
277.74947058805333
 31
0.0
  0
LINE
  5
7A
100
AcDbEntity
  8
0
  6
Continuous
 62
               7
100
AcDbLine
 10
385.50142186374626
 20
298.13063962994693
 30
0.0
 11
373.43326549906169
 21
275.71764100450287
 31
0.0
  0
LINE
  5
7B
100
AcDbEntity
  8
0
  6
Continuous
 62
               7
100
AcDbLine
 10
378.7286565852441
 20
296.09881004639624
 30
0.0
 11
366.66050022055936
 21
273.68581142095218
 31
0.0
  0
LINE
  5
7C
100
AcDbEntity
  8
0
  6
Continuous
 62
               7
100
AcDbLine
 10
371.95589130674171
 20
294.06698046284578
 30
0.0
 11
359.88773494205708
 21
271.65398183740155
 31
0.0
  0
LINE
  5
7D
100
AcDbEntity
  8
0
  6
Continuous
 62
               7
100
AcDbLine
 10
365.18312602823937
 20
292.03515087929514
 30
0.0
 11
353.1149696635548
 21
269.62215225385097
 31
0.0
  0
LINE
  5
7E
100
AcDbEntity
  8
0
  6
Continuous
 62
               7
100
AcDbLine
 10
358.41036074973709
 20
290.00332129574457
 30
0.0
 11
346.34220438505247
 21
267.59032267030034
 31
0.0
  0
LINE
  5
7F
100
AcDbEntity
  8
0
  6
Continuous
 62
               7
100
AcDbLine
 10
351.63759547123476
 20
287.97149171219394
 30
0.0
 11
339.56943910655019
 21
265.55849308674976
 31
0.0
  0
LINE
  5
80
100
AcDbEntity
  8
0
  6
Continuous
 62
               7
100
AcDbLine
 10
344.86483019273248
 20
285.93966212864336
 30
0.0
 11
332.79667382804786
 21
263.52666350319913
 31
0.0
  0
LINE
  5
81
100
AcDbEntity
  8
0
  6
Continuous
 62
               7
100
AcDbLine
 10
649.63926772533671
 20
377.37199338842055
 30
0.0
 11
637.5711113606518
 21
354.95899476297649
 31
0.0
  0
LINE
  5
82
100
AcDbEntity
  8
0
  6
Continuous
 62
               7
100
AcDbLine
 10
642.86650244683426
 20
375.34016380487009
 30
0.0
 11
630.79834608214958
 21
352.9271651794258
 31
0.0
  0
LINE
  5
83
100
AcDbEntity
  8
0
  6
Continuous
 62
               7
100
AcDbLine
 10
636.09373716833181
 20
373.3083342213194
 30
0.0
 11
624.02558080364713
 21
350.89533559587511
 31
0.0
  0
LINE
  5
84
100
AcDbEntity
  8
0
  6
Continuous
 62
               3
100
AcDbLine
 10
327.0915457997055
 20
280.60767681073554
 30
0.0
 11
332.26380773989956
 21
263.36680367675473
 31
0.0
  0
LINE
  5
85
100
AcDbEntity
  8
0
  6
Continuous
 62
               7
100
AcDbLine
 10
328.35990541093258
 20
276.37981143997848
 30
0.0
 11
331.31929963572793
 21
281.87600296154204
 31
0.0
  0
LINE
  5
86
100
AcDbEntity
  8
0
  6
Continuous
 62
               7
100
AcDbLine
 10
330.39178859731402
 20
269.60686748537347
 30
0.0
 11
338.09206491423015
 21
283.90783254509273
 31
0.0
  0
LINE
  5
87
100
AcDbEntity
  8
0
  6
Continuous
 62
               6
100
AcDbLine
 10
417.51034712458227
 20
205.41831342087511
 30
0.0
 11
415.30734671424636
 21
204.75741329777429
 31
0.0
  0
LINE
  5
88
100
AcDbEntity
  8
0
  6
Continuous
 62
               6
100
AcDbLine
 10
398.06647358026555
 20
262.22699041104346
 30
0.0
 11
400.26947399060145
 21
262.88789053414428
 31
0.0
  0
LINE
  5
89
100
AcDbEntity
  8
0
  6
Continuous
 62
               4
100
AcDbLine
 10
398.19272086759941
 20
269.71489376324706
 30
0.0
 11
429.4689668600214
 21
238.43864777082507
 31
0.0
  0
LINE
  5
8A
100
AcDbEntity
  8
0
  6
Continuous
 62
               4
100
AcDbLine
 10
398.19272086759941
 20
269.71489376324706
 30
0.0
 11
405.56508926620029
 21
264.55270583608768
 31
0.0
  0
LINE
  5
8B
100
AcDbEntity
  8
0
  6
Continuous
 62
               4
100
AcDbLine
 10
398.19272086759941
 20
269.71489376324706
 30
0.0
 11
403.35490879475879
 21
262.34252536464618
 31
0.0
  0
LINE
  5
8C
100
AcDbEntity
  8
0
  6
Continuous
 62
               6
100
AcDbLine
 10
420.39340430247262
 20
187.80388800368706
 30
0.0
 11
415.30734671424636
 21
204.75741329777429
 31
0.0
  0
LINE
  5
8D
100
AcDbEntity
  8
0
  6
Continuous
 62
               6
100
AcDbLine
 10
376.90809086208662
 20
174.75829397157139
 30
0.0
 11
420.39340430247262
 21
187.80388800368706
 31
0.0
  0
LINE
  5
8E
100
AcDbEntity
  8
0
  6
Continuous
 62
               6
100
AcDbLine
 10
349.49510255165364
 20
266.13492167301479
 30
0.0
 11
376.90809086208662
 21
174.75829397157139
 31
0.0
  0
LINE
  5
8F
100
AcDbEntity
  8
0
  6
Continuous
 62
               6
100
AcDbLine
 10
392.9804159920393
 20
279.18051570513057
 30
0.0
 11
349.49510255165364
 21
266.13492167301479
 31
0.0
  0
LINE
  5
90
100
AcDbEntity
  8
0
  6
Continuous
 62
               6
100
AcDbLine
 10
392.9804159920393
 20
279.18051570513057
 30
0.0
 11
398.06647358026555
 21
262.22699041104346
 31
0.0
  0
LINE
  5
91
100
AcDbEntity
  8
0
  6
Continuous
 62
               6
100
AcDbLine
 10
395.18341641607708
 20
279.84141578255867
 30
0.0
 11
400.26947399060145
 21
262.88789053414428
 31
0.0
  0
LINE
  5
92
100
AcDbEntity
  8
0
  6
Continuous
 62
               6
100
AcDbLine
 10
348.83420247422555
 20
268.33792209705263
 30
0.0
 11
392.31951582326576
 21
281.38351610176471
 31
0.0
  0
LINE
  5
93
100
AcDbEntity
  8
0
  6
Continuous
 62
               6
100
AcDbLine
 10
374.70509043804896
 20
174.09739389414318
 30
0.0
 11
347.29210215501956
 21
265.47402150424142
 31
0.0
  0
LINE
  5
94
100
AcDbEntity
  8
0
  6
Continuous
 62
               6
100
AcDbLine
 10
421.05430437990071
 20
185.60088757964928
 30
0.0
 11
377.56899103086016
 21
172.5552935749372
 31
0.0
  0
LINE
  5
95
100
AcDbEntity
  8
0
  6
Continuous
 62
               6
100
AcDbLine
 10
422.59640469910676
 20
188.46478817246054
 30
0.0
 11
417.51034712458227
 21
205.41831342087511
 31
0.0
  0
LINE
  5
96
100
AcDbEntity
  8
0
  6
Continuous
 62
               7
100
AcDbLine
 10
404.10077913148575
 20
76.111764916019354
 30
0.0
 11
389.7333848531685
 21
71.801546632524207
 31
0.0
  0
LINE
  5
97
100
AcDbEntity
  8
0
  6
Continuous
 62
               7
100
AcDbLine
 10
332.9247078767022
 20
261.16380322074622
 30
0.0
 11
389.7333848531685
 21
71.801546632524207
 31
0.0
  0
LINE
  5
98
100
AcDbEntity
  8
0
  6
Continuous
 62
               7
100
AcDbLine
 10
347.29210215501951
 20
265.47402150424125
 30
0.0
 11
332.9247078767022
 21
261.16380322074622
 31
0.0
  0
LINE
  5
99
100
AcDbEntity
  8
0
  6
Continuous
 62
               7
100
AcDbLine
 10
347.29210215501945
 20
265.47402150424142
 30
0.0
 11
404.10077913148575
 21
76.111764916019354
 31
0.0
  0
LINE
  5
9A
100
AcDbEntity
  8
0
  6
Continuous
 62
               7
100
AcDbLine
 10
617.25281552514491
 20
348.86350601232465
 30
0.0
 11
629.32097188982959
 21
371.27650463776871
 31
0.0
  0
LINE
  5
9B
100
AcDbEntity
  8
0
  6
Continuous
 62
               7
100
AcDbLine
 10
610.48005024664292
 20
346.83167642877419
 30
0.0
 11
622.54820661132715
 21
369.24467505421802
 31
0.0
  0
LINE
  5
9C
100
AcDbEntity
  8
0
  6
Continuous
 62
               7
100
AcDbLine
 10
602.22991077582026
 20
363.14918630356641
 30
0.0
 11
590.16175441113546
 21
340.73618767812212
 31
0.0
  0
LINE
  5
9D
100
AcDbEntity
  8
0
  6
Continuous
 62
               7
100
AcDbLine
 10
609.00267605432248
 20
365.18101588711687
 30
0.0
 11
596.9345196896378
 21
342.76801726167258
 31
0.0
  0
LINE
  5
9E
100
AcDbEntity
  8
0
  6
Continuous
 62
               7
100
AcDbLine
 10
615.77544133282481
 20
367.21284547066756
 30
0.0
 11
603.70728496814024
 21
344.79984684522327
 31
0.0
  0
LINE
  5
9F
100
AcDbEntity
  8
0
  6
Continuous
 62
               4
100
AcDbLine
 10
429.4689668600214
 20
238.43864777082507
 30
0.0
 11
503.09736077194782
 21
238.43864777082507
 31
0.0
  0
LINE
  5
A0
100
AcDbEntity
  8
0
  6
Continuous
 62
               7
100
AcDbLine
 10
659.02436594762696
 20
363.16233065845239
 30
0.0
 11
657.88940719615891
 21
361.05448351362833
 31
0.0
  0
LINE
  5
A1
100
AcDbEntity
  8
0
  6
Continuous
 62
               7
100
AcDbLine
 10
656.9924827612457
 20
369.93527461305752
 30
0.0
 11
651.11664191765647
 21
359.02265393007764
 31
0.0
  0
LINE
  5
A2
100
AcDbEntity
  8
0
  6
Continuous
 62
               7
100
AcDbLine
 10
654.9605995748642
 20
376.70821856766219
 30
0.0
 11
644.34387663915425
 21
356.99082434652695
 31
0.0
  0
LINE
  5
A3
100
AcDbEntity
  8
0
  6
Continuous
 62
               3
100
AcDbLine
 10
654.33853323295136
 20
378.78177304070499
 30
0.0
 11
327.09154579970556
 21
280.60767681073554
 31
0.0
  0
LINE
  5
A4
100
AcDbEntity
  8
0
  6
DASHED
 62
               6
100
AcDbLine
 10
654.05118534738506
 20
379.73959932592624
 30
0.0
 11
326.80419791413919
 21
281.56550309595673
 31
0.0
  0
LINE
  5
A5
100
AcDbEntity
  8
0
  6
Continuous
 62
               3
100
AcDbLine
 10
659.51079517314542
 20
361.54089990672418
 30
0.0
 11
332.26380773989956
 21
263.36680367675467
 31
0.0
  0
LINE
  5
A6
100
AcDbEntity
  8
0
  6
Continuous
 62
               4
100
AcDbLine
 10
401.56253947565085
 20
306.60308219163574
 30
0.0
 11
653.33281563346929
 21
382.13416503897923
 31
0.0
  0
LINE
  5
A7
100
AcDbEntity
  8
0
  6
Continuous
 62
               4
100
AcDbLine
 10
649.96310045491919
 20
393.36654896747967
 30
0.0
 11
642.10043170496726
 21
378.76444986042651
 31
0.0
  0
LINE
  5
A8
100
AcDbEntity
  8
0
  6
Continuous
 62
               2
100
AcDbLine
 10
337.46461061185693
 20
245.92516622092171
 30
0.0
 11
338.25022202253206
 21
236.45188506204062
 31
0.0
  0
LINE
  5
A9
100
AcDbEntity
  8
0
  6
Continuous
 62
               2
100
AcDbLine
 10
269.957207886265
 20
373.61260910570962
 30
0.0
 11
365.73983640838009
 21
402.34739766234424
 31
0.0
  0
LINE
  5
AA
100
AcDbEntity
  8
0
  6
Continuous
 62
               2
100
AcDbLine
 10
269.66986000069858
 20
374.5704353909311
 30
0.0
 11
623.73598342013702
 21
480.79027241675789
 31
0.0
  0
LINE
  5
AB
100
AcDbEntity
  8
0
  6
Continuous
 62
               4
100
AcDbLine
 10
259.23452888731333
 20
371.07374856954328
 30
0.0
 11
225.622140810817
 21
360.99003214659473
 31
0.0
  0
LINE
  5
AC
100
AcDbEntity
  8
0
  6
Continuous
 62
               4
100
AcDbLine
 10
295.61990370290033
 20
340.22813497857709
 30
0.0
 11
237.1160562334704
 21
322.67698073774864
 31
0.0
  0
LINE
  5
AD
100
AcDbEntity
  8
0
  6
Continuous
 62
               4
100
AcDbLine
 10
240.07800340975297
 20
323.56556489063337
 30
0.0
 11
228.58408798709948
 21
361.87861629947969
 31
0.0
  0
LINE
  5
AE
100
AcDbEntity
  8
0
  6
Continuous
 62
               2
100
AcDbLine
 10
300.42105915182282
 20
341.66848161325396
 30
0.0
 11
289.40108147625443
 21
378.40174053181539
 31
0.0
  0
LINE
  5
AF
100
AcDbEntity
  8
0
  6
Continuous
 62
               2
100
AcDbLine
 10
300.59327402636876
 20
351.4291106577013
 30
0.0
 11
301.37888543704389
 21
341.95582949882026
 31
0.0
  0
LINE
  5
B0
100
AcDbEntity
  8
0
  6
Continuous
 62
               2
100
AcDbLine
 10
270.24455577183141
 20
372.65478282048838
 30
0.0
 11
289.40108147625438
 21
378.40174053181539
 31
0.0
  0
LINE
  5
B1
100
AcDbEntity
  8
0
  6
Continuous
 62
               2
100
AcDbLine
 10
270.53190365739772
 20
371.69695653526736
 30
0.0
 11
287.91856853060096
 21
376.35569934711265
 31
0.0
  0
LINE
  5
B2
100
AcDbEntity
  8
0
  6
Continuous
 62
               2
100
AcDbLine
 10
256.73920515021354
 20
417.67261822588324
 30
0.0
 11
610.80532856965203
 21
523.89245525171009
 31
0.0
  0
LINE
  5
B3
100
AcDbEntity
  8
0
  6
Continuous
 62
               2
100
AcDbLine
 10
256.73920515021348
 20
417.67261822588301
 30
0.0
 11
269.66986000069858
 21
374.57043539093132
 31
0.0
  0
LINE
  5
B4
100
AcDbEntity
  8
0
  6
Continuous
 62
               4
100
AcDbLine
 10
267.27529428764666
 20
452.15436449384487
 30
0.0
 11
287.67699416285643
 21
384.14869824314241
 31
0.0
  0
LINE
  5
B5
100
AcDbEntity
  8
0
  6
Continuous
 62
               6
100
AcDbLine
 10
261.91146709040754
 20
400.43174509190243
 30
0.0
 11
615.97759050984598
 21
506.65158211772922
 31
0.0
  0
LINE
  5
B6
100
AcDbEntity
  8
0
  6
Continuous
 62
               6
100
AcDbLine
 10
268.23312057286688
 20
379.35956681703709
 30
0.0
 11
622.29924399230538
 21
485.57940384286366
 31
0.0
  0
LINE
  5
B7
100
AcDbEntity
  8
0
  6
Continuous
 62
               7
100
AcDbLine
 10
297.69585710626984
 20
378.59330578885846
 30
0.0
 11
297.35103964359052
 21
379.74269733112391
 31
0.0
  0
LINE
  5
B8
100
AcDbEntity
  8
0
  6
Continuous
 62
               2
100
AcDbLine
 10
294.19021290235946
 20
379.83847995964715
 30
0.0
 11
389.97284142447523
 21
408.57326851628198
 31
0.0
  0
LINE
  5
B9
100
AcDbEntity
  8
0
  6
Continuous
 62
               2
100
AcDbLine
 10
294.19021290235946
 20
379.83847995964715
 30
0.0
 11
337.29239573731104
 21
236.16453717647425
 31
0.0
  0
LINE
  5
BA
100
AcDbEntity
  8
0
  6
Continuous
 62
               7
100
AcDbLine
 10
412.63501133280852
 20
308.67198696771311
 30
0.0
 11
374.32195992396214
 21
297.17807154505999
 31
0.0
  0
LINE
  5
BB
100
AcDbEntity
  8
0
  6
Continuous
 62
               7
100
AcDbLine
 10
412.29019387012886
 20
309.82137850997867
 30
0.0
 11
412.63501133280852
 21
308.67198696771322
 31
0.0
  0
LINE
  5
BC
100
AcDbEntity
  8
0
  6
Continuous
 62
               7
100
AcDbLine
 10
375.12653400354793
 20
298.67228055000498
 30
0.0
 11
412.29019387012886
 21
309.82137850997867
 31
0.0
  0
LINE
  5
BD
100
AcDbEntity
  8
0
  6
Continuous
 62
               7
100
AcDbLine
 10
400.77284930904568
 20
266.72795484502228
 30
0.0
 11
390.4283254286583
 21
301.20970111298391
 31
0.0
  0
LINE
  5
BE
100
AcDbEntity
  8
0
  6
Continuous
 62
               7
100
AcDbLine
 10
387.31539000168954
 20
302.88589711212103
 30
0.0
 11
387.45906394447275
 21
302.40698396951041
 31
0.0
  0
LINE
  5
BF
100
AcDbEntity
  8
0
  6
Continuous
 62
               7
100
AcDbLine
 10
405.56198073515145
 20
268.16469427285392
 30
0.0
 11
395.21745685476407
 21
302.64644054081555
 31
0.0
  0
LINE
  5
C0
100
AcDbEntity
  8
0
  6
Continuous
 62
               7
100
AcDbLine
 10
396.89365285390102
 20
305.75937596778431
 30
0.0
 11
397.03732679668411
 21
305.2804628251738
 31
0.0
  0
LINE
  5
C1
100
AcDbEntity
  8
0
  6
Continuous
 62
               7
100
AcDbLine
 10
387.31539000168954
 20
302.88589711212103
 30
0.0
 11
396.89365285390102
 21
305.75937596778431
 31
0.0
  0
LINE
  5
C2
100
AcDbEntity
  8
0
  6
Continuous
 62
               7
100
AcDbLine
 10
390.4283254286583
 20
301.20970111298391
 30
0.0
 11
395.21745685476407
 21
302.64644054081555
 31
0.0
  0
LINE
  5
C3
100
AcDbEntity
  8
0
  6
Continuous
 62
               7
100
AcDbLine
 10
387.45906394447275
 20
302.40698396951041
 30
0.0
 11
390.4283254286583
 21
301.20970111298391
 31
0.0
  0
LINE
  5
C4
100
AcDbEntity
  8
0
  6
Continuous
 62
               7
100
AcDbLine
 10
395.21745685476407
 20
302.64644054081555
 30
0.0
 11
397.03732679668411
 21
305.2804628251738
 31
0.0
  0
LINE
  5
C5
100
AcDbEntity
  8
0
  6
Continuous
 62
               7
100
AcDbLine
 10
387.45906394447275
 20
302.40698396951041
 30
0.0
 11
397.03732679668411
 21
305.2804628251738
 31
0.0
  0
LINE
  5
C6
100
AcDbEntity
  8
0
  6
Continuous
 62
               7
100
AcDbLine
 10
400.77284930904568
 20
266.72795484502228
 30
0.0
 11
403.59843685044808
 21
266.00958513110629
 31
0.0
  0
LINE
  5
C7
100
AcDbEntity
  8
0
  6
Continuous
 62
               7
100
AcDbLine
 10
405.56198073515145
 20
268.16469427285392
 30
0.0
 11
403.59843685044808
 21
266.00958513110629
 31
0.0
  0
LINE
  5
C8
100
AcDbEntity
  8
0
  6
Continuous
 62
               7
100
AcDbLine
 10
392.43976062762255
 20
294.50491711643588
 30
0.0
 11
396.65419628259571
 21
297.85730911470978
 31
0.0
  0
LINE
  5
C9
100
AcDbEntity
  8
0
  6
Continuous
 62
               7
100
AcDbLine
 10
393.01445639875521
 20
292.58926454599361
 30
0.0
 11
397.22889205372832
 21
295.94165654426752
 31
0.0
  0
LINE
  5
CA
100
AcDbEntity
  8
0
  6
Continuous
 62
               7
100
AcDbLine
 10
393.58915216988788
 20
290.67361197555124
 30
0.0
 11
397.80358782486104
 21
294.02600397382514
 31
0.0
  0
LINE
  5
CB
100
AcDbEntity
  8
0
  6
Continuous
 62
               7
100
AcDbLine
 10
394.16384794102055
 20
288.75795940510898
 30
0.0
 11
398.37828359599365
 21
292.11035140338288
 31
0.0
  0
LINE
  5
CC
100
AcDbEntity
  8
0
  6
Continuous
 62
               7
100
AcDbLine
 10
394.73854371215322
 20
286.8423068346666
 30
0.0
 11
398.95297936712632
 21
290.19469883294062
 31
0.0
  0
LINE
  5
CD
100
AcDbEntity
  8
0
  6
Continuous
 62
               7
100
AcDbLine
 10
395.31323948328566
 20
284.92665426422423
 30
0.0
 11
399.52767513825876
 21
288.27904626249824
 31
0.0
  0
LINE
  5
CE
100
AcDbEntity
  8
0
  6
Continuous
 62
               7
100
AcDbLine
 10
395.88793525441827
 20
283.01100169378196
 30
0.0
 11
400.10237090939142
 21
286.36339369205587
 31
0.0
  0
LINE
  5
CF
100
AcDbEntity
  8
0
  6
Continuous
 62
               7
100
AcDbLine
 10
396.46263102555099
 20
281.09534912333959
 30
0.0
 11
400.67706668052404
 21
284.44774112161383
 31
0.0
  0
LINE
  5
D0
100
AcDbEntity
  8
0
  6
Continuous
 62
               7
100
AcDbLine
 10
397.03732679668343
 20
279.17969655289721
 30
0.0
 11
401.25176245165676
 21
282.53208855117123
 31
0.0
  0
LINE
  5
D1
100
AcDbEntity
  8
0
  6
Continuous
 62
               7
100
AcDbLine
 10
397.6120225678161
 20
277.26404398245484
 30
0.0
 11
401.82645822278926
 21
280.61643598072885
 31
0.0
  0
LINE
  5
D2
100
AcDbEntity
  8
0
  6
Continuous
 62
               7
100
AcDbLine
 10
398.18671833894871
 20
275.34839141201269
 30
0.0
 11
402.40115399392187
 21
278.70078341028659
 31
0.0
  0
LINE
  5
D3
100
AcDbEntity
  8
0
  6
Continuous
 62
               7
100
AcDbLine
 10
398.76141411008143
 20
273.43273884157031
 30
0.0
 11
401.2900755030654
 21
275.44417404053502
 31
0.0
  0
LINE
  5
D4
100
AcDbEntity
  8
0
  6
Continuous
 62
               7
100
AcDbLine
 10
404.93939364975779
 20
268.49993347268128
 30
0.0
 11
402.55440619955738
 21
276.44989164001709
 31
0.0
  0
LINE
  5
D5
100
AcDbEntity
  8
0
  6
Continuous
 62
               7
100
AcDbLine
 10
401.29007550306545
 20
275.4441740405349
 30
0.0
 11
401.99407782270293
 21
276.75160691986184
 31
0.0
  0
LINE
  5
D6
100
AcDbEntity
  8
0
  6
Continuous
 62
               7
100
AcDbLine
 10
402.55440619955738
 20
276.44989164001709
 30
0.0
 11
401.99407782270293
 21
276.75160691986184
 31
0.0
  0
LINE
  5
D7
100
AcDbEntity
  8
0
  6
Continuous
 62
               7
100
AcDbLine
 10
402.55440619955738
 20
276.44989164001709
 30
0.0
 11
402.97584976505448
 21
276.78513083984433
 31
0.0
  0
LINE
  5
D8
100
AcDbEntity
  8
0
  6
Continuous
 62
               7
100
AcDbLine
 10
405.56198073515145
 20
268.16469427285392
 30
0.0
 11
404.93939364975779
 21
268.49993347268128
 31
0.0
  0
LINE
  5
D9
100
AcDbEntity
  8
0
  6
Continuous
 62
               4
100
AcDbLine
 10
347.34957173213581
 20
394.74225695768695
 30
0.0
 11
376.08436028876906
 21
298.95962843557129
 31
0.0
  0
LINE
  5
DA
100
AcDbEntity
  8
0
  6
Continuous
 62
               4
100
AcDbLine
 10
347.34957173213581
 20
394.74225695768695
 30
0.0
 11
624.59802707683605
 21
477.91679356109461
 31
0.0
  0
LINE
  5
DB
100
AcDbEntity
  8
0
  6
Continuous
 62
               7
100
AcDbLine
 10
346.39174544691474
 20
394.45490907212064
 30
0.0
 11
375.12653400354793
 21
298.67228055000498
 31
0.0
  0
LINE
  5
DC
100
AcDbEntity
  8
0
  6
Continuous
 62
               7
100
AcDbLine
 10
346.39174544691474
 20
394.45490907212064
 30
0.0
 11
297.35103964359052
 21
379.74269733112391
 31
0.0
  0
LINE
  5
DD
100
AcDbEntity
  8
0
  6
Continuous
 62
               7
100
AcDbLine
 10
345.58717136732929
 20
392.96070006717531
 30
0.0
 11
297.69585710626984
 21
378.59330578885846
 31
0.0
  0
LINE
  5
DE
100
AcDbEntity
  8
0
  6
Continuous
 62
               7
100
AcDbLine
 10
345.58717136732929
 20
392.96070006717531
 30
0.0
 11
374.32195992396214
 21
297.17807154505999
 31
0.0
  0
LINE
  5
DF
100
AcDbEntity
  8
0
  6
Continuous
 62
               7
100
AcDbLine
 10
317.26511265152618
 20
388.63913237198557
 30
0.0
 11
317.40878659430928
 21
388.16021922937506
 31
0.0
  0
LINE
  5
E0
100
AcDbEntity
  8
0
  6
Continuous
 62
               7
100
AcDbLine
 10
307.68684979931459
 20
385.76565351632229
 30
0.0
 11
307.83052374209774
 21
385.28674037371178
 31
0.0
  0
LINE
  5
E1
100
AcDbEntity
  8
0
  6
Continuous
 62
               7
100
AcDbLine
 10
317.26511265152618
 20
388.63913237198557
 30
0.0
 11
307.68684979931459
 21
385.76565351632229
 31
0.0
  0
LINE
  5
E2
100
AcDbEntity
  8
0
  6
Continuous
 62
               7
100
AcDbLine
 10
315.588916652389
 20
385.52619694501703
 30
0.0
 11
310.79978522628329
 21
384.08945751718528
 31
0.0
  0
LINE
  5
E3
100
AcDbEntity
  8
0
  6
Continuous
 62
               7
100
AcDbLine
 10
317.40878659430922
 20
388.16021922937529
 30
0.0
 11
315.588916652389
 21
385.52619694501703
 31
0.0
  0
LINE
  5
E4
100
AcDbEntity
  8
0
  6
Continuous
 62
               7
100
AcDbLine
 10
310.79978522628329
 20
384.08945751718528
 30
0.0
 11
307.83052374209774
 21
385.28674037371178
 31
0.0
  0
LINE
  5
E5
100
AcDbEntity
  8
0
  6
Continuous
 62
               7
100
AcDbLine
 10
317.40878659430928
 20
388.16021922937506
 30
0.0
 11
307.83052374209774
 21
385.28674037371178
 31
0.0
  0
LINE
  5
E6
100
AcDbEntity
  8
0
  6
Continuous
 62
               7
100
AcDbLine
 10
330.82926301656482
 20
391.54348979789637
 30
0.0
 11
330.97293695934803
 21
391.06457665528586
 31
0.0
  0
LINE
  5
E7
100
AcDbEntity
  8
0
  6
Continuous
 62
               7
100
AcDbLine
 10
321.25100016435329
 20
388.67001094223309
 30
0.0
 11
321.39467410713644
 21
388.19109779962258
 31
0.0
  0
LINE
  5
E8
100
AcDbEntity
  8
0
  6
Continuous
 62
               7
100
AcDbLine
 10
330.82926301656482
 20
391.54348979789637
 30
0.0
 11
321.25100016435329
 21
388.67001094223309
 31
0.0
  0
LINE
  5
E9
100
AcDbEntity
  8
0
  6
Continuous
 62
               7
100
AcDbLine
 10
329.15306701742776
 20
388.43055437092784
 30
0.0
 11
324.36393559132193
 21
386.99381494309608
 31
0.0
  0
LINE
  5
EA
100
AcDbEntity
  8
0
  6
Continuous
 62
               7
100
AcDbLine
 10
330.97293695934803
 20
391.06457665528586
 30
0.0
 11
329.15306701742776
 21
388.43055437092784
 31
0.0
  0
LINE
  5
EB
100
AcDbEntity
  8
0
  6
Continuous
 62
               7
100
AcDbLine
 10
324.36393559132193
 20
386.99381494309608
 30
0.0
 11
321.39467410713644
 21
388.19109779962258
 31
0.0
  0
LINE
  5
EC
100
AcDbEntity
  8
0
  6
Continuous
 62
               7
100
AcDbLine
 10
330.97293695934803
 20
391.06457665528586
 30
0.0
 11
321.39467410713644
 21
388.19109779962258
 31
0.0
  0
LINE
  5
ED
100
AcDbEntity
  8
0
  6
Continuous
 62
               7
100
AcDbLine
 10
323.20363561989871
 20
360.14380038665689
 30
0.0
 11
317.83980842266033
 21
360.6227135292674
 31
0.0
  0
LINE
  5
EE
100
AcDbEntity
  8
0
  6
Continuous
 62
               7
100
AcDbLine
 10
323.77833139103188
 20
358.22814781621463
 30
0.0
 11
318.41450419379294
 21
358.70706095882514
 31
0.0
  0
LINE
  5
EF
100
AcDbEntity
  8
0
  6
Continuous
 62
               7
100
AcDbLine
 10
324.35302716216449
 20
356.31249524577237
 30
0.0
 11
318.98919996492566
 21
356.79140838838288
 31
0.0
  0
LINE
  5
F0
100
AcDbEntity
  8
0
  6
Continuous
 62
               7
100
AcDbLine
 10
324.92772293329722
 20
354.39684267533011
 30
0.0
 11
319.56389573605827
 21
354.87575581794061
 31
0.0
  0
LINE
  5
F1
100
AcDbEntity
  8
0
  6
Continuous
 62
               7
100
AcDbLine
 10
325.50241870442983
 20
352.48119010488784
 30
0.0
 11
320.13859150719099
 21
352.96010324749813
 31
0.0
  0
LINE
  5
F2
100
AcDbEntity
  8
0
  6
Continuous
 62
               7
100
AcDbLine
 10
326.07711447556244
 20
350.56553753444558
 30
0.0
 11
322.85881815721893
 21
350.85288542001189
 31
0.0
  0
LINE
  5
F3
100
AcDbEntity
  8
0
  6
Continuous
 62
               7
100
AcDbLine
 10
323.63465744824805
 20
343.04660119545923
 30
0.0
 11
321.24966999804741
 21
350.99655936279504
 31
0.0
  0
LINE
  5
F4
100
AcDbEntity
  8
0
  6
Continuous
 62
               7
100
AcDbLine
 10
322.85881815721899
 20
350.85288542001166
 30
0.0
 11
321.55138527789234
 21
351.55688773964943
 31
0.0
  0
LINE
  5
F5
100
AcDbEntity
  8
0
  6
Continuous
 62
               7
100
AcDbLine
 10
321.24966999804741
 20
350.99655936279504
 30
0.0
 11
321.55138527789234
 21
351.55688773964943
 31
0.0
  0
LINE
  5
F6
100
AcDbEntity
  8
0
  6
Continuous
 62
               7
100
AcDbLine
 10
321.24966999804741
 20
350.99655936279504
 30
0.0
 11
320.71328727832361
 21
351.04445067705586
 31
0.0
  0
LINE
  5
F7
100
AcDbEntity
  8
0
  6
Continuous
 62
               7
100
AcDbLine
 10
323.29941824842058
 20
342.42401411006557
 30
0.0
 11
323.63465744824805
 21
343.04660119545923
 31
0.0
  0
LINE
  5
F8
100
AcDbEntity
  8
0
  6
Continuous
 62
               7
100
AcDbLine
 10
336.76778598493769
 20
363.04815781256747
 30
0.0
 11
331.40395878769925
 21
363.5270709551782
 31
0.0
  0
LINE
  5
F9
100
AcDbEntity
  8
0
  6
Continuous
 62
               7
100
AcDbLine
 10
337.34248175607041
 20
361.13250524212521
 30
0.0
 11
331.97865455883186
 21
361.61141838473617
 31
0.0
  0
LINE
  5
FA
100
AcDbEntity
  8
0
  6
Continuous
 62
               7
100
AcDbLine
 10
337.91717752720325
 20
359.21685267168294
 30
0.0
 11
332.55335032996464
 21
359.69576581429345
 31
0.0
  0
LINE
  5
FB
100
AcDbEntity
  8
0
  6
Continuous
 62
               7
100
AcDbLine
 10
338.49187329833592
 20
357.30120010124068
 30
0.0
 11
333.12804610109748
 21
357.78011324385142
 31
0.0
  0
LINE
  5
FC
100
AcDbEntity
  8
0
  6
Continuous
 62
               7
100
AcDbLine
 10
339.06656906946858
 20
355.38554753079842
 30
0.0
 11
333.70274187223009
 21
355.86446067340893
 31
0.0
  0
LINE
  5
FD
100
AcDbEntity
  8
0
  6
Continuous
 62
               7
100
AcDbLine
 10
339.6412648406012
 20
353.46989496035616
 30
0.0
 11
336.42296852225786
 21
353.75724284592269
 31
0.0
  0
LINE
  5
FE
100
AcDbEntity
  8
0
  6
Continuous
 62
               7
100
AcDbLine
 10
337.19880781328715
 20
345.95095862137003
 30
0.0
 11
334.81382036308639
 21
353.90091678870584
 31
0.0
  0
LINE
  5
FF
100
AcDbEntity
  8
0
  6
Continuous
 62
               7
100
AcDbLine
 10
336.42296852225792
 20
353.75724284592246
 30
0.0
 11
335.11553564293109
 21
354.46124516556023
 31
0.0
  0
LINE
  5
100
100
AcDbEntity
  8
0
  6
Continuous
 62
               7
100
AcDbLine
 10
334.81382036308639
 20
353.90091678870584
 30
0.0
 11
335.11553564293109
 21
354.46124516556023
 31
0.0
  0
LINE
  5
101
100
AcDbEntity
  8
0
  6
Continuous
 62
               7
100
AcDbLine
 10
334.81382036308639
 20
353.90091678870584
 30
0.0
 11
334.27743764336276
 21
353.94880810296667
 31
0.0
  0
LINE
  5
102
100
AcDbEntity
  8
0
  6
Continuous
 62
               7
100
AcDbLine
 10
336.86356861345973
 20
345.32837153597637
 30
0.0
 11
337.19880781328715
 21
345.95095862137003
 31
0.0
  0
LINE
  5
103
100
AcDbEntity
  8
0
  6
Continuous
 62
               7
100
AcDbLine
 10
323.29941824841876
 20
342.42401411006603
 30
0.0
 11
310.79978522628329
 21
384.08945751718528
 31
0.0
  0
LINE
  5
104
100
AcDbEntity
  8
0
  6
Continuous
 62
               7
100
AcDbLine
 10
326.12500578982292
 20
341.70564439614958
 30
0.0
 11
323.29941824841876
 21
342.42401411006603
 31
0.0
  0
LINE
  5
105
100
AcDbEntity
  8
0
  6
Continuous
 62
               7
100
AcDbLine
 10
328.08854967452521
 20
343.8607535378955
 30
0.0
 11
326.12500578982292
 21
341.70564439614958
 31
0.0
  0
LINE
  5
106
100
AcDbEntity
  8
0
  6
Continuous
 62
               7
100
AcDbLine
 10
328.08854967452521
 20
343.8607535378955
 30
0.0
 11
315.588916652389
 21
385.52619694501703
 31
0.0
  0
LINE
  5
107
100
AcDbEntity
  8
0
  6
Continuous
 62
               7
100
AcDbLine
 10
336.8635686134574
 20
345.32837153597683
 30
0.0
 11
324.36393559132193
 21
386.99381494309608
 31
0.0
  0
LINE
  5
108
100
AcDbEntity
  8
0
  6
Continuous
 62
               7
100
AcDbLine
 10
339.68915615486208
 20
344.61000182206038
 30
0.0
 11
336.86356861345973
 21
345.32837153597637
 31
0.0
  0
LINE
  5
109
100
AcDbEntity
  8
0
  6
Continuous
 62
               7
100
AcDbLine
 10
341.65270003956402
 20
346.76511096380631
 30
0.0
 11
339.68915615486213
 21
344.61000182206038
 31
0.0
  0
LINE
  5
10A
100
AcDbEntity
  8
0
  6
Continuous
 62
               7
100
AcDbLine
 10
341.65270003956402
 20
346.76511096380631
 30
0.0
 11
329.15306701742776
 21
388.43055437092784
 31
0.0
  0
LINE
  5
10B
100
AcDbEntity
  8
0
  6
Continuous
 62
               7
100
AcDbLine
 10
322.0542440776353
 20
363.97510552754119
 30
0.0
 11
316.69041688039692
 21
364.4540186701517
 31
0.0
  0
LINE
  5
10C
100
AcDbEntity
  8
0
  6
Continuous
 62
               7
100
AcDbLine
 10
322.62893984876848
 20
362.05945295709893
 30
0.0
 11
317.26511265152953
 21
362.53836609970944
 31
0.0
  0
LINE
  5
10D
100
AcDbEntity
  8
0
  6
Continuous
 62
               7
100
AcDbLine
 10
335.61839444267423
 20
366.87946295345176
 30
0.0
 11
330.25456724543585
 21
367.3583760960625
 31
0.0
  0
LINE
  5
10E
100
AcDbEntity
  8
0
  6
Continuous
 62
               7
100
AcDbLine
 10
336.19309021380695
 20
364.9638103830095
 30
0.0
 11
330.82926301656846
 21
365.44272352562047
 31
0.0
  0
LINE
  5
10F
100
AcDbEntity
  8
0
  6
Continuous
 62
               7
100
AcDbLine
 10
320.9048525353719
 20
367.80641066842549
 30
0.0
 11
315.54102533813347
 21
368.28532381103599
 31
0.0
  0
LINE
  5
110
100
AcDbEntity
  8
0
  6
Continuous
 62
               7
100
AcDbLine
 10
321.47954830650502
 20
365.89075809798322
 30
0.0
 11
316.11572110926608
 21
366.36967124059373
 31
0.0
  0
LINE
  5
111
100
AcDbEntity
  8
0
  6
Continuous
 62
               7
100
AcDbLine
 10
334.46900290041083
 20
370.71076809433606
 30
0.0
 11
329.10517570317245
 21
371.1896812369468
 31
0.0
  0
LINE
  5
112
100
AcDbEntity
  8
0
  6
Continuous
 62
               7
100
AcDbLine
 10
335.04369867154355
 20
368.7951155238938
 30
0.0
 11
329.679871474305
 21
369.27402866650476
 31
0.0
  0
LINE
  5
113
100
AcDbEntity
  8
0
  6
Continuous
 62
               7
100
AcDbLine
 10
319.75546099310844
 20
371.63771580930978
 30
0.0
 11
314.39163379587001
 21
372.11662895192029
 31
0.0
  0
LINE
  5
114
100
AcDbEntity
  8
0
  6
Continuous
 62
               7
100
AcDbLine
 10
320.33015676424156
 20
369.72206323886752
 30
0.0
 11
314.96632956700262
 21
370.20097638147803
 31
0.0
  0
LINE
  5
115
100
AcDbEntity
  8
0
  6
Continuous
 62
               7
100
AcDbLine
 10
333.31961135814743
 20
374.54207323522036
 30
0.0
 11
327.95578416090899
 21
375.02098637783109
 31
0.0
  0
LINE
  5
116
100
AcDbEntity
  8
0
  6
Continuous
 62
               7
100
AcDbLine
 10
333.89430712928015
 20
372.6264206647781
 30
0.0
 11
328.53047993204154
 21
373.10533380738906
 31
0.0
  0
LINE
  5
117
100
AcDbEntity
  8
0
  6
Continuous
 62
               7
100
AcDbLine
 10
318.60606945084498
 20
375.46902095019408
 30
0.0
 11
313.24224225360661
 21
375.94793409280459
 31
0.0
  0
LINE
  5
118
100
AcDbEntity
  8
0
  6
Continuous
 62
               7
100
AcDbLine
 10
319.18076522197816
 20
373.55336837975182
 30
0.0
 11
313.81693802473922
 21
374.03228152236233
 31
0.0
  0
LINE
  5
119
100
AcDbEntity
  8
0
  6
Continuous
 62
               7
100
AcDbLine
 10
332.17021981588397
 20
378.37337837610465
 30
0.0
 11
326.80639261864553
 21
378.85229151871539
 31
0.0
  0
LINE
  5
11A
100
AcDbEntity
  8
0
  6
Continuous
 62
               7
100
AcDbLine
 10
332.74491558701669
 20
376.45772580566239
 30
0.0
 11
327.38108838977814
 21
376.93663894827336
 31
0.0
  0
LINE
  5
11B
100
AcDbEntity
  8
0
  6
Continuous
 62
               7
100
AcDbLine
 10
317.45667790858158
 20
379.30032609107838
 30
0.0
 11
312.09285071134315
 21
379.77923923368888
 31
0.0
  0
LINE
  5
11C
100
AcDbEntity
  8
0
  6
Continuous
 62
               7
100
AcDbLine
 10
318.0313736797147
 20
377.38467352063611
 30
0.0
 11
312.66754648247576
 21
377.86358666324662
 31
0.0
  0
LINE
  5
11D
100
AcDbEntity
  8
0
  6
Continuous
 62
               7
100
AcDbLine
 10
331.02082827362051
 20
382.20468351698895
 30
0.0
 11
325.65700107638213
 21
382.68359665959969
 31
0.0
  0
LINE
  5
11E
100
AcDbEntity
  8
0
  6
Continuous
 62
               7
100
AcDbLine
 10
331.59552404475323
 20
380.28903094654669
 30
0.0
 11
326.23169684751468
 21
380.76794408915765
 31
0.0
  0
LINE
  5
11F
100
AcDbEntity
  8
0
  6
Continuous
 62
               4
100
AcDbLine
 10
372.99707044322378
 20
309.25059458738951
 30
0.0
 11
386.37532644058552
 21
302.04691828111754
 31
0.0
  0
LINE
  5
120
100
AcDbEntity
  8
0
  6
Continuous
 62
               4
100
AcDbLine
 10
478.87121476772285
 20
434.19874986836197
 30
0.0
 11
411.82337480223958
 21
309.6813327896125
 31
0.0
  0
LINE
  5
121
100
AcDbEntity
  8
0
  6
Continuous
 62
               4
100
AcDbLine
 10
465.32550553815059
 20
430.13503709949026
 30
0.0
 11
398.27766557266762
 21
305.6176200207409
 31
0.0
  0
LINE
  5
122
100
AcDbEntity
  8
0
  6
Continuous
 62
               4
100
AcDbLine
 10
451.77979630857834
 20
426.07132433061878
 30
0.0
 11
384.73195634309513
 21
301.55390725186976
 31
0.0
  0
LINE
  5
123
100
AcDbEntity
  8
0
  6
Continuous
 62
               4
100
AcDbLine
 10
492.41692399729493
 20
438.26246263723345
 30
0.0
 11
425.36908403181206
 21
313.74504555848375
 31
0.0
  0
LINE
  5
124
100
AcDbEntity
  8
0
  6
Continuous
 62
               4
100
AcDbLine
 10
438.23408707900654
 20
422.00761156174752
 30
0.0
 11
374.61492633619525
 21
303.85774161081758
 31
0.0
  0
LINE
  5
125
100
AcDbEntity
  8
0
  6
Continuous
 62
               4
100
AcDbLine
 10
505.96263322686741
 20
442.32617540610516
 30
0.0
 11
438.91479326138403
 21
317.80875832735535
 31
0.0
  0
LINE
  5
126
100
AcDbEntity
  8
0
  6
Continuous
 62
               4
100
AcDbLine
 10
533.05405168601192
 20
450.45360094384836
 30
0.0
 11
466.00621172052843
 21
325.9361838650982
 31
0.0
  0
LINE
  5
127
100
AcDbEntity
  8
0
  6
Continuous
 62
               4
100
AcDbLine
 10
519.50834245643978
 20
446.38988817497665
 30
0.0
 11
452.46050249095646
 21
321.8724710962266
 31
0.0
  0
LINE
  5
128
100
AcDbEntity
  8
0
  6
Continuous
 62
               4
100
AcDbLine
 10
397.31500165755921
 20
409.73188593531353
 30
0.0
 11
521.83241873630755
 21
342.68404596983163
 31
0.0
  0
LINE
  5
129
100
AcDbEntity
  8
0
  6
Continuous
 62
               4
100
AcDbLine
 10
383.76929242798724
 20
405.66817316644205
 30
0.0
 11
508.28670950673535
 21
338.62033320096015
 31
0.0
  0
LINE
  5
12A
100
AcDbEntity
  8
0
  6
Continuous
 62
               4
100
AcDbLine
 10
560.14547014515654
 20
458.58102648159132
 30
0.0
 11
493.09763017967288
 21
334.06360940284111
 31
0.0
  0
LINE
  5
12B
100
AcDbEntity
  8
0
  6
Continuous
 62
               4
100
AcDbLine
 10
546.59976091558428
 20
454.51731371271984
 30
0.0
 11
479.55192095010085
 21
329.99989663396946
 31
0.0
  0
LINE
  5
12C
100
AcDbEntity
  8
0
  6
Continuous
 62
               4
100
AcDbLine
 10
424.40642011670326
 20
417.85931147305649
 30
0.0
 11
548.92383719545182
 21
350.81147150757437
 31
0.0
  0
LINE
  5
12D
100
AcDbEntity
  8
0
  6
Continuous
 62
               4
100
AcDbLine
 10
410.86071088713146
 20
413.79559870418501
 30
0.0
 11
535.37812796587968
 21
346.74775873870288
 31
0.0
  0
LINE
  5
12E
100
AcDbEntity
  8
0
  6
Continuous
 62
               4
100
AcDbLine
 10
587.23688860430104
 20
466.70845201933452
 30
0.0
 11
520.18904863881721
 21
342.19103494058385
 31
0.0
  0
LINE
  5
12F
100
AcDbEntity
  8
0
  6
Continuous
 62
               4
100
AcDbLine
 10
573.6911793747289
 20
462.64473925046281
 30
0.0
 11
506.64333940924524
 21
338.12732217171214
 31
0.0
  0
LINE
  5
130
100
AcDbEntity
  8
0
  6
Continuous
 62
               4
100
AcDbLine
 10
451.49783857584703
 20
425.98673701079946
 30
0.0
 11
576.01525565459633
 21
358.93889704531711
 31
0.0
  0
LINE
  5
131
100
AcDbEntity
  8
0
  6
Continuous
 62
               4
100
AcDbLine
 10
437.95212934627529
 20
421.92302424192798
 30
0.0
 11
562.46954642502419
 21
354.87518427644585
 31
0.0
  0
LINE
  5
132
100
AcDbEntity
  8
0
  6
Continuous
 62
               4
100
AcDbLine
 10
614.32830706344566
 20
474.83587755707771
 30
0.0
 11
547.28046709796172
 21
350.31846047832659
 31
0.0
  0
LINE
  5
133
100
AcDbEntity
  8
0
  6
Continuous
 62
               4
100
AcDbLine
 10
600.78259783387341
 20
470.772164788206
 30
0.0
 11
533.73475786838958
 21
346.2547477094551
 31
0.0
  0
LINE
  5
134
100
AcDbEntity
  8
0
  6
Continuous
 62
               4
100
AcDbLine
 10
478.58925703499108
 20
434.11416254854242
 30
0.0
 11
603.10667411374072
 21
367.06632258306007
 31
0.0
  0
LINE
  5
135
100
AcDbEntity
  8
0
  6
Continuous
 62
               4
100
AcDbLine
 10
465.04354780541934
 20
430.05044977967094
 30
0.0
 11
589.56096488416847
 21
363.00260981418859
 31
0.0
  0
LINE
  5
136
100
AcDbEntity
  8
0
  6
Continuous
 62
               4
100
AcDbLine
 10
505.68067549413524
 20
442.24158808628539
 30
0.0
 11
630.19809257288512
 21
375.19374812080281
 31
0.0
  0
LINE
  5
137
100
AcDbEntity
  8
0
  6
Continuous
 62
               4
100
AcDbLine
 10
492.13496626456384
 20
438.17787531741413
 30
0.0
 11
616.65238334331286
 21
371.13003535193155
 31
0.0
  0
LINE
  5
138
100
AcDbEntity
  8
0
  6
Continuous
 62
               4
100
AcDbLine
 10
519.22638472370795
 20
446.3053008551571
 30
0.0
 11
643.74380180245726
 21
379.25746088967429
 31
0.0
  0
LINE
  5
139
100
AcDbEntity
  8
0
  6
Continuous
 62
               4
100
AcDbLine
 10
532.77209395327986
 20
450.36901362402858
 30
0.0
 11
652.14580701390173
 21
386.09086043753763
 31
0.0
  0
LINE
  5
13A
100
AcDbEntity
  8
0
  6
Continuous
 62
               4
100
AcDbLine
 10
399.92103567015766
 20
306.1106310499888
 30
0.0
 11
368.93335767435235
 21
322.79630381696154
 31
0.0
  0
LINE
  5
13B
100
AcDbEntity
  8
0
  6
Continuous
 62
               4
100
AcDbLine
 10
364.86964490548098
 20
336.34201304653351
 30
0.0
 11
413.4667448997298
 21
310.17434381886017
 31
0.0
  0
LINE
  5
13C
100
AcDbEntity
  8
0
  6
Continuous
 62
               4
100
AcDbLine
 10
356.74221936773807
 20
363.43343150567779
 30
0.0
 11
440.5581633588742
 21
318.30176935660302
 31
0.0
  0
LINE
  5
13D
100
AcDbEntity
  8
0
  6
Continuous
 62
               4
100
AcDbLine
 10
360.8059321366095
 20
349.88772227610565
 30
0.0
 11
427.01245412930206
 21
314.23805658773165
 31
0.0
  0
LINE
  5
13E
100
AcDbEntity
  8
0
  6
Continuous
 62
               4
100
AcDbLine
 10
352.6785065988667
 20
376.9791407352497
 30
0.0
 11
454.10387258844651
 21
322.3654821254745
 31
0.0
  0
LINE
  5
13F
100
AcDbEntity
  8
0
  6
Continuous
 62
               4
100
AcDbLine
 10
348.61479382999528
 20
390.52484996482184
 30
0.0
 11
467.64958181801865
 21
326.42919489434587
 31
0.0
  0
LINE
  5
140
100
AcDbEntity
  8
0
  6
Continuous
 62
               4
100
AcDbLine
 10
494.74100027716304
 20
334.55662043208866
 30
0.0
 11
370.22358319841504
 21
401.60446039757056
 31
0.0
  0
LINE
  5
141
100
AcDbEntity
  8
0
  6
Continuous
 62
               4
100
AcDbLine
 10
481.19529104759084
 20
330.49290766321741
 30
0.0
 11
356.6778739688433
 21
397.54074762869908
 31
0.0
  0
LINE
  5
142
100
AcDbEntity
  8
0
  6
Continuous
 62
               4
100
AcDbLine
 10
370.55121356732371
 20
317.40345084039006
 30
0.0
 11
424.68837784943474
 21
417.94389879287604
 31
0.0
  0
LINE
  5
143
100
AcDbEntity
  8
0
  6
Continuous
 62
               4
100
AcDbLine
 10
411.14266861986209
 20
413.88018602400433
 30
0.0
 11
366.48750079845223
 21
330.94916006996249
 31
0.0
  0
LINE
  5
144
100
AcDbEntity
  8
0
  6
Continuous
 62
               4
100
AcDbLine
 10
397.5969593902895
 20
409.81647325513262
 30
0.0
 11
362.42378802958081
 21
344.49486929953463
 31
0.0
  0
LINE
  5
145
100
AcDbEntity
  8
0
  6
Continuous
 62
               4
100
AcDbLine
 10
384.05125016071679
 20
405.75276048626091
 30
0.0
 11
358.36007526070932
 21
358.04057852910699
 31
0.0
  0
LINE
  5
146
100
AcDbEntity
  8
0
  6
Continuous
 62
               4
100
AcDbLine
 10
370.5055409311442
 20
401.6890477173892
 30
0.0
 11
354.2963624918379
 21
371.58628775867936
 31
0.0
  0
LINE
  5
147
100
AcDbEntity
  8
0
  6
Continuous
 62
               4
100
AcDbLine
 10
356.95983170157155
 20
397.62533494851772
 30
0.0
 11
350.23264972296641
 21
385.13199698825173
 31
0.0
  0
LINE
  5
148
100
AcDbEntity
  8
0
  6
Continuous
 62
               4
100
AcDbLine
 10
628.55472247539478
 20
374.70073709155525
 30
0.0
 11
645.89938768604782
 21
406.91225819705204
 31
0.0
  0
LINE
  5
149
100
AcDbEntity
  8
0
  6
Continuous
 62
               4
100
AcDbLine
 10
629.644536610562
 20
461.0950951153406
 30
0.0
 11
574.371885557106
 21
358.44588601606955
 31
0.0
  0
LINE
  5
14A
100
AcDbEntity
  8
0
  6
Continuous
 62
               4
100
AcDbLine
 10
625.58082384169052
 20
474.64080434491274
 30
0.0
 11
560.82617632753409
 21
354.38217324719784
 31
0.0
  0
LINE
  5
14B
100
AcDbEntity
  8
0
  6
Continuous
 62
               4
100
AcDbLine
 10
637.77196214830497
 20
434.00367665619609
 30
0.0
 11
601.46330401625039
 21
366.57331155381229
 31
0.0
  0
LINE
  5
14C
100
AcDbEntity
  8
0
  6
Continuous
 62
               4
100
AcDbLine
 10
633.70824937943348
 20
447.54938588576846
 30
0.0
 11
587.91759478667836
 21
362.50959878494081
 31
0.0
  0
LINE
  5
14D
100
AcDbEntity
  8
0
  6
Continuous
 62
               4
100
AcDbLine
 10
641.83567491717645
 20
420.45796742662418
 30
0.0
 11
615.00901324582287
 21
370.63702432268354
 31
0.0
  0
LINE
  5
14E
100
AcDbEntity
  8
0
  6
Continuous
 62
               4
100
AcDbLine
 10
546.31780318285246
 20
454.43272639290007
 30
0.0
 11
648.08209424503025
 21
399.63656966710977
 31
0.0
  0
LINE
  5
14F
100
AcDbEntity
  8
0
  6
Continuous
 62
               4
100
AcDbLine
 10
644.01838147615899
 20
413.18227889668191
 30
0.0
 11
559.8635124124246
 21
458.49643916177155
 31
0.0
  0
LINE
  5
150
100
AcDbEntity
  8
0
  6
Continuous
 62
               4
100
AcDbLine
 10
639.95466870728751
 20
426.72798812625405
 30
0.0
 11
573.40922164199662
 21
462.5601519306428
 31
0.0
  0
LINE
  5
151
100
AcDbEntity
  8
0
  6
Continuous
 62
               4
100
AcDbLine
 10
635.89095593841603
 20
440.27369735582619
 30
0.0
 11
586.95493087156865
 21
466.62386469951429
 31
0.0
  0
LINE
  5
152
100
AcDbEntity
  8
0
  6
Continuous
 62
               4
100
AcDbLine
 10
631.82724316954454
 20
453.8194065853981
 30
0.0
 11
600.50064010114068
 21
470.68757746838554
 31
0.0
  0
LINE
  5
153
100
AcDbEntity
  8
0
  6
Continuous
 62
               4
100
AcDbLine
 10
627.76353040067318
 20
467.36511581497024
 30
0.0
 11
614.04634933071281
 21
474.75129023725702
 31
0.0
  0
LINE
  5
154
100
AcDbEntity
  8
0
  6
Continuous
 62
               4
100
AcDbLine
 10
423.76690043593669
 20
531.17256704205056
 30
0.0
 11
331.03129346122614
 21
531.17256704205033
 31
0.0
  0
LINE
  5
155
100
AcDbEntity
  8
0
  6
Continuous
 62
               4
100
AcDbLine
 10
432.427154473781
 20
516.17256704205056
 30
0.0
 11
331.03129346122614
 21
516.17256704205056
 31
0.0
  0
LINE
  5
156
100
AcDbEntity
  8
0
  6
Continuous
 62
               4
100
AcDbLine
 10
331.03129346122614
 20
546.17256704205033
 30
0.0
 11
415.10664639809238
 21
546.17256704205056
 31
0.0
  0
LINE
  5
157
100
AcDbEntity
  8
0
  6
Continuous
 62
               4
100
AcDbLine
 10
406.44639236024813
 20
561.17256704205033
 30
0.0
 11
537.4247670789382
 21
334.31136733648299
 31
0.0
  0
LINE
  5
158
100
AcDbEntity
  8
0
  6
Continuous
 62
               4
100
AcDbLine
 10
406.44639236024813
 20
561.17256704205033
 30
0.0
 11
331.03129346122614
 21
561.17256704205033
 31
0.0
  0
LINE
  5
159
100
AcDbEntity
  8
0
  6
Continuous
 62
               4
100
AcDbLine
 10
714.78679656440374
 20
21.213203435595801
 30
0.0
 11
714.78679656440374
 21
41.213203435595801
 31
0.0
  0
LINE
  5
15A
100
AcDbEntity
  8
0
  6
Continuous
 62
               4
100
AcDbLine
 10
864.78679656440374
 20
21.213203435595801
 30
0.0
 11
714.78679656440374
 21
21.213203435595801
 31
0.0
  0
LINE
  5
15B
100
AcDbEntity
  8
0
  6
Continuous
 62
               4
100
AcDbLine
 10
864.78679656440374
 20
41.213203435595801
 30
0.0
 11
864.78679656440374
 21
21.213203435595801
 31
0.0
  0
LINE
  5
15C
100
AcDbEntity
  8
0
  6
Continuous
 62
               4
100
AcDbLine
 10
864.78679656440374
 20
41.213203435595801
 30
0.0
 11
714.78679656440374
 21
41.213203435595801
 31
0.0
  0
LINE
  5
15D
100
AcDbEntity
  8
0
  6
Continuous
 62
               4
100
AcDbLine
 10
14.142135623730949
 20
595.85786437626837
 30
0.0
 11
14.142135623730949
 21
615.85786437626837
 31
0.0
  0
LINE
  5
15E
100
AcDbEntity
  8
0
  6
Continuous
 62
               4
100
AcDbLine
 10
164.14213562373095
 20
595.85786437626837
 30
0.0
 11
14.142135623730949
 21
595.85786437626837
 31
0.0
  0
LINE
  5
15F
100
AcDbEntity
  8
0
  6
Continuous
 62
               4
100
AcDbLine
 10
164.14213562373095
 20
615.85786437626837
 30
0.0
 11
164.14213562373095
 21
595.85786437626837
 31
0.0
  0
LINE
  5
160
100
AcDbEntity
  8
0
  6
Continuous
 62
               4
100
AcDbLine
 10
164.14213562373095
 20
615.85786437626837
 30
0.0
 11
14.142135623730949
 21
615.85786437626837
 31
0.0
  0
CIRCLE
  5
161
100
AcDbEntity
  8
0
  6
Continuous
 62
               4
100
AcDbCircle
 10
671.57940636693252
 20
383.95403498089917
 30
0.0
 40
1.500000000000002
  0
CIRCLE
  5
162
100
AcDbEntity
  8
0
  6
Continuous
 62
               4
100
AcDbCircle
 10
676.75166830712647
 20
366.71316184691835
 30
0.0
 40
1.500000000000002
  0
CIRCLE
  5
163
100
AcDbEntity
  8
0
  6
Continuous
 62
               4
100
AcDbCircle
 10
248.98081223992247
 20
443.5339279268548
 30
0.0
 40
1.500000000000002
  0
CIRCLE
  5
164
100
AcDbEntity
  8
0
  6
Continuous
 62
               4
100
AcDbCircle
 10
268.13733794434563
 20
449.28088563818136
 30
0.0
 40
1.500000000000002
  0
CIRCLE
  5
165
100
AcDbEntity
  8
0
  6
Continuous
 62
               4
100
AcDbCircle
 10
628.0462017036333
 20
529.06471719190404
 30
0.0
 40
1.500000000000002
  0
CIRCLE
  5
166
100
AcDbEntity
  8
0
  6
Continuous
 62
               4
100
AcDbCircle
 10
640.97685655411829
 20
485.96253435695183
 30
0.0
 40
1.500000000000002
  0
CIRCLE
  5
167
100
AcDbEntity
  8
0
  6
Continuous
 62
               4
100
AcDbCircle
 10
641.8389002108172
 20
483.08905550128878
 30
0.0
 40
1.500000000000002
  0
CIRCLE
  5
168
100
AcDbEntity
  8
0
  6
Continuous
 62
               4
100
AcDbCircle
 10
670.57368876745056
 20
387.30642697917318
 30
0.0
 40
1.500000000000002
  0
CIRCLE
  5
169
100
AcDbEntity
  8
0
  6
Continuous
 62
               4
100
AcDbCircle
 10
228.58408798709948
 20
361.87861629947969
 30
0.0
 40
1.5
  0
CIRCLE
  5
16A
100
AcDbEntity
  8
0
  6
Continuous
 62
               4
100
AcDbCircle
 10
240.07800340975299
 20
323.56556489063348
 30
0.0
 40
1.5
  0
CIRCLE
  5
16B
100
AcDbEntity
  8
0
  6
Continuous
 62
               4
100
AcDbCircle
 10
537.42476707893832
 20
334.31136733648299
 30
0.0
 40
1.5
  0
CIRCLE
  5
16C
100
AcDbEntity
  8
0
  6
Continuous
 62
               4
100
AcDbCircle
 10
532.28694942692721
 20
343.21032854979052
 30
0.0
 40
1.5
  0
CIRCLE
  5
16D
100
AcDbEntity
  8
0
  6
Continuous
 62
               4
100
AcDbCircle
 10
478.0829731982115
 20
437.09436935018215
 30
0.0
 40
1.5
  0
CIRCLE
  5
16E
100
AcDbEntity
  8
0
  6
Continuous
 62
               4
100
AcDbCircle
 10
505.31340675387003
 20
389.92987491965295
 30
0.0
 40
1.5
  0
ARC
  5
16F
100
AcDbEntity
  8
0
  6
Continuous
 62
               6
100
AcDbCircle
 10
392.9804159600684
 20
279.18051564575609
 30
0.0
 40
2.2999999999999998
100
AcDbArc
 50
16.6992442339935
 51
106.69924423399382
  0
ARC
  5
170
100
AcDbEntity
  8
0
  6
Continuous
 62
               6
100
AcDbCircle
 10
349.49510261102819
 20
266.134921641044
 30
0.0
 40
2.2999999999999998
100
AcDbArc
 50
106.69924423399382
 51
196.6992442339938
  0
ARC
  5
171
100
AcDbEntity
  8
0
  6
Continuous
 62
               6
100
AcDbCircle
 10
376.90809089405764
 20
174.75829403094582
 30
0.0
 40
2.2999999999999998
100
AcDbArc
 50
196.69924423399351
 51
286.6992442339938
  0
ARC
  5
172
100
AcDbEntity
  8
0
  6
Continuous
 62
               6
100
AcDbCircle
 10
420.39340424309819
 20
187.80388803565791
 30
0.0
 40
2.2999999999999998
100
AcDbArc
 50
286.69924423399351
 51
16.6992442339935
  0
ARC
  5
173
100
AcDbEntity
  8
0
  6
Continuous
 62
               2
100
AcDbCircle
 10
337.77130887992155
 20
236.30821111925741
 30
0.0
 40
0.499999999999958
100
AcDbArc
 50
196.699244233988
 51
16.699244233995945
  0
ARC
  5
174
100
AcDbEntity
  8
0
  6
Continuous
 62
               2
100
AcDbCircle
 10
300.89997229443338
 20
341.81215555603711
 30
0.0
 40
0.499999999999958
100
AcDbArc
 50
196.699244233988
 51
16.699244233995945
  0
ARC
  5
175
100
AcDbEntity
  8
0
  6
Continuous
 62
               2
100
AcDbCircle
 10
270.10088182904821
 20
373.13369596309889
 30
0.0
 40
0.499999999999958
100
AcDbArc
 50
106.69924423399456
 51
286.69924423400204
  0
ARC
  5
176
100
AcDbEntity
  8
0
  6
Continuous
 62
               2
100
AcDbCircle
 10
270.10088182904821
 20
373.13369596309934
 30
0.0
 40
1.5000000000002249
100
AcDbArc
 50
106.69924423399611
 51
286.69924423399272
  0
ARC
  5
177
100
AcDbEntity
  8
0
  6
Continuous
 62
               7
100
AcDbCircle
 10
373.04446735619058
 20
265.33548369938978
 30
0.0
 40
30.0
100
AcDbArc
 50
1.5620294067006546
 51
19.69154624686853
  0
ARC
  5
178
100
AcDbEntity
  8
0
  6
Continuous
 62
               7
100
AcDbCircle
 10
352.00443065111216
 20
357.96156127109606
 30
0.0
 40
30.0
100
AcDbArc
 50
193.70694222111686
 51
211.83645906128467
  0
ARC
  5
179
100
AcDbEntity
  8
0
  6
Continuous
 62
               7
100
AcDbCircle
 10
365.56858101615109
 20
360.86591869700663
 30
0.0
 40
30.0
100
AcDbArc
 50
193.70694222111686
 51
211.83645906128467
  0
TEXT
  5
17A
100
AcDbEntity
  8
0
 62
               7
100
AcDbText
 10
672.44145002363143
 20
381.0805561252356
 30
0.0
 40
12.000000000000064
  1
18
 50
286.69924423399283
 41
0.7695
  7
FontTableH_0
 72
               5
 11
675.88962465042744
 21
369.58664070258169
 31
0.0
100
AcDbText
  0
TEXT
  5
17B
100
AcDbEntity
  8
0
 62
               7
100
AcDbText
 10
252.81211738080714
 20
444.68331946912008
 30
0.0
 40
12.000000000000064
  1
20
 50
16.699244233992872
 41
0.7695
  7
FontTableH_0
 72
               5
 11
264.30603280346105
 21
448.13149409591608
 31
0.0
100
AcDbText
  0
TEXT
  5
17C
100
AcDbEntity
  8
0
 62
               7
100
AcDbText
 10
632.78744181547779
 20
513.26058348575486
 30
0.0
 40
12.000000000000064
  1
45
 50
286.69924423399283
 41
0.7695
  7
FontTableH_0
 72
               5
 11
636.23561644227379
 21
501.76666806310095
 31
0.0
100
AcDbText
  0
TEXT
  5
17D
100
AcDbEntity
  8
0
 62
               7
100
AcDbText
 10
653.62016351903685
 20
443.81817780722145
 30
0.0
 40
12.000000000000114
  1
100
 50
286.69924423399351
 41
0.7695
  7
FontTableH_0
 72
               5
 11
658.79242545923103
 21
426.57730467324075
 31
0.0
100
AcDbText
  0
TEXT
  5
17E
100
AcDbEntity
  8
0
 62
               7
100
AcDbText
 10
247.36969480905449
 20
213.19525131842579
 30
0.0
 40
12.000000000000012
  1
補強材
 41
0.7695
  7
FontTableH_0
 72
               5
 11
283.36969480905464
 21
213.19525131842579
 31
0.0
100
AcDbText
  0
TEXT
  5
17F
100
AcDbEntity
  8
0
 62
               7
100
AcDbText
 10
254.89846296407825
 20
184.60129182822692
 30
0.0
 40
12.000000000000098
  1
水切り
 41
0.7695
  7
FontTableH_0
 72
               5
 11
290.89846296407831
 21
184.60129182822692
 31
0.0
100
AcDbText
  0
TEXT
  5
180
100
AcDbEntity
  8
0
 62
               7
100
AcDbText
 10
231.2960252804971
 20
297.10967597959359
 30
0.0
 40
12.000000000000012
  1
唐草
 41
0.7695
  7
FontTableH_0
 72
               5
 11
255.29602528049713
 21
297.10967597959359
 31
0.0
100
AcDbText
  0
TEXT
  5
181
100
AcDbEntity
  8
0
 62
               7
100
AcDbText
 10
435.36438390817818
 20
239.94148051594351
 30
0.0
 40
12.000000000000098
  1
母屋（別途）
 41
0.7695
  7
FontTableH_0
 72
               5
 11
507.36438390817824
 21
239.94148051594351
 31
0.0
100
AcDbText
  0
TEXT
  5
182
100
AcDbEntity
  8
0
 62
               7
100
AcDbText
 10
233.93502852406698
 20
349.2643451540311
 30
0.0
 40
12.000000000000277
  1
40
 50
286.69926678879273
 41
0.7695
  7
FontTableH_0
 72
               5
 11
237.38320767550596
 21
337.77043108877109
 31
0.0
100
AcDbText
  0
TEXT
  5
183
100
AcDbEntity
  8
0
 62
               7
100
AcDbText
 10
331.03129346122614
 20
516.17256704205056
 30
0.0
 40
12.000000000000353
  1
野地板
 41
0.7695
  7
FontTableH_0
 72
               5
 11
367.0312934612262
 21
516.17256704205056
 31
0.0
100
AcDbText
  0
TEXT
  5
184
100
AcDbEntity
  8
0
 62
               7
100
AcDbText
 10
331.03129346122614
 20
531.17256704205033
 30
0.0
 40
12.000000000000012
  1
ルーフィング
 41
0.7695
  7
FontTableH_0
 72
               5
 11
403.0312934612262
 21
531.17256704205033
 31
0.0
100
AcDbText
  0
TEXT
  5
185
100
AcDbEntity
  8
0
 62
               7
100
AcDbText
 10
331.03129346122614
 20
546.17256704205033
 30
0.0
 40
12.000000000000012
  1
断熱材
 41
0.7695
  7
FontTableH_0
 72
               5
 11
367.0312934612262
 21
546.17256704205033
 31
0.0
100
AcDbText
  0
TEXT
  5
186
100
AcDbEntity
  8
0
 62
               7
100
AcDbText
 10
331.03129346122614
 20
561.17256704205056
 30
0.0
 40
12.000000000000012
  1
屋根本体
 41
0.7695
  7
FontTableH_0
 72
               5
 11
379.0312934612262
 21
561.17256704205056
 31
0.0
100
AcDbText
  0
TEXT
  5
187
100
AcDbEntity
  8
0
 62
               7
100
AcDbText
 10
66.642136219777342
 20
601.35786449547766
 30
0.0
 40
8.9999997615814422
  1
コブラ工法
 41
0.7695
  7
FontTableH_0
 72
               5
 11
111.64213502768456
 21
601.35786449547766
 31
0.0
100
AcDbText
  0
TEXT
  5
188
100
AcDbEntity
  8
0
 62
               7
100
AcDbText
 10
744.7867977564963
 20
26.71320355480508
 30
0.0
 40
8.9999997615814422
  1
軒先詳細図 【S=1/3】
 41
0.7695
  7
FontTableH_0
 72
               5
 11
834.78679537231073
 21
26.71320355480508
 31
0.0
100
AcDbText
  0
ENDSEC
  0
SECTION
  2
OBJECTS
  0
DICTIONARY
  5
19
100
AcDbDictionary
  3
ACAD_GROUP
350
1A
  3
ACAD_MLINESTYLE
350
1B
  3
DWGPROPS
350
189
  0
DICTIONARY
  5
1A
102
{ACAD_REACTORS
330
19
102
}
100
AcDbDictionary
  0
DICTIONARY
  5
1B
102
{ACAD_REACTORS
330
19
102
}
100
AcDbDictionary
  3
STANDARD
350
1C
  0
MLINESTYLE
  5
1C
102
{ACAD_REACTORS
330
1B
102
}
100
AcDbMlineStyle
  2
Standard
 70
               0
  3

 62
               0
 51
90.0
 52
90.0
 71
               2
 49
0.5
 62
             256
  6
ByLayer
 49
-0.5
 62
             256
  6
ByLayer
  0
XRECORD
  5
189
100
AcDbXrecord
  1
DWGPROPS COOKIE
  2

  3

  4

  6

  7

  0
ENDSEC
  0
EOF
