  0
SECTION
  2
HEADER
  9
$ACADVER
  1
AC1014
  9
$ACADMAINTVER
 70
               0
  9
$DWGCODEPAGE
  3
ANSI_932
  9
$INSBASE
 10
0.0
 20
0.0
 30
0.0
  9
$EXTMIN
 10
0.0
 20
0.0
 30
0.0
  9
$EXTMAX
 10
891.00000000000091
 20
630.00000000000068
 30
0.0
  9
$LIMMIN
 10
0.0
 20
0.0
  9
$LIMMAX
 10
891.00000000000091
 20
630.00000000000068
  9
$ORTHOMODE
 70
               0
  9
$REGENMODE
 70
               1
  9
$FILLMODE
 70
               1
  9
$QTEXTMODE
 70
               0
  9
$MIRRTEXT
 70
               1
  9
$DRAGMODE
 70
               2
  9
$LTSCALE
 40
3.0000000000000031
  9
$OSMODE
 70
               0
  9
$ATTMODE
 70
               1
  9
$TEXTSIZE
 40
0.2
  9
$TRACEWID
 40
0.05
  9
$TEXTSTYLE
  7
Standard
  9
$CLAYER
  8
0
  9
$CELTYPE
  6
Continuous
  9
$CECOLOR
 62
             256
  9
$CELTSCALE
 40
1.0
  9
$DELOBJ
 70
               1
  9
$DISPSILH
 70
               0
  9
$DIMSCALE
 40
1.0
  9
$DIMASZ
 40
0.18
  9
$DIMEXO
 40
0.0625
  9
$DIMDLI
 40
0.38
  9
$DIMRND
 40
0.0
  9
$DIMDLE
 40
0.0
  9
$DIMEXE
 40
0.18
  9
$DIMTP
 40
0.0
  9
$DIMTM
 40
0.0
  9
$DIMTXT
 40
0.18
  9
$DIMCEN
 40
0.09
  9
$DIMTSZ
 40
0.0
  9
$DIMTOL
 70
               0
  9
$DIMLIM
 70
               0
  9
$DIMTIH
 70
               1
  9
$DIMTOH
 70
               1
  9
$DIMSE1
 70
               0
  9
$DIMSE2
 70
               0
  9
$DIMTAD
 70
               0
  9
$DIMZIN
 70
               0
  9
$DIMBLK
  1

  9
$DIMASO
 70
               1
  9
$DIMSHO
 70
               1
  9
$DIMPOST
  1

  9
$DIMAPOST
  1

  9
$DIMALT
 70
               0
  9
$DIMALTD
 70
               2
  9
$DIMALTF
 40
25.399999999999999
  9
$DIMLFAC
 40
1.0
  9
$DIMTOFL
 70
               0
  9
$DIMTVP
 40
0.0
  9
$DIMTIX
 70
               0
  9
$DIMSOXD
 70
               0
  9
$DIMSAH
 70
               0
  9
$DIMBLK1
  1

  9
$DIMBLK2
  1

  9
$DIMSTYLE
  2
Standard
  9
$DIMCLRD
 70
               0
  9
$DIMCLRE
 70
               0
  9
$DIMCLRT
 70
               0
  9
$DIMTFAC
 40
1.0
  9
$DIMGAP
 40
0.09
  9
$DIMJUST
 70
               0
  9
$DIMSD1
 70
               0
  9
$DIMSD2
 70
               0
  9
$DIMTOLJ
 70
               1
  9
$DIMTZIN
 70
               0
  9
$DIMALTZ
 70
               0
  9
$DIMALTTZ
 70
               0
  9
$DIMFIT
 70
               3
  9
$DIMUPT
 70
               0
  9
$DIMUNIT
 70
               2
  9
$DIMDEC
 70
               4
  9
$DIMTDEC
 70
               4
  9
$DIMALTU
 70
               2
  9
$DIMALTTD
 70
               2
  9
$DIMTXSTY
  7
Standard
  9
$DIMAUNIT
 70
               0
  9
$LUNITS
 70
               2
  9
$LUPREC
 70
               4
  9
$SKETCHINC
 40
0.1
  9
$FILLETRAD
 40
0.0
  9
$AUNITS
 70
               0
  9
$AUPREC
 70
               0
  9
$MENU
  1
acad
  9
$ELEVATION
 40
0.0
  9
$PELEVATION
 40
0.0
  9
$THICKNESS
 40
0.0
  9
$LIMCHECK
 70
               0
  9
$BLIPMODE
 70
               1
  9
$CHAMFERA
 40
0.0
  9
$CHAMFERB
 40
0.0
  9
$CHAMFERC
 40
0.0
  9
$CHAMFERD
 40
0.0
  9
$SKPOLY
 70
               0
  9
$TDCREATE
 40
0.000000000
  9
$TDUPDATE
 40
0.000000000
  9
$TDINDWG
 40
0.0000000000
  9
$TDUSRTIMER
 40
0.0000000000
  9
$USRTIMER
 70
               1
  9
$ANGBASE
 50
0.0
  9
$ANGDIR
 70
               0
  9
$PDMODE
 70
               0
  9
$PDSIZE
 40
0.0
  9
$PLINEWID
 40
0.0
  9
$COORDS
 70
               0
  9
$SPLFRAME
 70
               0
  9
$SPLINETYPE
 70
               6
  9
$SPLINESEGS
 70
               8
  9
$ATTDIA
 70
               0
  9
$ATTREQ
 70
               1
  9
$HANDLING
 70
               1
  9
$HANDSEED
  5
119
  9
$SURFTAB1
 70
               6
  9
$SURFTAB2
 70
               6
  9
$SURFTYPE
 70
               6
  9
$SURFU
 70
               6
  9
$SURFV
 70
               6
  9
$UCSNAME
  2

  9
$UCSORG
 10
0.0
 20
0.0
 30
0.0
  9
$UCSXDIR
 10
1.0
 20
0.0
 30
0.0
  9
$UCSYDIR
 10
0.0
 20
1.0
 30
0.0
  9
$PUCSNAME
  2

  9
$PUCSORG
 10
0.0
 20
0.0
 30
0.0
  9
$PUCSXDIR
 10
1.0
 20
0.0
 30
0.0
  9
$PUCSYDIR
 10
0.0
 20
1.0
 30
0.0
  9
$USERI1
 70
               0
  9
$USERI2
 70
               0
  9
$USERI3
 70
               0
  9
$USERI4
 70
               0
  9
$USERI5
 70
               0
  9
$USERR1
 40
0.0
  9
$USERR2
 40
0.0
  9
$USERR3
 40
0.0
  9
$USERR4
 40
0.0
  9
$USERR5
 40
0.0
  9
$WORLDVIEW
 70
               1
  9
$SHADEDGE
 70
               3
  9
$SHADEDIF
 70
              70
  9
$TILEMODE
 70
               1
  9
$MAXACTVP
 70
              16
  9
$PINSBASE
 10
0.0
 20
0.0
 30
0.0
  9
$PLIMCHECK
 70
               0
  9
$PEXTMIN
 10
1.0000000000000000E+20
 20
1.0000000000000000E+20
 30
1.0000000000000000E+20
  9
$PEXTMAX
 10
-1.0000000000000000E+20
 20
-1.0000000000000000E+20
 30
-1.0000000000000000E+20
  9
$PLIMMIN
 10
0.0
 20
0.0
  9
$PLIMMAX
 10
12.0
 20
9.0
  9
$UNITMODE
 70
               0
  9
$VISRETAIN
 70
               0
  9
$PLINEGEN
 70
               1
  9
$PSLTSCALE
 70
               0
  9
$TREEDEPTH
 70
            3020
  9
$PICKSTYLE
 70
               1
  9
$CMLSTYLE
  2
Standard
  9
$CMLJUST
 70
               0
  9
$CMLSCALE
 40
1.0
  9
$PROXYGRAPHICS
 70
               0
  9
$MEASUREMENT
 70
               0
  0
ENDSEC
  0
SECTION
  2
CLASSES
  0
CLASS
  1
LWPOLYLINE
  2
AcDbPolyline
  3
"AutoCAD"
 90
        0
280
               0
281
               1
  0
CLASS
  1
IMAGE
  2
AcDbRasterImage
  3
ISM
 90
      127
280
               0
281
               1
  0
CLASS
  1
OLE2FRAME
  2
AcDbOle2Frame
  3
""
 90
        0
280
               0
281
               1
  0
CLASS
  1
HATCH
  2
AcDbHatch
  3
"ACAD_SEDONA"
 90
        0
280
               0
281
               1
  0
CLASS
  1
DICTIONARYVAR
  2
AcDbDictionaryVar
  3
"AutoCAD"
 90
        0
280
               0
281
               0
  0
CLASS
  1
RASTERVARIABLES
  2
AcDbRasterVariables
  3
ISM
 90
        0
280
               0
281
               0
  0
CLASS
  1
IMAGEDEF
  2
AcDbRasterImageDef
  3
ISM
 90
        0
280
               0
281
               0
  0
CLASS
  1
IMAGEDEF_REACTOR
  2
AcDbRasterImageDefReactor
  3
ISM
 90
        1
280
               0
281
               0
  0
CLASS
  1
IDBUFFER
  2
AcDbIdBuffer
  3
"Acad"
 90
        0
280
               0
281
               0
  0
CLASS
  1
SPATIAL_FILTER
  2
AcDbSpatialFilter
  3
"Acad"
 90
        0
280
               0
281
               0
  0
CLASS
  1
XRECORD
  2
AcDbXrecord
  3
"<Built In>"
 90
        0
280
               0
281
               0
  0
CLASS
  1
SORTENTSTABLE
  2
AcDbSortentsTable
  3
"AutoCAD"
 90
        0
280
               0
281
               0
  0
CLASS
  1
LAYER_INDEX
  2
AcDbLayerIndex
  3
"Acad"
 90
        0
280
               0
281
               0
  0
CLASS
  1
SPATIAL_INDEX
  2
AcDbSpatialIndex
  3
"Acad"
 90
        0
280
               0
281
               0
  0
CLASS
  1
OBJECT_PTR
  2
CAseDLPNTableRecord
  3
"ASE-LPNTableRecord"
 90
        1
280
               0
281
               0
  0
CLASS
  1
LAYOUT
  2
AcDbLayout
  3
"AutoCAD 2000"
 90
        0
280
               0
281
               0
  0
CLASS
  1
PLOTSETTINGS
  2
AcDbPlotSettings
  3
"AutoCAD 2000"
 90
        0
280
               0
281
               0
  0
CLASS
  1
ACDBDICTIONARYWDFLT
  2
AcDbDictionaryWithDefault
  3
"AutoCAD 2000"
 90
        0
280
               0
281
               0
  0
CLASS
  1
ACDBPLACEHOLDER
  2
AcDbPlaceHolder
  3
"AutoCAD 2000"
 90
        0
280
               0
281
               0
  0
CLASS
  1
VBA_PROJECT
  2
AcDbVbaProject
  3
"acadvba"
 90
        0
280
               0
281
               0
  0
CLASS
  1
WIPEOUT
  2
AcDbWipeout
  3
WipeOut|AutoCAD Express Tool|expresstools@autodesk.com
 90
      127
280
               0
281
               1
  0
CLASS
  1
WIPEOUTVARIABLES
  2
AcDbWipeoutVariables
  3
WipeOut|AutoCAD Express Tool|expresstools@autodesk.com
 90
        0
280
               0
281
               0
  0
CLASS
  1
RTEXT
  2
RText
  3
RText|AutoCAD Express Tool|expresstools@autodesk.com
 90
        0
280
               0
281
               1
  0
CLASS
  1
ARCALIGNEDTEXT
  2
AcDbArcAlignedText
  3
ATEXT|AutoCAD Express Tool|expresstools@autodesk.com
 90
        0
280
               0
281
               1
  0
ENDSEC
  0
SECTION
  2
TABLES
  0
TABLE
  2
VPORT
  5
7
100
AcDbSymbolTable
 70
               1
  0
VPORT
  5
15
100
AcDbSymbolTableRecord
100
AcDbViewportTableRecord
  2
*ACTIVE
 70
               0
 10
0.0
 20
0.0
 11
1.0
 21
1.0
 12
445.50000000000045
 22
315.00000000000034
 13
0.0
 23
0.0
 14
10.0
 24
10.0
 15
10.0
 25
10.0
 16
0.0
 26
0.0
 36
1.0
 17
0.0
 27
0.0
 37
0.0
 40
630.00000000000068
 41
1.4142857142857141
 42
50.0
 43
0.0
 44
0.0
 50
0.0
 51
0.0
 71
               0
 72
             100
 73
               1
 74
               1
 75
               0
 76
               0
 77
               0
 78
               0
  0
ENDTAB
  0
TABLE
  2
LTYPE
  5
4
100
AcDbSymbolTable
 70
              24
  0
LTYPE
  5
11
100
AcDbSymbolTableRecord
100
AcDbLinetypeTableRecord
  2
ByBlock
 70
              64
  3

 72
              65
 73
               0
 40
0.0
  0
LTYPE
  5
12
100
AcDbSymbolTableRecord
100
AcDbLinetypeTableRecord
  2
ByLayer
 70
              64
  3

 72
              65
 73
               0
 40
0.0
  0
LTYPE
  5
13
100
AcDbSymbolTableRecord
100
AcDbLinetypeTableRecord
  2
Continuous
 70
              64
  3
Solid line
 72
              65
 73
               0
 40
0.0
  0
LTYPE
  5
1D
100
AcDbSymbolTableRecord
100
AcDbLinetypeTableRecord
  2
DOT
 70
              64
  3
Dot . . . . . . . . . . . . . . . . . . . . . .
 72
              65
 73
               2
 40
6.3499999999999996
 49
0.35
 74
               0
 49
-6.0
 74
               0
  0
LTYPE
  5
1E
100
AcDbSymbolTableRecord
100
AcDbLinetypeTableRecord
  2
DASHED
 70
              64
  3
Dashed __ __ __ __ __ __ __ __ __ __ __ __ __ _
 72
              65
 73
               2
 40
12.699999999999999
 49
6.3499999999999996
 74
               0
 49
-6.3499999999999996
 74
               0
  0
LTYPE
  5
1F
100
AcDbSymbolTableRecord
100
AcDbLinetypeTableRecord
  2
DASHDOT
 70
              64
  3
Dash dot __ . __ . __ . __ . __ . __ . __ . __
 72
              65
 73
               4
 40
25.399999999999999
 49
12.699999999999999
 74
               0
 49
-6.0
 74
               0
 49
0.7
 74
               0
 49
-6.0
 74
               0
  0
LTYPE
  5
20
100
AcDbSymbolTableRecord
100
AcDbLinetypeTableRecord
  2
DIVIDE
 70
              64
  3
Divide ____ . . ____ . . ____ . . ____ . . ____
 72
              65
 73
               6
 40
31.75
 49
12.699999999999999
 74
               0
 49
-6.0
 74
               0
 49
0.875
 74
               0
 49
-6.0
 74
               0
 49
0.875
 74
               0
 49
-6.0
 74
               0
  0
LTYPE
  5
21
100
AcDbSymbolTableRecord
100
AcDbLinetypeTableRecord
  2
HIDDEN
 70
              64
  3
Hidden __ __ __ __ __ __ __ __ __ __ __ __ __ _
 72
              65
 73
               2
 40
9.5250000000000004
 49
6.3499999999999996
 74
               0
 49
-3.1749999999999998
 74
               0
  0
LTYPE
  5
22
100
AcDbSymbolTableRecord
100
AcDbLinetypeTableRecord
  2
CENTER
 70
              64
  3
Center ____ _ ____ _ ____ _ ____ _ ____ _ ____
 72
              65
 73
               4
 40
50.799999999999997
 49
31.75
 74
               0
 49
-6.3499999999999996
 74
               0
 49
6.3499999999999996
 74
               0
 49
-6.3499999999999996
 74
               0
  0
LTYPE
  5
23
100
AcDbSymbolTableRecord
100
AcDbLinetypeTableRecord
  2
PHANTOM
 70
              64
  3
Phantom ______  __  __  ______  __  __  ______
 72
              65
 73
               6
 40
63.5
 49
31.75
 74
               0
 49
-6.3499999999999996
 74
               0
 49
6.3499999999999996
 74
               0
 49
-6.3499999999999996
 74
               0
 49
6.3499999999999996
 74
               0
 49
-6.3499999999999996
 74
               0
  0
LTYPE
  5
24
100
AcDbSymbolTableRecord
100
AcDbLinetypeTableRecord
  2
ACAD_ISO02W100
 70
              64
  3
ISO dash __ __ __ __ __ __ __ __ __ __ __ __ __
 72
              65
 73
               2
 40
15.0
 49
12.0
 74
               0
 49
-3.0
 74
               0
  0
LTYPE
  5
25
100
AcDbSymbolTableRecord
100
AcDbLinetypeTableRecord
  2
ACAD_ISO03W100
 70
              64
  3
ISO dash space __ __ __ __ __ __ __ __ __ __ __ __ __ __
 72
              65
 73
               2
 40
30.0
 49
12.0
 74
               0
 49
-18.0
 74
               0
  0
LTYPE
  5
26
100
AcDbSymbolTableRecord
100
AcDbLinetypeTableRecord
  2
ACAD_ISO04W100
 70
              64
  3
ISO long-dash dot ____ . ____ . ____ . ____ . _
 72
              65
 73
               4
 40
30.0
 49
24.0
 74
               0
 49
-3.0
 74
               0
 49
0.0
 74
               0
 49
-3.0
 74
               0
  0
LTYPE
  5
27
100
AcDbSymbolTableRecord
100
AcDbLinetypeTableRecord
  2
ACAD_ISO05W100
 70
              64
  3
ISO long-dash double-dot ____ .. ____ .. ____ .
 72
              65
 73
               6
 40
33.0
 49
24.0
 74
               0
 49
-3.0
 74
               0
 49
0.0
 74
               0
 49
-3.0
 74
               0
 49
0.0
 74
               0
 49
-3.0
 74
               0
  0
LTYPE
  5
28
100
AcDbSymbolTableRecord
100
AcDbLinetypeTableRecord
  2
ACAD_ISO06W100
 70
              64
  3
ISO long-dash triple-dot ____ ... ____ ... ____
 72
              65
 73
               8
 40
36.0
 49
24.0
 74
               0
 49
-3.0
 74
               0
 49
0.0
 74
               0
 49
-3.0
 74
               0
 49
0.0
 74
               0
 49
-3.0
 74
               0
 49
0.0
 74
               0
 49
-3.0
 74
               0
  0
LTYPE
  5
29
100
AcDbSymbolTableRecord
100
AcDbLinetypeTableRecord
  2
ACAD_ISO07W100
 70
              64
  3
ISO dot . . . . . . . . . . . . . . . . . . . .
 72
              65
 73
               2
 40
3.0
 49
0.0
 74
               0
 49
-3.0
 74
               0
  0
LTYPE
  5
2A
100
AcDbSymbolTableRecord
100
AcDbLinetypeTableRecord
  2
ACAD_ISO08W100
 70
              64
  3
ISO long-dash short-dash ____ __ ____ __ ____ _
 72
              65
 73
               4
 40
36.0
 49
24.0
 74
               0
 49
-3.0
 74
               0
 49
6.0
 74
               0
 49
-3.0
 74
               0
  0
LTYPE
  5
2B
100
AcDbSymbolTableRecord
100
AcDbLinetypeTableRecord
  2
ACAD_ISO09W100
 70
              64
  3
ISO long-dash double-short-dash ____ __ __ ____
 72
              65
 73
               6
 40
45.0
 49
24.0
 74
               0
 49
-3.0
 74
               0
 49
6.0
 74
               0
 49
-3.0
 74
               0
 49
6.0
 74
               0
 49
-3.0
 74
               0
  0
LTYPE
  5
2C
100
AcDbSymbolTableRecord
100
AcDbLinetypeTableRecord
  2
ACAD_ISO10W100
 70
              64
  3
ISO dash dot __ . __ . __ . __ . __ . __ . __ .
 72
              65
 73
               4
 40
18.0
 49
12.0
 74
               0
 49
-3.0
 74
               0
 49
0.0
 74
               0
 49
-3.0
 74
               0
  0
LTYPE
  5
2D
100
AcDbSymbolTableRecord
100
AcDbLinetypeTableRecord
  2
ACAD_ISO11W100
 70
              64
  3
ISO double-dash dot __ __ . __ __ . __ __ . __ 
 72
              65
 73
               6
 40
33.0
 49
12.0
 74
               0
 49
-3.0
 74
               0
 49
12.0
 74
               0
 49
-3.0
 74
               0
 49
0.0
 74
               0
 49
-3.0
 74
               0
  0
LTYPE
  5
2E
100
AcDbSymbolTableRecord
100
AcDbLinetypeTableRecord
  2
ACAD_ISO12W100
 70
              64
  3
ISO dash double-dot __ . . __ . . __ . . __ . .
 72
              65
 73
               6
 40
21.0
 49
12.0
 74
               0
 49
-3.0
 74
               0
 49
0.0
 74
               0
 49
-3.0
 74
               0
 49
0.0
 74
               0
 49
-3.0
 74
               0
  0
LTYPE
  5
2F
100
AcDbSymbolTableRecord
100
AcDbLinetypeTableRecord
  2
ACAD_ISO13W100
 70
              64
  3
ISO double-dash double-dot __ __ . . __ __ . . 
 72
              65
 73
               8
 40
36.0
 49
12.0
 74
               0
 49
-3.0
 74
               0
 49
12.0
 74
               0
 49
-3.0
 74
               0
 49
0.0
 74
               0
 49
-3.0
 74
               0
 49
0.0
 74
               0
 49
-3.0
 74
               0
  0
LTYPE
  5
30
100
AcDbSymbolTableRecord
100
AcDbLinetypeTableRecord
  2
ACAD_ISO14W100
 70
              64
  3
ISO dash triple-dot __ . . . __ . . . __ . . . 
 72
              65
 73
               8
 40
24.0
 49
12.0
 74
               0
 49
-3.0
 74
               0
 49
0.0
 74
               0
 49
-3.0
 74
               0
 49
0.0
 74
               0
 49
-3.0
 74
               0
 49
0.0
 74
               0
 49
-3.0
 74
               0
  0
LTYPE
  5
31
100
AcDbSymbolTableRecord
100
AcDbLinetypeTableRecord
  2
ACAD_ISO15W100
 70
              64
  3
ISO double-dash double-dot __ __ . . __ __ . . 
 72
              65
 73
              10
 40
39.0
 49
12.0
 74
               0
 49
-3.0
 74
               0
 49
12.0
 74
               0
 49
-3.0
 74
               0
 49
0.0
 74
               0
 49
-3.0
 74
               0
 49
0.0
 74
               0
 49
-3.0
 74
               0
 49
0.0
 74
               0
 49
-3.0
 74
               0
  0
ENDTAB
  0
TABLE
  2
LAYER
  5
2
100
AcDbSymbolTable
 70
              16
  0
LAYER
  5
14
100
AcDbSymbolTableRecord
100
AcDbLayerTableRecord
  2
0
 70
               0
 62
               7
  6
Continuous
  0
LAYER
  5
35
100
AcDbSymbolTableRecord
100
AcDbLayerTableRecord
  2
Layer00001
 70
               0
 62
               7
  6
Continuous
  0
LAYER
  5
36
100
AcDbSymbolTableRecord
100
AcDbLayerTableRecord
  2
Layer00002
 70
               0
 62
               7
  6
Continuous
  0
LAYER
  5
37
100
AcDbSymbolTableRecord
100
AcDbLayerTableRecord
  2
Layer00003
 70
               0
 62
               7
  6
Continuous
  0
LAYER
  5
38
100
AcDbSymbolTableRecord
100
AcDbLayerTableRecord
  2
Layer00004
 70
               0
 62
               7
  6
Continuous
  0
LAYER
  5
39
100
AcDbSymbolTableRecord
100
AcDbLayerTableRecord
  2
Layer00005
 70
               0
 62
               7
  6
Continuous
  0
LAYER
  5
3A
100
AcDbSymbolTableRecord
100
AcDbLayerTableRecord
  2
Layer00006
 70
               0
 62
               7
  6
Continuous
  0
LAYER
  5
3B
100
AcDbSymbolTableRecord
100
AcDbLayerTableRecord
  2
Layer00007
 70
               0
 62
               7
  6
Continuous
  0
LAYER
  5
3C
100
AcDbSymbolTableRecord
100
AcDbLayerTableRecord
  2
Layer00008
 70
               0
 62
               7
  6
Continuous
  0
LAYER
  5
3D
100
AcDbSymbolTableRecord
100
AcDbLayerTableRecord
  2
Layer00009
 70
               0
 62
               7
  6
Continuous
  0
LAYER
  5
3E
100
AcDbSymbolTableRecord
100
AcDbLayerTableRecord
  2
Layer00010
 70
               0
 62
               7
  6
Continuous
  0
LAYER
  5
3F
100
AcDbSymbolTableRecord
100
AcDbLayerTableRecord
  2
Layer00011
 70
               0
 62
               7
  6
Continuous
  0
LAYER
  5
40
100
AcDbSymbolTableRecord
100
AcDbLayerTableRecord
  2
Layer00012
 70
               0
 62
               7
  6
Continuous
  0
LAYER
  5
41
100
AcDbSymbolTableRecord
100
AcDbLayerTableRecord
  2
Layer00013
 70
               0
 62
               7
  6
Continuous
  0
LAYER
  5
42
100
AcDbSymbolTableRecord
100
AcDbLayerTableRecord
  2
Layer00014
 70
               0
 62
               7
  6
Continuous
  0
LAYER
  5
43
100
AcDbSymbolTableRecord
100
AcDbLayerTableRecord
  2
Layer00015
 70
               0
 62
               7
  6
Continuous
  0
ENDTAB
  0
TABLE
  2
STYLE
  5
3
100
AcDbSymbolTable
 70
               4
  0
STYLE
  5
17
100
AcDbSymbolTableRecord
100
AcDbTextStyleTableRecord
  2
Standard
 70
               0
 40
0.0
 41
1.0
 50
0.0
 71
               0
 42
0.0
  3
txt.shx
  4
bigfont.shx
  0
STYLE
  5
32
100
AcDbSymbolTableRecord
100
AcDbTextStyleTableRecord
  2
STANDARD_T
 70
               4
 40
0.0
 41
1.0
 50
0.0
 71
               0
 42
0.0
  3
txt.shx
  4
bigfont.shx
  0
STYLE
  5
33
100
AcDbSymbolTableRecord
100
AcDbTextStyleTableRecord
  2
FontTableH_0
 70
               0
 40
0.0
 41
1.0
 50
0.0
 71
               0
 42
0.0
  3
MS Gothic.ttf
  4

1001
ACAD
1000
MS Gothic
1071
    32817
  0
STYLE
  5
34
100
AcDbSymbolTableRecord
100
AcDbTextStyleTableRecord
  2
FontTableV_0
 70
               0
 40
0.0
 41
1.0
 50
0.0
 71
               0
 42
0.0
  3
@MS Gothic.ttf
  4

1001
ACAD
1000
@MS Gothic
1071
    32817
  0
ENDTAB
  0
TABLE
  2
VIEW
  5
5
100
AcDbSymbolTable
 70
               0
  0
ENDTAB
  0
TABLE
  2
UCS
  5
6
100
AcDbSymbolTable
 70
               0
  0
ENDTAB
  0
TABLE
  2
APPID
  5
8
100
AcDbSymbolTable
 70
               1
  0
APPID
  5
16
100
AcDbSymbolTableRecord
100
AcDbRegAppTableRecord
  2
ACAD
 70
               0
  0
ENDTAB
  0
TABLE
  2
DIMSTYLE
  5
9
100
AcDbSymbolTable
 70
               1
  0
DIMSTYLE
105
18
100
AcDbSymbolTableRecord
100
AcDbDimStyleTableRecord
  2
Standard
 70
               0
  3

  4

  5

  6

  7

 40
1.0
 41
0.18
 42
0.0625
 43
0.38
 44
0.18
 45
0.0
 46
0.0
 47
0.0
 48
0.0
 71
               0
 72
               0
 73
               1
 74
               1
 75
               0
 76
               0
 77
               0
 78
               0
140
0.18
141
0.09
142
0.0
143
25.399999999999999
144
1.0
145
0.0
146
1.0
147
0.09
170
               0
171
               2
172
               0
173
               0
174
               0
175
               0
176
               0
177
               0
178
               0
270
               2
271
               4
272
               4
273
               2
274
               2
275
               0
280
               0
281
               0
282
               0
283
               1
284
               0
285
               0
286
               0
287
               0
288
               0
340
17
  0
ENDTAB
  0
TABLE
  2
BLOCK_RECORD
  5
1
100
AcDbSymbolTable
 70
               0
  0
BLOCK_RECORD
  5
A
100
AcDbSymbolTableRecord
100
AcDbBlockTableRecord
  2
*MODEL_SPACE
  0
BLOCK_RECORD
  5
B
100
AcDbSymbolTableRecord
100
AcDbBlockTableRecord
  2
*PAPER_SPACE
  0
ENDTAB
  0
ENDSEC
  0
SECTION
  2
BLOCKS
  0
BLOCK
  5
D
100
AcDbEntity
  8
0
100
AcDbBlockBegin
  2
*MODEL_SPACE
 70
               0
 10
0.0
 20
0.0
 30
0.0
  3
*MODEL_SPACE
  1

  0
ENDBLK
  5
E
100
AcDbEntity
  8
0
100
AcDbBlockEnd
  0
BLOCK
  5
F
100
AcDbEntity
 67
               1
  8
0
100
AcDbBlockBegin
  2
*PAPER_SPACE
 70
               0
 10
0.0
 20
0.0
 30
0.0
  3
*PAPER_SPACE
  1

  0
ENDBLK
  5
10
100
AcDbEntity
 67
               1
  8
0
100
AcDbBlockEnd
  0
ENDSEC
  0
SECTION
  2
ENTITIES
  0
LINE
  5
44
100
AcDbEntity
  8
0
  6
Continuous
 62
               4
100
AcDbLine
 10
672.71609372634953
 20
438.97108446538584
 30
0.0
 11
687.08348800466706
 21
443.28130274888088
 31
0.0
  0
LINE
  5
45
100
AcDbEntity
  8
0
  6
Continuous
 62
               4
100
AcDbLine
 10
677.88835566654348
 20
421.73021133140503
 30
0.0
 11
692.25574994486101
 21
426.04042961490018
 31
0.0
  0
LINE
  5
46
100
AcDbEntity
  8
0
  6
Continuous
 62
               4
100
AcDbLine
 10
684.21000914900355
 20
442.41925909218196
 30
0.0
 11
689.3822710891975
 21
425.17838595820115
 31
0.0
  0
LINE
  5
47
100
AcDbEntity
  8
0
  6
Continuous
 62
               4
100
AcDbLine
 10
671.56670218408419
 20
442.80238960627037
 30
0.0
 11
685.93409646240127
 21
447.11260788976546
 31
0.0
  0
LINE
  5
48
100
AcDbEntity
  8
0
  6
Continuous
 62
               4
100
AcDbLine
 10
667.25648390058791
 20
457.16978388459142
 30
0.0
 11
681.62387817890499
 21
461.48000216808651
 31
0.0
  0
LINE
  5
49
100
AcDbEntity
  8
0
  6
Continuous
 62
               4
100
AcDbLine
 10
683.06061760673776
 20
446.25056423306648
 30
0.0
 11
678.75039932324148
 21
460.61795851138754
 31
0.0
  0
LINE
  5
4A
100
AcDbEntity
  8
0
  6
Continuous
 62
               7
100
AcDbLine
 10
608.08774827938896
 20
419.58258083129851
 30
0.0
 11
596.01959191470428
 21
397.16958220585445
 31
0.0
  0
LINE
  5
4B
100
AcDbEntity
  8
0
  6
Continuous
 62
               7
100
AcDbLine
 10
601.31498300088674
 20
417.55075124774783
 30
0.0
 11
589.24682663620206
 21
395.13775262230376
 31
0.0
  0
LINE
  5
4C
100
AcDbEntity
  8
0
  6
Continuous
 62
               7
100
AcDbLine
 10
594.54221772238441
 20
415.51892166419736
 30
0.0
 11
582.47406135769972
 21
393.10592303875308
 31
0.0
  0
LINE
  5
4D
100
AcDbEntity
  8
0
  6
Continuous
 62
               7
100
AcDbLine
 10
587.76945244388207
 20
413.48709208064668
 30
0.0
 11
575.70129607919739
 21
391.07409345520261
 31
0.0
  0
LINE
  5
4E
100
AcDbEntity
  8
0
  6
Continuous
 62
               7
100
AcDbLine
 10
580.99668716537974
 20
411.45526249709599
 30
0.0
 11
568.92853080069506
 21
389.04226387165193
 31
0.0
  0
LINE
  5
4F
100
AcDbEntity
  8
0
  6
Continuous
 62
               7
100
AcDbLine
 10
574.22392188687741
 20
409.42343291354553
 30
0.0
 11
562.15576552219272
 21
387.01043428810124
 31
0.0
  0
LINE
  5
50
100
AcDbEntity
  8
0
  6
Continuous
 62
               7
100
AcDbLine
 10
567.45115660837519
 20
407.39160332999484
 30
0.0
 11
555.3830002436905
 21
384.97860470455078
 31
0.0
  0
LINE
  5
51
100
AcDbEntity
  8
0
  6
Continuous
 62
               7
100
AcDbLine
 10
560.67839132987285
 20
405.35977374644438
 30
0.0
 11
548.61023496518817
 21
382.94677512100009
 31
0.0
  0
LINE
  5
52
100
AcDbEntity
  8
0
  6
Continuous
 62
               7
100
AcDbLine
 10
553.90562605137052
 20
403.32794416289369
 30
0.0
 11
541.83746968668584
 21
380.91494553744951
 31
0.0
  0
LINE
  5
53
100
AcDbEntity
  8
0
  6
Continuous
 62
               7
100
AcDbLine
 10
547.13286077286818
 20
401.29611457934311
 30
0.0
 11
535.06470440818362
 21
378.88311595389894
 31
0.0
  0
LINE
  5
54
100
AcDbEntity
  8
0
  6
Continuous
 62
               7
100
AcDbLine
 10
540.36009549436585
 20
399.26428499579254
 30
0.0
 11
528.29193912968128
 21
376.85128637034825
 31
0.0
  0
LINE
  5
55
100
AcDbEntity
  8
0
  6
Continuous
 62
               7
100
AcDbLine
 10
533.58733021586363
 20
397.23245541224185
 30
0.0
 11
521.51917385117895
 21
374.81945678679779
 31
0.0
  0
LINE
  5
56
100
AcDbEntity
  8
0
  6
Continuous
 62
               7
100
AcDbLine
 10
526.8145649373613
 20
395.20062582869116
 30
0.0
 11
514.74640857267661
 21
372.7876272032471
 31
0.0
  0
LINE
  5
57
100
AcDbEntity
  8
0
  6
Continuous
 62
               7
100
AcDbLine
 10
520.04179965885896
 20
393.16879624514058
 30
0.0
 11
507.97364329417428
 21
370.75579761969652
 31
0.0
  0
LINE
  5
58
100
AcDbEntity
  8
0
  6
Continuous
 62
               7
100
AcDbLine
 10
513.26903438035663
 20
391.13696666159001
 30
0.0
 11
501.20087801567206
 21
368.72396803614595
 31
0.0
  0
LINE
  5
59
100
AcDbEntity
  8
0
  6
Continuous
 62
               7
100
AcDbLine
 10
506.4962691018543
 20
389.10513707803932
 30
0.0
 11
494.42811273716973
 21
366.69213845259526
 31
0.0
  0
LINE
  5
5A
100
AcDbEntity
  8
0
  6
Continuous
 62
               7
100
AcDbLine
 10
499.72350382335208
 20
387.07330749448886
 30
0.0
 11
487.65534745866739
 21
364.66030886904468
 31
0.0
  0
LINE
  5
5B
100
AcDbEntity
  8
0
  6
Continuous
 62
               7
100
AcDbLine
 10
492.95073854484974
 20
385.04147791093817
 30
0.0
 11
480.88258218016506
 21
362.62847928549411
 31
0.0
  0
LINE
  5
5C
100
AcDbEntity
  8
0
  6
Continuous
 62
               7
100
AcDbLine
 10
486.17797326634741
 20
383.00964832738759
 30
0.0
 11
474.10981690166273
 21
360.59664970194342
 31
0.0
  0
LINE
  5
5D
100
AcDbEntity
  8
0
  6
Continuous
 62
               7
100
AcDbLine
 10
479.40520798784519
 20
380.97781874383702
 30
0.0
 11
467.33705162316051
 21
358.56482011839296
 31
0.0
  0
LINE
  5
5E
100
AcDbEntity
  8
0
  6
Continuous
 62
               7
100
AcDbLine
 10
472.63244270934285
 20
378.94598916028633
 30
0.0
 11
460.56428634465817
 21
356.53299053484233
 31
0.0
  0
LINE
  5
5F
100
AcDbEntity
  8
0
  6
Continuous
 62
               7
100
AcDbLine
 10
465.85967743084052
 20
376.91415957673587
 30
0.0
 11
453.79152106615589
 21
354.50116095129169
 31
0.0
  0
LINE
  5
60
100
AcDbEntity
  8
0
  6
Continuous
 62
               7
100
AcDbLine
 10
459.08691215233819
 20
374.88232999318518
 30
0.0
 11
447.01875578765356
 21
352.46933136774112
 31
0.0
  0
LINE
  5
61
100
AcDbEntity
  8
0
  6
Continuous
 62
               7
100
AcDbLine
 10
452.31414687383585
 20
372.85050040963461
 30
0.0
 11
440.24599050915128
 21
350.43750178419049
 31
0.0
  0
LINE
  5
62
100
AcDbEntity
  8
0
  6
Continuous
 62
               7
100
AcDbLine
 10
445.54138159533358
 20
370.81867082608403
 30
0.0
 11
433.47322523064895
 21
348.40567220063991
 31
0.0
  0
LINE
  5
63
100
AcDbEntity
  8
0
  6
Continuous
 62
               7
100
AcDbLine
 10
438.7686163168313
 20
368.78684124253334
 30
0.0
 11
426.70045995214656
 21
346.37384261708928
 31
0.0
  0
LINE
  5
64
100
AcDbEntity
  8
0
  6
Continuous
 62
               7
100
AcDbLine
 10
431.99585103832896
 20
366.75501165898288
 30
0.0
 11
419.9276946736444
 21
344.34201303353859
 31
0.0
  0
LINE
  5
65
100
AcDbEntity
  8
0
  6
Continuous
 62
               7
100
AcDbLine
 10
425.22308575982669
 20
364.72318207543219
 30
0.0
 11
413.15492939514195
 21
342.31018344998813
 31
0.0
  0
LINE
  5
66
100
AcDbEntity
  8
0
  6
Continuous
 62
               7
100
AcDbLine
 10
418.45032048132435
 20
362.69135249188162
 30
0.0
 11
406.38216411663979
 21
340.2783538664375
 31
0.0
  0
LINE
  5
67
100
AcDbEntity
  8
0
  6
Continuous
 62
               7
100
AcDbLine
 10
411.67755520282208
 20
360.65952290833104
 30
0.0
 11
399.60939883813739
 21
338.24652428288681
 31
0.0
  0
LINE
  5
68
100
AcDbEntity
  8
0
  6
Continuous
 62
               7
100
AcDbLine
 10
404.9047899243198
 20
358.62769332478035
 30
0.0
 11
392.83663355963506
 21
336.21469469933618
 31
0.0
  0
LINE
  5
69
100
AcDbEntity
  8
0
  6
Continuous
 62
               7
100
AcDbLine
 10
398.13202464581735
 20
356.59586374122978
 30
0.0
 11
386.06386828113278
 21
334.18286511578572
 31
0.0
  0
LINE
  5
6A
100
AcDbEntity
  8
0
  6
Continuous
 62
               7
100
AcDbLine
 10
391.35925936731519
 20
354.56403415767909
 30
0.0
 11
379.29110300263045
 21
332.15103553223503
 31
0.0
  0
LINE
  5
6B
100
AcDbEntity
  8
0
  6
Continuous
 62
               7
100
AcDbLine
 10
384.5864940888128
 20
352.53220457412863
 30
0.0
 11
372.51833772412817
 21
330.1192059486844
 31
0.0
  0
LINE
  5
6C
100
AcDbEntity
  8
0
  6
Continuous
 62
               7
100
AcDbLine
 10
377.81372881031047
 20
350.500374990578
 30
0.0
 11
365.7455724456259
 21
328.08737636513382
 31
0.0
  0
LINE
  5
6D
100
AcDbEntity
  8
0
  6
Continuous
 62
               7
100
AcDbLine
 10
371.04096353180819
 20
348.46854540702742
 30
0.0
 11
358.97280716712356
 21
326.05554678158319
 31
0.0
  0
LINE
  5
6E
100
AcDbEntity
  8
0
  6
Continuous
 62
               7
100
AcDbLine
 10
364.26819825330585
 20
346.43671582347679
 30
0.0
 11
352.20004188862129
 21
324.02371719803261
 31
0.0
  0
LINE
  5
6F
100
AcDbEntity
  8
0
  6
Continuous
 62
               7
100
AcDbLine
 10
357.49543297480358
 20
344.40488623992621
 30
0.0
 11
345.42727661011895
 21
321.99188761448198
 31
0.0
  0
LINE
  5
70
100
AcDbEntity
  8
0
  6
Continuous
 62
               7
100
AcDbLine
 10
662.26987050740786
 20
435.83721749970334
 30
0.0
 11
650.20171414272295
 21
413.42421887425928
 31
0.0
  0
LINE
  5
71
100
AcDbEntity
  8
0
  6
Continuous
 62
               7
100
AcDbLine
 10
655.49710522890541
 20
433.80538791615288
 30
0.0
 11
643.42894886422073
 21
411.39238929070859
 31
0.0
  0
LINE
  5
72
100
AcDbEntity
  8
0
  6
Continuous
 62
               7
100
AcDbLine
 10
648.72433995040296
 20
431.77355833260219
 30
0.0
 11
636.65618358571828
 21
409.36055970715802
 31
0.0
  0
LINE
  5
73
100
AcDbEntity
  8
0
  6
Continuous
 62
               3
100
AcDbLine
 10
339.72214858177665
 20
339.07290092201839
 30
0.0
 11
344.8944105219706
 21
321.83202778803758
 31
0.0
  0
LINE
  5
74
100
AcDbEntity
  8
0
  6
Continuous
 62
               7
100
AcDbLine
 10
340.99050819300373
 20
334.84503555126133
 30
0.0
 11
343.94990241779897
 21
340.34122707282489
 31
0.0
  0
LINE
  5
75
100
AcDbEntity
  8
0
  6
Continuous
 62
               7
100
AcDbLine
 10
343.02239137938511
 20
328.07209159665632
 30
0.0
 11
350.7226676963013
 21
342.37305665637558
 31
0.0
  0
LINE
  5
76
100
AcDbEntity
  8
0
  6
Continuous
 62
               2
100
AcDbLine
 10
336.27397395498036
 20
340.12650983576179
 30
0.0
 11
432.05660247709545
 21
368.86129839239652
 31
0.0
  0
LINE
  5
77
100
AcDbEntity
  8
0
  6
Continuous
 62
               2
100
AcDbLine
 10
353.51484708896101
 20
282.65693272249257
 30
0.0
 11
336.27397395498036
 21
340.12650983576179
 31
0.0
  0
LINE
  5
78
100
AcDbEntity
  8
0
  6
Continuous
 62
               2
100
AcDbLine
 10
353.68706196350695
 20
292.41756176693997
 30
0.0
 11
354.47267337418208
 21
282.94428060805888
 31
0.0
  0
LINE
  5
79
100
AcDbEntity
  8
0
  6
Continuous
 62
               6
100
AcDbLine
 10
430.14094990665336
 20
263.88353753215796
 30
0.0
 11
427.93794949631746
 21
263.22263740905714
 31
0.0
  0
LINE
  5
7A
100
AcDbEntity
  8
0
  6
Continuous
 62
               6
100
AcDbLine
 10
410.69707636233665
 20
320.69221452232631
 30
0.0
 11
412.90007677267255
 21
321.35311464542713
 31
0.0
  0
LINE
  5
7B
100
AcDbEntity
  8
0
  6
Continuous
 62
               4
100
AcDbLine
 10
410.8233236496705
 20
328.18011787452991
 30
0.0
 11
442.09956964209249
 21
296.90387188210792
 31
0.0
  0
LINE
  5
7C
100
AcDbEntity
  8
0
  6
Continuous
 62
               4
100
AcDbLine
 10
410.8233236496705
 20
328.18011787452991
 30
0.0
 11
418.19569204827138
 21
323.01792994737053
 31
0.0
  0
LINE
  5
7D
100
AcDbEntity
  8
0
  6
Continuous
 62
               4
100
AcDbLine
 10
410.8233236496705
 20
328.18011787452991
 30
0.0
 11
415.98551157682988
 21
320.80774947592903
 31
0.0
  0
LINE
  5
7E
100
AcDbEntity
  8
0
  6
Continuous
 62
               6
100
AcDbLine
 10
433.02400708454371
 20
246.26911211496991
 30
0.0
 11
427.93794949631746
 21
263.22263740905714
 31
0.0
  0
LINE
  5
7F
100
AcDbEntity
  8
0
  6
Continuous
 62
               6
100
AcDbLine
 10
389.53869364415772
 20
233.22351808285424
 30
0.0
 11
433.02400708454371
 21
246.26911211496991
 31
0.0
  0
LINE
  5
80
100
AcDbEntity
  8
0
  6
Continuous
 62
               6
100
AcDbLine
 10
362.12570533372474
 20
324.60014578429764
 30
0.0
 11
389.53869364415772
 21
233.22351808285424
 31
0.0
  0
LINE
  5
81
100
AcDbEntity
  8
0
  6
Continuous
 62
               6
100
AcDbLine
 10
405.61101877411039
 20
337.64573981641342
 30
0.0
 11
362.12570533372474
 21
324.60014578429764
 31
0.0
  0
LINE
  5
82
100
AcDbEntity
  8
0
  6
Continuous
 62
               6
100
AcDbLine
 10
405.61101877411039
 20
337.64573981641342
 30
0.0
 11
410.69707636233665
 21
320.69221452232631
 31
0.0
  0
LINE
  5
83
100
AcDbEntity
  8
0
  6
Continuous
 62
               6
100
AcDbLine
 10
407.81401919814817
 20
338.30663989384152
 30
0.0
 11
412.90007677267255
 21
321.35311464542713
 31
0.0
  0
LINE
  5
84
100
AcDbEntity
  8
0
  6
Continuous
 62
               6
100
AcDbLine
 10
361.46480525629664
 20
326.80314620833548
 30
0.0
 11
404.95011860533685
 21
339.84874021304756
 31
0.0
  0
LINE
  5
85
100
AcDbEntity
  8
0
  6
Continuous
 62
               6
100
AcDbLine
 10
387.33569322012005
 20
232.56261800542603
 30
0.0
 11
359.92270493709066
 21
323.93924561552427
 31
0.0
  0
LINE
  5
86
100
AcDbEntity
  8
0
  6
Continuous
 62
               6
100
AcDbLine
 10
433.68490716197181
 20
244.06611169093213
 30
0.0
 11
390.19959381293125
 21
231.02051768622005
 31
0.0
  0
LINE
  5
87
100
AcDbEntity
  8
0
  6
Continuous
 62
               6
100
AcDbLine
 10
435.22700748117785
 20
246.93001228374339
 30
0.0
 11
430.14094990665336
 21
263.88353753215796
 31
0.0
  0
LINE
  5
88
100
AcDbEntity
  8
0
  6
Continuous
 62
               7
100
AcDbLine
 10
416.73138191355685
 20
134.5769890273022
 30
0.0
 11
402.3639876352396
 21
130.26677074380706
 31
0.0
  0
LINE
  5
89
100
AcDbEntity
  8
0
  6
Continuous
 62
               7
100
AcDbLine
 10
345.55531065877324
 20
319.62902733202907
 30
0.0
 11
402.3639876352396
 21
130.26677074380706
 31
0.0
  0
LINE
  5
8A
100
AcDbEntity
  8
0
  6
Continuous
 62
               7
100
AcDbLine
 10
359.9227049370906
 20
323.9392456155241
 30
0.0
 11
345.55531065877324
 21
319.62902733202907
 31
0.0
  0
LINE
  5
8B
100
AcDbEntity
  8
0
  6
Continuous
 62
               7
100
AcDbLine
 10
359.92270493709054
 20
323.93924561552427
 30
0.0
 11
416.73138191355685
 21
134.5769890273022
 31
0.0
  0
LINE
  5
8C
100
AcDbEntity
  8
0
  6
Continuous
 62
               7
100
AcDbLine
 10
396.77224244195139
 20
318.83257368183348
 30
0.0
 11
386.42771856156378
 21
353.31431994979516
 31
0.0
  0
LINE
  5
8D
100
AcDbEntity
  8
0
  6
Continuous
 62
               7
100
AcDbLine
 10
383.31478313459507
 20
354.99051594893228
 30
0.0
 11
383.45845707737828
 21
354.51160280632166
 31
0.0
  0
LINE
  5
8E
100
AcDbEntity
  8
0
  6
Continuous
 62
               7
100
AcDbLine
 10
401.56137386805722
 20
320.26931310966506
 30
0.0
 11
391.2168499876696
 21
354.7510593776268
 31
0.0
  0
LINE
  5
8F
100
AcDbEntity
  8
0
  6
Continuous
 62
               7
100
AcDbLine
 10
392.89304598680667
 20
357.86399480459551
 30
0.0
 11
393.03671992958976
 21
357.385081661985
 31
0.0
  0
LINE
  5
90
100
AcDbEntity
  8
0
  6
Continuous
 62
               7
100
AcDbLine
 10
383.31478313459507
 20
354.99051594893228
 30
0.0
 11
392.89304598680667
 21
357.86399480459551
 31
0.0
  0
LINE
  5
91
100
AcDbEntity
  8
0
  6
Continuous
 62
               7
100
AcDbLine
 10
386.42771856156378
 20
353.31431994979516
 30
0.0
 11
391.2168499876696
 21
354.7510593776268
 31
0.0
  0
LINE
  5
92
100
AcDbEntity
  8
0
  6
Continuous
 62
               7
100
AcDbLine
 10
383.45845707737828
 20
354.5116028063216
 30
0.0
 11
386.42771856156378
 21
353.31431994979516
 31
0.0
  0
LINE
  5
93
100
AcDbEntity
  8
0
  6
Continuous
 62
               7
100
AcDbLine
 10
391.2168499876696
 20
354.7510593776268
 30
0.0
 11
393.03671992958976
 21
357.38508166198488
 31
0.0
  0
LINE
  5
94
100
AcDbEntity
  8
0
  6
Continuous
 62
               7
100
AcDbLine
 10
383.45845707737828
 20
354.51160280632166
 30
0.0
 11
393.03671992958976
 21
357.38508166198477
 31
0.0
  0
LINE
  5
95
100
AcDbEntity
  8
0
  6
Continuous
 62
               7
100
AcDbLine
 10
396.77224244195139
 20
318.83257368183348
 30
0.0
 11
399.59782998335379
 21
318.1142039679176
 31
0.0
  0
LINE
  5
96
100
AcDbEntity
  8
0
  6
Continuous
 62
               7
100
AcDbLine
 10
401.56137386805722
 20
320.26931310966506
 30
0.0
 11
399.59782998335379
 21
318.1142039679176
 31
0.0
  0
LINE
  5
97
100
AcDbEntity
  8
0
  6
Continuous
 62
               7
100
AcDbLine
 10
388.43915376052797
 20
346.60953595324696
 30
0.0
 11
392.65358941550107
 21
349.96192795152086
 31
0.0
  0
LINE
  5
98
100
AcDbEntity
  8
0
  6
Continuous
 62
               7
100
AcDbLine
 10
389.01384953166058
 20
344.6938833828047
 30
0.0
 11
393.2282851866338
 21
348.04627538107866
 31
0.0
  0
LINE
  5
99
100
AcDbEntity
  8
0
  6
Continuous
 62
               7
100
AcDbLine
 10
389.58854530279336
 20
342.77823081236238
 30
0.0
 11
393.80298095776647
 21
346.1306228106364
 31
0.0
  0
LINE
  5
9A
100
AcDbEntity
  8
0
  6
Continuous
 62
               7
100
AcDbLine
 10
390.16324107392592
 20
340.86257824192006
 30
0.0
 11
394.37767672889908
 21
344.21497024019396
 31
0.0
  0
LINE
  5
9B
100
AcDbEntity
  8
0
  6
Continuous
 62
               7
100
AcDbLine
 10
390.73793684505858
 20
338.9469256714778
 30
0.0
 11
394.9523725000318
 21
342.2993176697517
 31
0.0
  0
LINE
  5
9C
100
AcDbEntity
  8
0
  6
Continuous
 62
               7
100
AcDbLine
 10
391.31263261619119
 20
337.03127310103548
 30
0.0
 11
395.5270682711643
 21
340.38366509930938
 31
0.0
  0
LINE
  5
9D
100
AcDbEntity
  8
0
  6
Continuous
 62
               7
100
AcDbLine
 10
391.88732838732386
 20
335.11562053059316
 30
0.0
 11
396.10176404229696
 21
338.46801252886706
 31
0.0
  0
LINE
  5
9E
100
AcDbEntity
  8
0
  6
Continuous
 62
               7
100
AcDbLine
 10
392.46202415845647
 20
333.1999679601509
 30
0.0
 11
396.67645981342957
 21
336.55235995842486
 31
0.0
  0
LINE
  5
9F
100
AcDbEntity
  8
0
  6
Continuous
 62
               7
100
AcDbLine
 10
393.03671992958908
 20
331.28431538970847
 30
0.0
 11
397.2511555845623
 21
334.63670738798248
 31
0.0
  0
LINE
  5
A0
100
AcDbEntity
  8
0
  6
Continuous
 62
               7
100
AcDbLine
 10
393.61141570072169
 20
329.36866281926621
 30
0.0
 11
397.82585135569491
 21
332.72105481754016
 31
0.0
  0
LINE
  5
A1
100
AcDbEntity
  8
0
  6
Continuous
 62
               7
100
AcDbLine
 10
394.18611147185442
 20
327.45301024882389
 30
0.0
 11
398.40054712682746
 21
330.8054022470979
 31
0.0
  0
LINE
  5
A2
100
AcDbEntity
  8
0
  6
Continuous
 62
               7
100
AcDbLine
 10
394.76080724298697
 20
325.53735767838157
 30
0.0
 11
397.28946863597099
 21
327.54879287734599
 31
0.0
  0
LINE
  5
A3
100
AcDbEntity
  8
0
  6
Continuous
 62
               7
100
AcDbLine
 10
400.9387867826635
 20
320.60455230949259
 30
0.0
 11
398.55379933246292
 21
328.55451047682817
 31
0.0
  0
LINE
  5
A4
100
AcDbEntity
  8
0
  6
Continuous
 62
               7
100
AcDbLine
 10
397.28946863597099
 20
327.54879287734599
 30
0.0
 11
397.99347095560859
 21
328.85622575667287
 31
0.0
  0
LINE
  5
A5
100
AcDbEntity
  8
0
  6
Continuous
 62
               7
100
AcDbLine
 10
398.55379933246292
 20
328.55451047682817
 30
0.0
 11
397.99347095560859
 21
328.85622575667287
 31
0.0
  0
LINE
  5
A6
100
AcDbEntity
  8
0
  6
Continuous
 62
               7
100
AcDbLine
 10
398.55379933246292
 20
328.55451047682817
 30
0.0
 11
398.97524289796007
 21
328.88974967665558
 31
0.0
  0
LINE
  5
A7
100
AcDbEntity
  8
0
  6
Continuous
 62
               7
100
AcDbLine
 10
401.56137386805722
 20
320.26931310966506
 30
0.0
 11
400.9387867826635
 21
320.60455230949259
 31
0.0
  0
LINE
  5
A8
100
AcDbEntity
  8
0
  6
Continuous
 62
               4
100
AcDbLine
 10
349.92774121363811
 20
294.61395230690209
 30
0.0
 11
346.84955992370709
 21
286.15671871982892
 31
0.0
  0
LINE
  5
A9
100
AcDbEntity
  8
0
  6
Continuous
 62
               4
100
AcDbLine
 10
349.92774121363811
 20
294.61395230690209
 30
0.0
 11
344.14265272645929
 21
287.71955231883129
 31
0.0
  0
LINE
  5
AA
100
AcDbEntity
  8
0
  6
Continuous
 62
               4
100
AcDbLine
 10
304.53081883914416
 20
225.14456402975065
 30
0.0
 11
349.92774121363811
 21
294.61395230690209
 31
0.0
  0
LINE
  5
AB
100
AcDbEntity
  8
0
  6
Continuous
 62
               7
100
AcDbLine
 10
629.88341830721606
 20
407.32873012360744
 30
0.0
 11
641.95157467190074
 21
429.7417287490515
 31
0.0
  0
LINE
  5
AC
100
AcDbEntity
  8
0
  6
Continuous
 62
               7
100
AcDbLine
 10
623.11065302871407
 20
405.29690054005698
 30
0.0
 11
635.1788093933983
 21
427.70989916550093
 31
0.0
  0
LINE
  5
AD
100
AcDbEntity
  8
0
  6
Continuous
 62
               7
100
AcDbLine
 10
614.86051355789141
 20
421.6144104148492
 30
0.0
 11
602.79235719320661
 21
399.20141178940503
 31
0.0
  0
LINE
  5
AE
100
AcDbEntity
  8
0
  6
Continuous
 62
               7
100
AcDbLine
 10
621.63327883639363
 20
423.64623999839978
 30
0.0
 11
609.56512247170895
 21
401.23324137295549
 31
0.0
  0
LINE
  5
AF
100
AcDbEntity
  8
0
  6
Continuous
 62
               7
100
AcDbLine
 10
628.40604411489585
 20
425.67806958195035
 30
0.0
 11
616.33788775021139
 21
403.26507095650607
 31
0.0
  0
LINE
  5
B0
100
AcDbEntity
  8
0
  6
Continuous
 62
               4
100
AcDbLine
 10
442.09956964209249
 20
296.90387188210792
 30
0.0
 11
515.72796355401897
 21
296.90387188210792
 31
0.0
  0
LINE
  5
B1
100
AcDbEntity
  8
0
  6
Continuous
 62
               4
100
AcDbLine
 10
238.97918360868496
 20
225.14456402975065
 30
0.0
 11
304.53081883914416
 21
225.14456402975065
 31
0.0
  0
LINE
  5
B2
100
AcDbEntity
  8
0
  6
Continuous
 62
               7
100
AcDbLine
 10
671.65496872969811
 20
421.62755476973518
 30
0.0
 11
670.52000997823006
 21
419.51970762491112
 31
0.0
  0
LINE
  5
B3
100
AcDbEntity
  8
0
  6
Continuous
 62
               7
100
AcDbLine
 10
669.62308554331685
 20
428.40049872434031
 30
0.0
 11
663.74724469972762
 21
417.48787804136043
 31
0.0
  0
LINE
  5
B4
100
AcDbEntity
  8
0
  6
Continuous
 62
               7
100
AcDbLine
 10
667.59120235693536
 20
435.17344267894509
 30
0.0
 11
656.9744794212254
 21
415.45604845780974
 31
0.0
  0
LINE
  5
B5
100
AcDbEntity
  8
0
  6
Continuous
 62
               3
100
AcDbLine
 10
666.96913601502251
 20
437.24699715198778
 30
0.0
 11
339.72214858177665
 21
339.07290092201839
 31
0.0
  0
LINE
  5
B6
100
AcDbEntity
  8
0
  6
DASHED
 62
               6
100
AcDbLine
 10
666.68178812945621
 20
438.20482343720903
 30
0.0
 11
339.43480069621035
 21
340.03072720723958
 31
0.0
  0
LINE
  5
B7
100
AcDbEntity
  8
0
  6
Continuous
 62
               3
100
AcDbLine
 10
672.14139795521646
 20
420.00612401800709
 30
0.0
 11
344.8944105219706
 21
321.83202778803752
 31
0.0
  0
LINE
  5
B8
100
AcDbEntity
  8
0
  6
Continuous
 62
               4
100
AcDbLine
 10
399.94732488734644
 20
507.61624723424654
 30
0.0
 11
478.62255716160598
 21
371.34674763794578
 31
0.0
  0
LINE
  5
B9
100
AcDbEntity
  8
0
  6
Continuous
 62
               4
100
AcDbLine
 10
399.9473248873465
 20
507.61624723424654
 30
0.0
 11
314.83027887061007
 21
507.61624723424654
 31
0.0
  0
LINE
  5
BA
100
AcDbEntity
  8
0
  6
Continuous
 62
               4
100
AcDbLine
 10
408.60757892519086
 20
492.61624723424632
 30
0.0
 11
314.83027887061007
 21
492.61624723424654
 31
0.0
  0
LINE
  5
BB
100
AcDbEntity
  8
0
  6
Continuous
 62
               4
100
AcDbLine
 10
417.26783296303523
 20
477.61624723424632
 30
0.0
 11
314.83027887061007
 21
477.61624723424654
 31
0.0
  0
LINE
  5
BC
100
AcDbEntity
  8
0
  6
Continuous
 62
               7
100
AcDbLine
 10
377.69000286006741
 20
314.00079045954311
 30
0.0
 11
367.34547897967968
 21
348.48253672750468
 31
0.0
  0
LINE
  5
BD
100
AcDbEntity
  8
0
  6
Continuous
 62
               7
100
AcDbLine
 10
364.23254355271098
 20
350.15873272664192
 30
0.0
 11
364.37621749549419
 21
349.67981958403118
 31
0.0
  0
LINE
  5
BE
100
AcDbEntity
  8
0
  6
Continuous
 62
               7
100
AcDbLine
 10
382.47913428617312
 20
315.43752988737469
 30
0.0
 11
372.13461040578551
 21
349.91927615533638
 31
0.0
  0
LINE
  5
BF
100
AcDbEntity
  8
0
  6
Continuous
 62
               7
100
AcDbLine
 10
373.81080640492257
 20
353.03221158230508
 30
0.0
 11
373.95448034770573
 21
352.55329843969452
 31
0.0
  0
LINE
  5
C0
100
AcDbEntity
  8
0
  6
Continuous
 62
               7
100
AcDbLine
 10
364.23254355271098
 20
350.15873272664192
 30
0.0
 11
373.81080640492257
 21
353.03221158230508
 31
0.0
  0
LINE
  5
C1
100
AcDbEntity
  8
0
  6
Continuous
 62
               7
100
AcDbLine
 10
367.34547897967968
 20
348.48253672750468
 30
0.0
 11
372.13461040578551
 21
349.91927615533638
 31
0.0
  0
LINE
  5
C2
100
AcDbEntity
  8
0
  6
Continuous
 62
               7
100
AcDbLine
 10
364.37621749549419
 20
349.67981958403118
 30
0.0
 11
367.34547897967968
 21
348.48253672750468
 31
0.0
  0
LINE
  5
C3
100
AcDbEntity
  8
0
  6
Continuous
 62
               7
100
AcDbLine
 10
372.13461040578551
 20
349.91927615533638
 30
0.0
 11
373.95448034770578
 21
352.55329843969452
 31
0.0
  0
LINE
  5
C4
100
AcDbEntity
  8
0
  6
Continuous
 62
               7
100
AcDbLine
 10
364.37621749549419
 20
349.67981958403118
 30
0.0
 11
373.95448034770578
 21
352.5532984396944
 31
0.0
  0
LINE
  5
C5
100
AcDbEntity
  8
0
  6
Continuous
 62
               7
100
AcDbLine
 10
377.69000286006741
 20
314.00079045954311
 30
0.0
 11
380.51559040146981
 21
313.28242074562712
 31
0.0
  0
LINE
  5
C6
100
AcDbEntity
  8
0
  6
Continuous
 62
               7
100
AcDbLine
 10
382.47913428617312
 20
315.43752988737469
 30
0.0
 11
380.51559040146981
 21
313.28242074562712
 31
0.0
  0
LINE
  5
C7
100
AcDbEntity
  8
0
  6
Continuous
 62
               7
100
AcDbLine
 10
369.35691417864399
 20
341.77775273095659
 30
0.0
 11
373.57134983361709
 21
345.13014472923049
 31
0.0
  0
LINE
  5
C8
100
AcDbEntity
  8
0
  6
Continuous
 62
               7
100
AcDbLine
 10
369.9316099497766
 20
339.86210016051427
 30
0.0
 11
374.14604560474982
 21
343.21449215878829
 31
0.0
  0
LINE
  5
C9
100
AcDbEntity
  8
0
  6
Continuous
 62
               7
100
AcDbLine
 10
370.50630572090932
 20
337.94644759007201
 30
0.0
 11
374.72074137588243
 21
341.29883958834591
 31
0.0
  0
LINE
  5
CA
100
AcDbEntity
  8
0
  6
Continuous
 62
               7
100
AcDbLine
 10
371.08100149204188
 20
336.03079501962958
 30
0.0
 11
375.29543714701498
 21
339.38318701790359
 31
0.0
  0
LINE
  5
CB
100
AcDbEntity
  8
0
  6
Continuous
 62
               7
100
AcDbLine
 10
371.65569726317449
 20
334.11514244918737
 30
0.0
 11
375.8701329181477
 21
337.46753444746128
 31
0.0
  0
LINE
  5
CC
100
AcDbEntity
  8
0
  6
Continuous
 62
               7
100
AcDbLine
 10
372.23039303430721
 20
332.19948987874511
 30
0.0
 11
376.44482868928031
 21
335.55188187701901
 31
0.0
  0
LINE
  5
CD
100
AcDbEntity
  8
0
  6
Continuous
 62
               7
100
AcDbLine
 10
372.80508880543982
 20
330.28383730830268
 30
0.0
 11
377.01952446041292
 21
333.63622930657658
 31
0.0
  0
LINE
  5
CE
100
AcDbEntity
  8
0
  6
Continuous
 62
               7
100
AcDbLine
 10
373.37978457657238
 20
328.36818473786047
 30
0.0
 11
377.59422023154548
 21
331.72057673613438
 31
0.0
  0
LINE
  5
CF
100
AcDbEntity
  8
0
  6
Continuous
 62
               7
100
AcDbLine
 10
373.9544803477051
 20
326.4525321674181
 30
0.0
 11
378.1689160026782
 21
329.80492416569211
 31
0.0
  0
LINE
  5
D0
100
AcDbEntity
  8
0
  6
Continuous
 62
               7
100
AcDbLine
 10
374.52917611883771
 20
324.53687959697578
 30
0.0
 11
378.74361177381081
 21
327.88927159524991
 31
0.0
  0
LINE
  5
D1
100
AcDbEntity
  8
0
  6
Continuous
 62
               7
100
AcDbLine
 10
375.10387188997038
 20
322.62122702653352
 30
0.0
 11
379.31830754494348
 21
325.97361902480748
 31
0.0
  0
LINE
  5
D2
100
AcDbEntity
  8
0
  6
Continuous
 62
               7
100
AcDbLine
 10
375.67856766110299
 20
320.7055744560912
 30
0.0
 11
378.20722905408701
 21
322.71700965505562
 31
0.0
  0
LINE
  5
D3
100
AcDbEntity
  8
0
  6
Continuous
 62
               7
100
AcDbLine
 10
381.8565472007794
 20
315.77276908720211
 30
0.0
 11
379.47155975057888
 21
323.72272725453792
 31
0.0
  0
LINE
  5
D4
100
AcDbEntity
  8
0
  6
Continuous
 62
               7
100
AcDbLine
 10
378.20722905408701
 20
322.71700965505562
 30
0.0
 11
378.91123137372449
 21
324.0244425343825
 31
0.0
  0
LINE
  5
D5
100
AcDbEntity
  8
0
  6
Continuous
 62
               7
100
AcDbLine
 10
379.47155975057888
 20
323.7227272545378
 30
0.0
 11
378.91123137372449
 21
324.0244425343825
 31
0.0
  0
LINE
  5
D6
100
AcDbEntity
  8
0
  6
Continuous
 62
               7
100
AcDbLine
 10
379.47155975057888
 20
323.72272725453792
 30
0.0
 11
379.89300331607609
 21
324.05796645436521
 31
0.0
  0
LINE
  5
D7
100
AcDbEntity
  8
0
  6
Continuous
 62
               7
100
AcDbLine
 10
382.47913428617312
 20
315.43752988737469
 30
0.0
 11
381.8565472007794
 21
315.77276908720211
 31
0.0
  0
LINE
  5
D8
100
AcDbEntity
  8
0
  6
Continuous
 62
               2
100
AcDbLine
 10
312.04096893888521
 20
333.90063898182399
 30
0.0
 11
407.8235974610003
 21
362.63542753845877
 31
0.0
  0
LINE
  5
D9
100
AcDbEntity
  8
0
  6
Continuous
 62
               2
100
AcDbLine
 10
311.7536210533188
 20
334.85846526704557
 30
0.0
 11
665.81974447275729
 21
441.07830229287231
 31
0.0
  0
LINE
  5
DA
100
AcDbEntity
  8
0
  6
Continuous
 62
               4
100
AcDbLine
 10
269.11202013115656
 20
355.81330334796957
 30
0.0
 11
216.53713415811566
 21
355.81330334796957
 31
0.0
  0
LINE
  5
DB
100
AcDbEntity
  8
0
  6
Continuous
 62
               4
100
AcDbLine
 10
338.51049833097159
 20
315.27091773427259
 30
0.0
 11
330.05326474389847
 21
318.34909902420361
 31
0.0
  0
LINE
  5
DC
100
AcDbEntity
  8
0
  6
Continuous
 62
               4
100
AcDbLine
 10
338.51049833097159
 20
315.27091773427259
 30
0.0
 11
331.61609834290084
 21
321.05600622145147
 31
0.0
  0
LINE
  5
DD
100
AcDbEntity
  8
0
  6
Continuous
 62
               4
100
AcDbLine
 10
301.31828993993349
 20
331.36177844565776
 30
0.0
 11
267.70590186343725
 21
321.27806202270926
 31
0.0
  0
LINE
  5
DE
100
AcDbEntity
  8
0
  6
Continuous
 62
               4
100
AcDbLine
 10
337.70366475552055
 20
300.51616485469162
 30
0.0
 11
279.19981728609059
 21
282.96501061386311
 31
0.0
  0
LINE
  5
DF
100
AcDbEntity
  8
0
  6
Continuous
 62
               4
100
AcDbLine
 10
282.16176446237318
 20
283.85359476674785
 30
0.0
 11
270.66784903971973
 21
322.16664617559411
 31
0.0
  0
LINE
  5
E0
100
AcDbEntity
  8
0
  6
Continuous
 62
               2
100
AcDbLine
 10
342.50482020444304
 20
301.95651148936832
 30
0.0
 11
331.48484252887465
 21
338.68977040792981
 31
0.0
  0
LINE
  5
E1
100
AcDbEntity
  8
0
  6
Continuous
 62
               2
100
AcDbLine
 10
342.67703507898898
 20
311.71714053381572
 30
0.0
 11
343.46264648966405
 21
302.24385937493469
 31
0.0
  0
LINE
  5
E2
100
AcDbEntity
  8
0
  6
Continuous
 62
               4
100
AcDbLine
 10
269.28442886249627
 20
355.23860757683696
 30
0.0
 11
338.51049833097159
 21
315.27091773427259
 31
0.0
  0
LINE
  5
E3
100
AcDbEntity
  8
0
  6
Continuous
 62
               2
100
AcDbLine
 10
312.32831682445169
 20
332.94281269660286
 30
0.0
 11
331.48484252887465
 21
338.68977040792981
 31
0.0
  0
LINE
  5
E4
100
AcDbEntity
  8
0
  6
Continuous
 62
               2
100
AcDbLine
 10
312.615664710018
 20
331.98498641138178
 30
0.0
 11
330.00232958322124
 21
336.64372922322707
 31
0.0
  0
LINE
  5
E5
100
AcDbEntity
  8
0
  6
Continuous
 62
               4
100
AcDbLine
 10
318.55418982344651
 20
381.79194609269092
 30
0.0
 11
325.73788481754769
 21
357.84629611235317
 31
0.0
  0
LINE
  5
E6
100
AcDbEntity
  8
0
  6
Continuous
 62
               4
100
AcDbLine
 10
299.39766411902343
 20
376.04498838136391
 30
0.0
 11
306.58135911312462
 21
352.0993384010265
 31
0.0
  0
LINE
  5
E7
100
AcDbEntity
  8
0
  6
Continuous
 62
               4
100
AcDbLine
 10
300.25970777572246
 20
373.1715095257004
 30
0.0
 11
319.41623348014542
 21
378.91846723702741
 31
0.0
  0
LINE
  5
E8
100
AcDbEntity
  8
0
  6
Continuous
 62
               2
100
AcDbLine
 10
308.30544642652279
 20
346.35238068969949
 30
0.0
 11
317.23801198755297
 21
348.83226376024123
 31
0.0
  0
LINE
  5
E9
100
AcDbEntity
  8
0
  6
Continuous
 62
               2
100
AcDbLine
 10
308.30544642652285
 20
346.3523806896996
 30
0.0
 11
311.75362105331885
 21
334.85846526704569
 31
0.0
  0
LINE
  5
EA
100
AcDbEntity
  8
0
  6
Continuous
 62
               3
100
AcDbLine
 10
321.04453601996414
 20
338.68977040793033
 30
0.0
 11
311.7536210533188
 21
334.85846526704557
 31
0.0
  0
LINE
  5
EB
100
AcDbEntity
  8
0
  6
Continuous
 62
               3
100
AcDbLine
 10
317.5963613931678
 20
350.18368583058401
 30
0.0
 11
308.01809854095637
 21
347.31020697492062
 31
0.0
  0
LINE
  5
EC
100
AcDbEntity
  8
0
  6
Continuous
 62
               3
100
AcDbLine
 10
317.5963613931678
 20
350.18368583058401
 30
0.0
 11
321.04453601996414
 21
338.68977040793033
 31
0.0
  0
LINE
  5
ED
100
AcDbEntity
  8
0
  6
Continuous
 62
               2
100
AcDbLine
 10
661.50952618926101
 20
455.44569657119337
 30
0.0
 11
307.44340276982371
 21
349.22585954536299
 31
0.0
  0
LINE
  5
EE
100
AcDbEntity
  8
0
  6
Continuous
 62
               4
100
AcDbLine
 10
714.78679656440374
 20
21.213203435595119
 30
0.0
 11
714.78679656440374
 21
41.213203435595119
 31
0.0
  0
LINE
  5
EF
100
AcDbEntity
  8
0
  6
Continuous
 62
               4
100
AcDbLine
 10
864.78679656440374
 20
21.213203435595119
 30
0.0
 11
714.78679656440374
 21
21.213203435595119
 31
0.0
  0
LINE
  5
F0
100
AcDbEntity
  8
0
  6
Continuous
 62
               4
100
AcDbLine
 10
864.78679656440374
 20
41.213203435595119
 30
0.0
 11
864.78679656440374
 21
21.213203435595119
 31
0.0
  0
LINE
  5
F1
100
AcDbEntity
  8
0
  6
Continuous
 62
               4
100
AcDbLine
 10
864.78679656440374
 20
41.213203435595119
 30
0.0
 11
714.78679656440374
 21
41.213203435595119
 31
0.0
  0
LINE
  5
F2
100
AcDbEntity
  8
0
  6
Continuous
 62
               4
100
AcDbLine
 10
14.142135623730949
 20
595.85786437626768
 30
0.0
 11
14.142135623730949
 21
615.85786437626768
 31
0.0
  0
LINE
  5
F3
100
AcDbEntity
  8
0
  6
Continuous
 62
               4
100
AcDbLine
 10
164.14213562373095
 20
595.85786437626768
 30
0.0
 11
14.142135623730949
 21
595.85786437626768
 31
0.0
  0
LINE
  5
F4
100
AcDbEntity
  8
0
  6
Continuous
 62
               4
100
AcDbLine
 10
164.14213562373095
 20
615.85786437626768
 30
0.0
 11
164.14213562373095
 21
595.85786437626768
 31
0.0
  0
LINE
  5
F5
100
AcDbEntity
  8
0
  6
Continuous
 62
               4
100
AcDbLine
 10
164.14213562373095
 20
615.85786437626768
 30
0.0
 11
14.142135623730949
 21
615.85786437626768
 31
0.0
  0
CIRCLE
  5
F6
100
AcDbEntity
  8
0
  6
Continuous
 62
               4
100
AcDbCircle
 10
684.21000914900355
 20
442.41925909218196
 30
0.0
 40
1.500000000000002
  0
CIRCLE
  5
F7
100
AcDbEntity
  8
0
  6
Continuous
 62
               4
100
AcDbCircle
 10
689.3822710891975
 20
425.17838595820115
 30
0.0
 40
1.500000000000002
  0
CIRCLE
  5
F8
100
AcDbEntity
  8
0
  6
Continuous
 62
               4
100
AcDbCircle
 10
683.06061760673776
 20
446.25056423306648
 30
0.0
 40
1.5
  0
CIRCLE
  5
F9
100
AcDbEntity
  8
0
  6
Continuous
 62
               4
100
AcDbCircle
 10
678.75039932324148
 20
460.61795851138754
 30
0.0
 40
1.5
  0
CIRCLE
  5
FA
100
AcDbEntity
  8
0
  6
Continuous
 62
               4
100
AcDbCircle
 10
478.62255716160598
 20
371.34674763794578
 30
0.0
 40
1.5
  0
CIRCLE
  5
FB
100
AcDbEntity
  8
0
  6
Continuous
 62
               4
100
AcDbCircle
 10
473.48473950959487
 20
380.2457088512532
 30
0.0
 40
1.5
  0
CIRCLE
  5
FC
100
AcDbEntity
  8
0
  6
Continuous
 62
               4
100
AcDbCircle
 10
270.66784903971973
 20
322.16664617559411
 30
0.0
 40
1.5
  0
CIRCLE
  5
FD
100
AcDbEntity
  8
0
  6
Continuous
 62
               4
100
AcDbCircle
 10
282.16176446237318
 20
283.8535947667479
 30
0.0
 40
1.5
  0
CIRCLE
  5
FE
100
AcDbEntity
  8
0
  6
Continuous
 62
               4
100
AcDbCircle
 10
471.94339421399161
 20
382.91539721524532
 30
0.0
 40
1.5
  0
CIRCLE
  5
FF
100
AcDbEntity
  8
0
  6
Continuous
 62
               4
100
AcDbCircle
 10
319.41623348014542
 20
378.91846723702741
 30
0.0
 40
1.5
  0
CIRCLE
  5
100
100
AcDbEntity
  8
0
  6
Continuous
 62
               4
100
AcDbCircle
 10
300.25970777572246
 20
373.1715095257004
 30
0.0
 40
1.5
  0
ARC
  5
101
100
AcDbEntity
  8
0
  6
Continuous
 62
               2
100
AcDbCircle
 10
353.99376023157157
 20
282.80060666527567
 30
0.0
 40
0.499999999999958
100
AcDbArc
 50
196.699244233988
 51
16.699244233995945
  0
ARC
  5
102
100
AcDbEntity
  8
0
  6
Continuous
 62
               6
100
AcDbCircle
 10
405.61101874213949
 20
337.64573975703894
 30
0.0
 40
2.2999999999999998
100
AcDbArc
 50
16.6992442339935
 51
106.69924423399382
  0
ARC
  5
103
100
AcDbEntity
  8
0
  6
Continuous
 62
               6
100
AcDbCircle
 10
362.12570539309928
 20
324.60014575232685
 30
0.0
 40
2.2999999999999998
100
AcDbArc
 50
106.69924423399382
 51
196.6992442339938
  0
ARC
  5
104
100
AcDbEntity
  8
0
  6
Continuous
 62
               6
100
AcDbCircle
 10
389.53869367612873
 20
233.22351814222867
 30
0.0
 40
2.2999999999999998
100
AcDbArc
 50
196.69924423399351
 51
286.6992442339938
  0
ARC
  5
105
100
AcDbEntity
  8
0
  6
Continuous
 62
               6
100
AcDbCircle
 10
433.02400702516928
 20
246.26911214694076
 30
0.0
 40
2.2999999999999998
100
AcDbArc
 50
286.69924423399351
 51
16.6992442339935
  0
ARC
  5
106
100
AcDbEntity
  8
0
  6
Continuous
 62
               7
100
AcDbCircle
 10
369.04386048909589
 20
317.4401025362007
 30
0.0
 40
30.0
100
AcDbArc
 50
1.5620294067002536
 51
19.691546246868189
  0
ARC
  5
107
100
AcDbEntity
  8
0
  6
Continuous
 62
               7
100
AcDbCircle
 10
349.96162090721191
 20
312.60831931391033
 30
0.0
 40
30.0
100
AcDbArc
 50
1.5620294067002536
 51
19.691546246868189
  0
ARC
  5
108
100
AcDbEntity
  8
0
  6
Continuous
 62
               2
100
AcDbCircle
 10
342.98373334705354
 20
302.10018543215148
 30
0.0
 40
0.499999999999958
100
AcDbArc
 50
196.699244233988
 51
16.699244233995945
  0
ARC
  5
109
100
AcDbEntity
  8
0
  6
Continuous
 62
               2
100
AcDbCircle
 10
312.18464288166842
 20
333.42172583921337
 30
0.0
 40
0.499999999999958
100
AcDbArc
 50
106.69924423399456
 51
286.69924423400204
  0
ARC
  5
10A
100
AcDbEntity
  8
0
  6
Continuous
 62
               2
100
AcDbCircle
 10
312.18464288166842
 20
333.42172583921371
 30
0.0
 40
1.5000000000002249
100
AcDbArc
 50
106.69924423399611
 51
286.69924423399272
  0
ARC
  5
10B
100
AcDbEntity
  8
0
  6
Continuous
 62
               2
100
AcDbCircle
 10
307.87442459817322
 20
347.78912011753124
 30
0.0
 40
1.5000000000000611
100
AcDbArc
 50
106.6992442339949
 51
286.69924423399078
  0
TEXT
  5
10C
100
AcDbEntity
  8
0
 62
               7
100
AcDbText
 10
685.07205280570247
 20
439.54578023651851
 30
0.0
 40
12.000000000000064
  1
18
 50
286.69924423399283
 41
0.7695
  7
FontTableH_0
 72
               5
 11
688.52022743249847
 21
428.0518648138646
 31
0.0
100
AcDbText
  0
TEXT
  5
10D
100
AcDbEntity
  8
0
 62
               7
100
AcDbText
 10
679.18142115159162
 20
459.18121908355391
 30
0.0
 40
12.000000000000012
  1
15
 50
286.69924423399351
 41
0.7695
  7
FontTableH_0
 72
               5
 11
682.62959577838774
 21
447.68730366090011
 31
0.0
100
AcDbText
  0
TEXT
  5
10E
100
AcDbEntity
  8
0
 62
               7
100
AcDbText
 10
447.99498669024928
 20
298.40670462722636
 30
0.0
 40
12.000000000000012
  1
母屋（別途）
 41
0.7695
  7
FontTableH_0
 72
               5
 11
519.99498669024956
 21
298.40670462722636
 31
0.0
100
AcDbText
  0
TEXT
  5
10F
100
AcDbEntity
  8
0
 62
               7
100
AcDbText
 10
240.93577456981612
 20
226.64880491192463
 30
0.0
 40
12.000000000000098
  1
軒先水切り
 41
0.7695
  7
FontTableH_0
 72
               5
 11
300.93577456981626
 21
226.64880491192463
 31
0.0
100
AcDbText
  0
TEXT
  5
110
100
AcDbEntity
  8
0
 62
               7
100
AcDbText
 10
317.83096771893008
 20
509.11733829467846
 30
0.0
 40
12.000000000000012
  1
屋根本体
 41
0.7695
  7
FontTableH_0
 72
               5
 11
365.83096771893031
 21
509.11733829467846
 31
0.0
100
AcDbText
  0
TEXT
  5
111
100
AcDbEntity
  8
0
 62
               7
100
AcDbText
 10
317.83096771893008
 20
494.11733829467846
 30
0.0
 40
12.000000000000012
  1
ルーフィング
 41
0.7695
  7
FontTableH_0
 72
               5
 11
389.83096771893031
 21
494.11733829467846
 31
0.0
100
AcDbText
  0
TEXT
  5
112
100
AcDbEntity
  8
0
 62
               7
100
AcDbText
 10
317.83096771893008
 20
479.11733829467846
 30
0.0
 40
12.000000000000183
  1
野地板
 41
0.7695
  7
FontTableH_0
 72
               5
 11
353.83096771893014
 21
479.11733829467846
 31
0.0
100
AcDbText
  0
TEXT
  5
113
100
AcDbEntity
  8
0
 62
               7
100
AcDbText
 10
219.53941166895737
 20
357.31688421204422
 30
0.0
 40
12.000000000000012
  1
軒先唐草
 41
0.7695
  7
FontTableH_0
 72
               5
 11
267.53941166895748
 21
357.31688421204422
 31
0.0
100
AcDbText
  0
TEXT
  5
114
100
AcDbEntity
  8
0
 62
               7
100
AcDbText
 10
276.0187895766872
 20
309.55237503014553
 30
0.0
 40
12.000000000000032
  1
40
 50
286.69926678879273
 41
0.7695
  7
FontTableH_0
 72
               5
 11
279.46696872812618
 21
298.05846096488551
 31
0.0
100
AcDbText
  0
TEXT
  5
115
100
AcDbEntity
  8
0
 62
               7
100
AcDbText
 10
304.73302988415577
 20
376.08219004695337
 30
0.0
 40
12.000000000000066
  1
20
 50
16.699255860263545
 41
0.7695
  7
FontTableH_0
 72
               5
 11
316.22694460711722
 21
379.53036700605674
 31
0.0
100
AcDbText
  0
TEXT
  5
116
100
AcDbEntity
  8
0
 62
               7
100
AcDbText
 10
744.7867977564963
 20
26.713203554804398
 30
0.0
 40
8.9999997615814422
  1
軒先詳細図 【S=1/3】
 41
0.7695
  7
FontTableH_0
 72
               5
 11
834.78679537231073
 21
26.713203554804398
 31
0.0
100
AcDbText
  0
TEXT
  5
117
100
AcDbEntity
  8
0
 62
               7
100
AcDbText
 10
41.892136875428378
 20
601.35786449547697
 30
0.0
 40
8.9999997615814422
  1
ハーパーズルーフ Y165
 41
0.7695
  7
FontTableH_0
 72
               5
 11
136.39213437203352
 21
601.35786449547697
 31
0.0
100
AcDbText
  0
ENDSEC
  0
SECTION
  2
OBJECTS
  0
DICTIONARY
  5
19
100
AcDbDictionary
  3
ACAD_GROUP
350
1A
  3
ACAD_MLINESTYLE
350
1B
  3
DWGPROPS
350
118
  0
DICTIONARY
  5
1A
102
{ACAD_REACTORS
330
19
102
}
100
AcDbDictionary
  0
DICTIONARY
  5
1B
102
{ACAD_REACTORS
330
19
102
}
100
AcDbDictionary
  3
STANDARD
350
1C
  0
MLINESTYLE
  5
1C
102
{ACAD_REACTORS
330
1B
102
}
100
AcDbMlineStyle
  2
Standard
 70
               0
  3

 62
               0
 51
90.0
 52
90.0
 71
               2
 49
0.5
 62
             256
  6
ByLayer
 49
-0.5
 62
             256
  6
ByLayer
  0
XRECORD
  5
118
100
AcDbXrecord
  1
DWGPROPS COOKIE
  2

  3

  4

  6

  7

  0
ENDSEC
  0
EOF
