  0
SECTION
  2
HEADER
  9
$ACADVER
  1
AC1014
  9
$ACADMAINTVER
 70
               0
  9
$DWGCODEPAGE
  3
ANSI_932
  9
$INSBASE
 10
0.0
 20
0.0
 30
0.0
  9
$EXTMIN
 10
0.0
 20
0.0
 30
0.0
  9
$EXTMAX
 10
891.00000000000091
 20
630.00000000000068
 30
0.0
  9
$LIMMIN
 10
0.0
 20
0.0
  9
$LIMMAX
 10
891.00000000000091
 20
630.00000000000068
  9
$ORTHOMODE
 70
               0
  9
$REGENMODE
 70
               1
  9
$FILLMODE
 70
               1
  9
$QTEXTMODE
 70
               0
  9
$MIRRTEXT
 70
               1
  9
$DRAGMODE
 70
               2
  9
$LTSCALE
 40
3.0000000000000031
  9
$OSMODE
 70
               0
  9
$ATTMODE
 70
               1
  9
$TEXTSIZE
 40
0.2
  9
$TRACEWID
 40
0.05
  9
$TEXTSTYLE
  7
Standard
  9
$CLAYER
  8
0
  9
$CELTYPE
  6
Continuous
  9
$CECOLOR
 62
             256
  9
$CELTSCALE
 40
1.0
  9
$DELOBJ
 70
               1
  9
$DISPSILH
 70
               0
  9
$DIMSCALE
 40
1.0
  9
$DIMASZ
 40
0.18
  9
$DIMEXO
 40
0.0625
  9
$DIMDLI
 40
0.38
  9
$DIMRND
 40
0.0
  9
$DIMDLE
 40
0.0
  9
$DIMEXE
 40
0.18
  9
$DIMTP
 40
0.0
  9
$DIMTM
 40
0.0
  9
$DIMTXT
 40
0.18
  9
$DIMCEN
 40
0.09
  9
$DIMTSZ
 40
0.0
  9
$DIMTOL
 70
               0
  9
$DIMLIM
 70
               0
  9
$DIMTIH
 70
               1
  9
$DIMTOH
 70
               1
  9
$DIMSE1
 70
               0
  9
$DIMSE2
 70
               0
  9
$DIMTAD
 70
               0
  9
$DIMZIN
 70
               0
  9
$DIMBLK
  1

  9
$DIMASO
 70
               1
  9
$DIMSHO
 70
               1
  9
$DIMPOST
  1

  9
$DIMAPOST
  1

  9
$DIMALT
 70
               0
  9
$DIMALTD
 70
               2
  9
$DIMALTF
 40
25.399999999999999
  9
$DIMLFAC
 40
1.0
  9
$DIMTOFL
 70
               0
  9
$DIMTVP
 40
0.0
  9
$DIMTIX
 70
               0
  9
$DIMSOXD
 70
               0
  9
$DIMSAH
 70
               0
  9
$DIMBLK1
  1

  9
$DIMBLK2
  1

  9
$DIMSTYLE
  2
Standard
  9
$DIMCLRD
 70
               0
  9
$DIMCLRE
 70
               0
  9
$DIMCLRT
 70
               0
  9
$DIMTFAC
 40
1.0
  9
$DIMGAP
 40
0.09
  9
$DIMJUST
 70
               0
  9
$DIMSD1
 70
               0
  9
$DIMSD2
 70
               0
  9
$DIMTOLJ
 70
               1
  9
$DIMTZIN
 70
               0
  9
$DIMALTZ
 70
               0
  9
$DIMALTTZ
 70
               0
  9
$DIMFIT
 70
               3
  9
$DIMUPT
 70
               0
  9
$DIMUNIT
 70
               2
  9
$DIMDEC
 70
               4
  9
$DIMTDEC
 70
               4
  9
$DIMALTU
 70
               2
  9
$DIMALTTD
 70
               2
  9
$DIMTXSTY
  7
Standard
  9
$DIMAUNIT
 70
               0
  9
$LUNITS
 70
               2
  9
$LUPREC
 70
               4
  9
$SKETCHINC
 40
0.1
  9
$FILLETRAD
 40
0.0
  9
$AUNITS
 70
               0
  9
$AUPREC
 70
               0
  9
$MENU
  1
acad
  9
$ELEVATION
 40
0.0
  9
$PELEVATION
 40
0.0
  9
$THICKNESS
 40
0.0
  9
$LIMCHECK
 70
               0
  9
$BLIPMODE
 70
               1
  9
$CHAMFERA
 40
0.0
  9
$CHAMFERB
 40
0.0
  9
$CHAMFERC
 40
0.0
  9
$CHAMFERD
 40
0.0
  9
$SKPOLY
 70
               0
  9
$TDCREATE
 40
0.000000000
  9
$TDUPDATE
 40
0.000000000
  9
$TDINDWG
 40
0.0000000000
  9
$TDUSRTIMER
 40
0.0000000000
  9
$USRTIMER
 70
               1
  9
$ANGBASE
 50
0.0
  9
$ANGDIR
 70
               0
  9
$PDMODE
 70
               0
  9
$PDSIZE
 40
0.0
  9
$PLINEWID
 40
0.0
  9
$COORDS
 70
               0
  9
$SPLFRAME
 70
               0
  9
$SPLINETYPE
 70
               6
  9
$SPLINESEGS
 70
               8
  9
$ATTDIA
 70
               0
  9
$ATTREQ
 70
               1
  9
$HANDLING
 70
               1
  9
$HANDSEED
  5
1EE
  9
$SURFTAB1
 70
               6
  9
$SURFTAB2
 70
               6
  9
$SURFTYPE
 70
               6
  9
$SURFU
 70
               6
  9
$SURFV
 70
               6
  9
$UCSNAME
  2

  9
$UCSORG
 10
0.0
 20
0.0
 30
0.0
  9
$UCSXDIR
 10
1.0
 20
0.0
 30
0.0
  9
$UCSYDIR
 10
0.0
 20
1.0
 30
0.0
  9
$PUCSNAME
  2

  9
$PUCSORG
 10
0.0
 20
0.0
 30
0.0
  9
$PUCSXDIR
 10
1.0
 20
0.0
 30
0.0
  9
$PUCSYDIR
 10
0.0
 20
1.0
 30
0.0
  9
$USERI1
 70
               0
  9
$USERI2
 70
               0
  9
$USERI3
 70
               0
  9
$USERI4
 70
               0
  9
$USERI5
 70
               0
  9
$USERR1
 40
0.0
  9
$USERR2
 40
0.0
  9
$USERR3
 40
0.0
  9
$USERR4
 40
0.0
  9
$USERR5
 40
0.0
  9
$WORLDVIEW
 70
               1
  9
$SHADEDGE
 70
               3
  9
$SHADEDIF
 70
              70
  9
$TILEMODE
 70
               1
  9
$MAXACTVP
 70
              16
  9
$PINSBASE
 10
0.0
 20
0.0
 30
0.0
  9
$PLIMCHECK
 70
               0
  9
$PEXTMIN
 10
1.0000000000000000E+20
 20
1.0000000000000000E+20
 30
1.0000000000000000E+20
  9
$PEXTMAX
 10
-1.0000000000000000E+20
 20
-1.0000000000000000E+20
 30
-1.0000000000000000E+20
  9
$PLIMMIN
 10
0.0
 20
0.0
  9
$PLIMMAX
 10
12.0
 20
9.0
  9
$UNITMODE
 70
               0
  9
$VISRETAIN
 70
               0
  9
$PLINEGEN
 70
               1
  9
$PSLTSCALE
 70
               0
  9
$TREEDEPTH
 70
            3020
  9
$PICKSTYLE
 70
               1
  9
$CMLSTYLE
  2
Standard
  9
$CMLJUST
 70
               0
  9
$CMLSCALE
 40
1.0
  9
$PROXYGRAPHICS
 70
               0
  9
$MEASUREMENT
 70
               0
  0
ENDSEC
  0
SECTION
  2
CLASSES
  0
CLASS
  1
LWPOLYLINE
  2
AcDbPolyline
  3
"AutoCAD"
 90
        0
280
               0
281
               1
  0
CLASS
  1
IMAGE
  2
AcDbRasterImage
  3
ISM
 90
      127
280
               0
281
               1
  0
CLASS
  1
OLE2FRAME
  2
AcDbOle2Frame
  3
""
 90
        0
280
               0
281
               1
  0
CLASS
  1
HATCH
  2
AcDbHatch
  3
"ACAD_SEDONA"
 90
        0
280
               0
281
               1
  0
CLASS
  1
DICTIONARYVAR
  2
AcDbDictionaryVar
  3
"AutoCAD"
 90
        0
280
               0
281
               0
  0
CLASS
  1
RASTERVARIABLES
  2
AcDbRasterVariables
  3
ISM
 90
        0
280
               0
281
               0
  0
CLASS
  1
IMAGEDEF
  2
AcDbRasterImageDef
  3
ISM
 90
        0
280
               0
281
               0
  0
CLASS
  1
IMAGEDEF_REACTOR
  2
AcDbRasterImageDefReactor
  3
ISM
 90
        1
280
               0
281
               0
  0
CLASS
  1
IDBUFFER
  2
AcDbIdBuffer
  3
"Acad"
 90
        0
280
               0
281
               0
  0
CLASS
  1
SPATIAL_FILTER
  2
AcDbSpatialFilter
  3
"Acad"
 90
        0
280
               0
281
               0
  0
CLASS
  1
XRECORD
  2
AcDbXrecord
  3
"<Built In>"
 90
        0
280
               0
281
               0
  0
CLASS
  1
SORTENTSTABLE
  2
AcDbSortentsTable
  3
"AutoCAD"
 90
        0
280
               0
281
               0
  0
CLASS
  1
LAYER_INDEX
  2
AcDbLayerIndex
  3
"Acad"
 90
        0
280
               0
281
               0
  0
CLASS
  1
SPATIAL_INDEX
  2
AcDbSpatialIndex
  3
"Acad"
 90
        0
280
               0
281
               0
  0
CLASS
  1
OBJECT_PTR
  2
CAseDLPNTableRecord
  3
"ASE-LPNTableRecord"
 90
        1
280
               0
281
               0
  0
CLASS
  1
LAYOUT
  2
AcDbLayout
  3
"AutoCAD 2000"
 90
        0
280
               0
281
               0
  0
CLASS
  1
PLOTSETTINGS
  2
AcDbPlotSettings
  3
"AutoCAD 2000"
 90
        0
280
               0
281
               0
  0
CLASS
  1
ACDBDICTIONARYWDFLT
  2
AcDbDictionaryWithDefault
  3
"AutoCAD 2000"
 90
        0
280
               0
281
               0
  0
CLASS
  1
ACDBPLACEHOLDER
  2
AcDbPlaceHolder
  3
"AutoCAD 2000"
 90
        0
280
               0
281
               0
  0
CLASS
  1
VBA_PROJECT
  2
AcDbVbaProject
  3
"acadvba"
 90
        0
280
               0
281
               0
  0
CLASS
  1
WIPEOUT
  2
AcDbWipeout
  3
WipeOut|AutoCAD Express Tool|expresstools@autodesk.com
 90
      127
280
               0
281
               1
  0
CLASS
  1
WIPEOUTVARIABLES
  2
AcDbWipeoutVariables
  3
WipeOut|AutoCAD Express Tool|expresstools@autodesk.com
 90
        0
280
               0
281
               0
  0
CLASS
  1
RTEXT
  2
RText
  3
RText|AutoCAD Express Tool|expresstools@autodesk.com
 90
        0
280
               0
281
               1
  0
CLASS
  1
ARCALIGNEDTEXT
  2
AcDbArcAlignedText
  3
ATEXT|AutoCAD Express Tool|expresstools@autodesk.com
 90
        0
280
               0
281
               1
  0
ENDSEC
  0
SECTION
  2
TABLES
  0
TABLE
  2
VPORT
  5
7
100
AcDbSymbolTable
 70
               1
  0
VPORT
  5
15
100
AcDbSymbolTableRecord
100
AcDbViewportTableRecord
  2
*ACTIVE
 70
               0
 10
0.0
 20
0.0
 11
1.0
 21
1.0
 12
445.50000000000045
 22
315.00000000000034
 13
0.0
 23
0.0
 14
10.0
 24
10.0
 15
10.0
 25
10.0
 16
0.0
 26
0.0
 36
1.0
 17
0.0
 27
0.0
 37
0.0
 40
630.00000000000068
 41
1.4142857142857141
 42
50.0
 43
0.0
 44
0.0
 50
0.0
 51
0.0
 71
               0
 72
             100
 73
               1
 74
               1
 75
               0
 76
               0
 77
               0
 78
               0
  0
ENDTAB
  0
TABLE
  2
LTYPE
  5
4
100
AcDbSymbolTable
 70
              24
  0
LTYPE
  5
11
100
AcDbSymbolTableRecord
100
AcDbLinetypeTableRecord
  2
ByBlock
 70
              64
  3

 72
              65
 73
               0
 40
0.0
  0
LTYPE
  5
12
100
AcDbSymbolTableRecord
100
AcDbLinetypeTableRecord
  2
ByLayer
 70
              64
  3

 72
              65
 73
               0
 40
0.0
  0
LTYPE
  5
13
100
AcDbSymbolTableRecord
100
AcDbLinetypeTableRecord
  2
Continuous
 70
              64
  3
Solid line
 72
              65
 73
               0
 40
0.0
  0
LTYPE
  5
1D
100
AcDbSymbolTableRecord
100
AcDbLinetypeTableRecord
  2
DOT
 70
              64
  3
Dot . . . . . . . . . . . . . . . . . . . . . .
 72
              65
 73
               2
 40
6.3499999999999996
 49
0.35
 74
               0
 49
-6.0
 74
               0
  0
LTYPE
  5
1E
100
AcDbSymbolTableRecord
100
AcDbLinetypeTableRecord
  2
DASHED
 70
              64
  3
Dashed __ __ __ __ __ __ __ __ __ __ __ __ __ _
 72
              65
 73
               2
 40
12.699999999999999
 49
6.3499999999999996
 74
               0
 49
-6.3499999999999996
 74
               0
  0
LTYPE
  5
1F
100
AcDbSymbolTableRecord
100
AcDbLinetypeTableRecord
  2
DASHDOT
 70
              64
  3
Dash dot __ . __ . __ . __ . __ . __ . __ . __
 72
              65
 73
               4
 40
25.399999999999999
 49
12.699999999999999
 74
               0
 49
-6.0
 74
               0
 49
0.7
 74
               0
 49
-6.0
 74
               0
  0
LTYPE
  5
20
100
AcDbSymbolTableRecord
100
AcDbLinetypeTableRecord
  2
DIVIDE
 70
              64
  3
Divide ____ . . ____ . . ____ . . ____ . . ____
 72
              65
 73
               6
 40
31.75
 49
12.699999999999999
 74
               0
 49
-6.0
 74
               0
 49
0.875
 74
               0
 49
-6.0
 74
               0
 49
0.875
 74
               0
 49
-6.0
 74
               0
  0
LTYPE
  5
21
100
AcDbSymbolTableRecord
100
AcDbLinetypeTableRecord
  2
HIDDEN
 70
              64
  3
Hidden __ __ __ __ __ __ __ __ __ __ __ __ __ _
 72
              65
 73
               2
 40
9.5250000000000004
 49
6.3499999999999996
 74
               0
 49
-3.1749999999999998
 74
               0
  0
LTYPE
  5
22
100
AcDbSymbolTableRecord
100
AcDbLinetypeTableRecord
  2
CENTER
 70
              64
  3
Center ____ _ ____ _ ____ _ ____ _ ____ _ ____
 72
              65
 73
               4
 40
50.799999999999997
 49
31.75
 74
               0
 49
-6.3499999999999996
 74
               0
 49
6.3499999999999996
 74
               0
 49
-6.3499999999999996
 74
               0
  0
LTYPE
  5
23
100
AcDbSymbolTableRecord
100
AcDbLinetypeTableRecord
  2
PHANTOM
 70
              64
  3
Phantom ______  __  __  ______  __  __  ______
 72
              65
 73
               6
 40
63.5
 49
31.75
 74
               0
 49
-6.3499999999999996
 74
               0
 49
6.3499999999999996
 74
               0
 49
-6.3499999999999996
 74
               0
 49
6.3499999999999996
 74
               0
 49
-6.3499999999999996
 74
               0
  0
LTYPE
  5
24
100
AcDbSymbolTableRecord
100
AcDbLinetypeTableRecord
  2
ACAD_ISO02W100
 70
              64
  3
ISO dash __ __ __ __ __ __ __ __ __ __ __ __ __
 72
              65
 73
               2
 40
15.0
 49
12.0
 74
               0
 49
-3.0
 74
               0
  0
LTYPE
  5
25
100
AcDbSymbolTableRecord
100
AcDbLinetypeTableRecord
  2
ACAD_ISO03W100
 70
              64
  3
ISO dash space __ __ __ __ __ __ __ __ __ __ __ __ __ __
 72
              65
 73
               2
 40
30.0
 49
12.0
 74
               0
 49
-18.0
 74
               0
  0
LTYPE
  5
26
100
AcDbSymbolTableRecord
100
AcDbLinetypeTableRecord
  2
ACAD_ISO04W100
 70
              64
  3
ISO long-dash dot ____ . ____ . ____ . ____ . _
 72
              65
 73
               4
 40
30.0
 49
24.0
 74
               0
 49
-3.0
 74
               0
 49
0.0
 74
               0
 49
-3.0
 74
               0
  0
LTYPE
  5
27
100
AcDbSymbolTableRecord
100
AcDbLinetypeTableRecord
  2
ACAD_ISO05W100
 70
              64
  3
ISO long-dash double-dot ____ .. ____ .. ____ .
 72
              65
 73
               6
 40
33.0
 49
24.0
 74
               0
 49
-3.0
 74
               0
 49
0.0
 74
               0
 49
-3.0
 74
               0
 49
0.0
 74
               0
 49
-3.0
 74
               0
  0
LTYPE
  5
28
100
AcDbSymbolTableRecord
100
AcDbLinetypeTableRecord
  2
ACAD_ISO06W100
 70
              64
  3
ISO long-dash triple-dot ____ ... ____ ... ____
 72
              65
 73
               8
 40
36.0
 49
24.0
 74
               0
 49
-3.0
 74
               0
 49
0.0
 74
               0
 49
-3.0
 74
               0
 49
0.0
 74
               0
 49
-3.0
 74
               0
 49
0.0
 74
               0
 49
-3.0
 74
               0
  0
LTYPE
  5
29
100
AcDbSymbolTableRecord
100
AcDbLinetypeTableRecord
  2
ACAD_ISO07W100
 70
              64
  3
ISO dot . . . . . . . . . . . . . . . . . . . .
 72
              65
 73
               2
 40
3.0
 49
0.0
 74
               0
 49
-3.0
 74
               0
  0
LTYPE
  5
2A
100
AcDbSymbolTableRecord
100
AcDbLinetypeTableRecord
  2
ACAD_ISO08W100
 70
              64
  3
ISO long-dash short-dash ____ __ ____ __ ____ _
 72
              65
 73
               4
 40
36.0
 49
24.0
 74
               0
 49
-3.0
 74
               0
 49
6.0
 74
               0
 49
-3.0
 74
               0
  0
LTYPE
  5
2B
100
AcDbSymbolTableRecord
100
AcDbLinetypeTableRecord
  2
ACAD_ISO09W100
 70
              64
  3
ISO long-dash double-short-dash ____ __ __ ____
 72
              65
 73
               6
 40
45.0
 49
24.0
 74
               0
 49
-3.0
 74
               0
 49
6.0
 74
               0
 49
-3.0
 74
               0
 49
6.0
 74
               0
 49
-3.0
 74
               0
  0
LTYPE
  5
2C
100
AcDbSymbolTableRecord
100
AcDbLinetypeTableRecord
  2
ACAD_ISO10W100
 70
              64
  3
ISO dash dot __ . __ . __ . __ . __ . __ . __ .
 72
              65
 73
               4
 40
18.0
 49
12.0
 74
               0
 49
-3.0
 74
               0
 49
0.0
 74
               0
 49
-3.0
 74
               0
  0
LTYPE
  5
2D
100
AcDbSymbolTableRecord
100
AcDbLinetypeTableRecord
  2
ACAD_ISO11W100
 70
              64
  3
ISO double-dash dot __ __ . __ __ . __ __ . __ 
 72
              65
 73
               6
 40
33.0
 49
12.0
 74
               0
 49
-3.0
 74
               0
 49
12.0
 74
               0
 49
-3.0
 74
               0
 49
0.0
 74
               0
 49
-3.0
 74
               0
  0
LTYPE
  5
2E
100
AcDbSymbolTableRecord
100
AcDbLinetypeTableRecord
  2
ACAD_ISO12W100
 70
              64
  3
ISO dash double-dot __ . . __ . . __ . . __ . .
 72
              65
 73
               6
 40
21.0
 49
12.0
 74
               0
 49
-3.0
 74
               0
 49
0.0
 74
               0
 49
-3.0
 74
               0
 49
0.0
 74
               0
 49
-3.0
 74
               0
  0
LTYPE
  5
2F
100
AcDbSymbolTableRecord
100
AcDbLinetypeTableRecord
  2
ACAD_ISO13W100
 70
              64
  3
ISO double-dash double-dot __ __ . . __ __ . . 
 72
              65
 73
               8
 40
36.0
 49
12.0
 74
               0
 49
-3.0
 74
               0
 49
12.0
 74
               0
 49
-3.0
 74
               0
 49
0.0
 74
               0
 49
-3.0
 74
               0
 49
0.0
 74
               0
 49
-3.0
 74
               0
  0
LTYPE
  5
30
100
AcDbSymbolTableRecord
100
AcDbLinetypeTableRecord
  2
ACAD_ISO14W100
 70
              64
  3
ISO dash triple-dot __ . . . __ . . . __ . . . 
 72
              65
 73
               8
 40
24.0
 49
12.0
 74
               0
 49
-3.0
 74
               0
 49
0.0
 74
               0
 49
-3.0
 74
               0
 49
0.0
 74
               0
 49
-3.0
 74
               0
 49
0.0
 74
               0
 49
-3.0
 74
               0
  0
LTYPE
  5
31
100
AcDbSymbolTableRecord
100
AcDbLinetypeTableRecord
  2
ACAD_ISO15W100
 70
              64
  3
ISO double-dash double-dot __ __ . . __ __ . . 
 72
              65
 73
              10
 40
39.0
 49
12.0
 74
               0
 49
-3.0
 74
               0
 49
12.0
 74
               0
 49
-3.0
 74
               0
 49
0.0
 74
               0
 49
-3.0
 74
               0
 49
0.0
 74
               0
 49
-3.0
 74
               0
 49
0.0
 74
               0
 49
-3.0
 74
               0
  0
ENDTAB
  0
TABLE
  2
LAYER
  5
2
100
AcDbSymbolTable
 70
              16
  0
LAYER
  5
14
100
AcDbSymbolTableRecord
100
AcDbLayerTableRecord
  2
0
 70
               0
 62
               7
  6
Continuous
  0
LAYER
  5
35
100
AcDbSymbolTableRecord
100
AcDbLayerTableRecord
  2
Layer00001
 70
               0
 62
               7
  6
Continuous
  0
LAYER
  5
36
100
AcDbSymbolTableRecord
100
AcDbLayerTableRecord
  2
Layer00002
 70
               0
 62
               7
  6
Continuous
  0
LAYER
  5
37
100
AcDbSymbolTableRecord
100
AcDbLayerTableRecord
  2
Layer00003
 70
               0
 62
               7
  6
Continuous
  0
LAYER
  5
38
100
AcDbSymbolTableRecord
100
AcDbLayerTableRecord
  2
Layer00004
 70
               0
 62
               7
  6
Continuous
  0
LAYER
  5
39
100
AcDbSymbolTableRecord
100
AcDbLayerTableRecord
  2
Layer00005
 70
               0
 62
               7
  6
Continuous
  0
LAYER
  5
3A
100
AcDbSymbolTableRecord
100
AcDbLayerTableRecord
  2
Layer00006
 70
               0
 62
               7
  6
Continuous
  0
LAYER
  5
3B
100
AcDbSymbolTableRecord
100
AcDbLayerTableRecord
  2
Layer00007
 70
               0
 62
               7
  6
Continuous
  0
LAYER
  5
3C
100
AcDbSymbolTableRecord
100
AcDbLayerTableRecord
  2
Layer00008
 70
               0
 62
               7
  6
Continuous
  0
LAYER
  5
3D
100
AcDbSymbolTableRecord
100
AcDbLayerTableRecord
  2
Layer00009
 70
               0
 62
               7
  6
Continuous
  0
LAYER
  5
3E
100
AcDbSymbolTableRecord
100
AcDbLayerTableRecord
  2
Layer00010
 70
               0
 62
               7
  6
Continuous
  0
LAYER
  5
3F
100
AcDbSymbolTableRecord
100
AcDbLayerTableRecord
  2
Layer00011
 70
               0
 62
               7
  6
Continuous
  0
LAYER
  5
40
100
AcDbSymbolTableRecord
100
AcDbLayerTableRecord
  2
Layer00012
 70
               0
 62
               7
  6
Continuous
  0
LAYER
  5
41
100
AcDbSymbolTableRecord
100
AcDbLayerTableRecord
  2
Layer00013
 70
               0
 62
               7
  6
Continuous
  0
LAYER
  5
42
100
AcDbSymbolTableRecord
100
AcDbLayerTableRecord
  2
Layer00014
 70
               0
 62
               7
  6
Continuous
  0
LAYER
  5
43
100
AcDbSymbolTableRecord
100
AcDbLayerTableRecord
  2
Layer00015
 70
               0
 62
               7
  6
Continuous
  0
ENDTAB
  0
TABLE
  2
STYLE
  5
3
100
AcDbSymbolTable
 70
               4
  0
STYLE
  5
17
100
AcDbSymbolTableRecord
100
AcDbTextStyleTableRecord
  2
Standard
 70
               0
 40
0.0
 41
1.0
 50
0.0
 71
               0
 42
0.0
  3
txt.shx
  4
bigfont.shx
  0
STYLE
  5
32
100
AcDbSymbolTableRecord
100
AcDbTextStyleTableRecord
  2
STANDARD_T
 70
               4
 40
0.0
 41
1.0
 50
0.0
 71
               0
 42
0.0
  3
txt.shx
  4
bigfont.shx
  0
STYLE
  5
33
100
AcDbSymbolTableRecord
100
AcDbTextStyleTableRecord
  2
FontTableH_0
 70
               0
 40
0.0
 41
1.0
 50
0.0
 71
               0
 42
0.0
  3
MS Gothic.ttf
  4

1001
ACAD
1000
MS Gothic
1071
    32817
  0
STYLE
  5
34
100
AcDbSymbolTableRecord
100
AcDbTextStyleTableRecord
  2
FontTableV_0
 70
               0
 40
0.0
 41
1.0
 50
0.0
 71
               0
 42
0.0
  3
@MS Gothic.ttf
  4

1001
ACAD
1000
@MS Gothic
1071
    32817
  0
ENDTAB
  0
TABLE
  2
VIEW
  5
5
100
AcDbSymbolTable
 70
               0
  0
ENDTAB
  0
TABLE
  2
UCS
  5
6
100
AcDbSymbolTable
 70
               0
  0
ENDTAB
  0
TABLE
  2
APPID
  5
8
100
AcDbSymbolTable
 70
               1
  0
APPID
  5
16
100
AcDbSymbolTableRecord
100
AcDbRegAppTableRecord
  2
ACAD
 70
               0
  0
ENDTAB
  0
TABLE
  2
DIMSTYLE
  5
9
100
AcDbSymbolTable
 70
               1
  0
DIMSTYLE
105
18
100
AcDbSymbolTableRecord
100
AcDbDimStyleTableRecord
  2
Standard
 70
               0
  3

  4

  5

  6

  7

 40
1.0
 41
0.18
 42
0.0625
 43
0.38
 44
0.18
 45
0.0
 46
0.0
 47
0.0
 48
0.0
 71
               0
 72
               0
 73
               1
 74
               1
 75
               0
 76
               0
 77
               0
 78
               0
140
0.18
141
0.09
142
0.0
143
25.399999999999999
144
1.0
145
0.0
146
1.0
147
0.09
170
               0
171
               2
172
               0
173
               0
174
               0
175
               0
176
               0
177
               0
178
               0
270
               2
271
               4
272
               4
273
               2
274
               2
275
               0
280
               0
281
               0
282
               0
283
               1
284
               0
285
               0
286
               0
287
               0
288
               0
340
17
  0
ENDTAB
  0
TABLE
  2
BLOCK_RECORD
  5
1
100
AcDbSymbolTable
 70
               0
  0
BLOCK_RECORD
  5
A
100
AcDbSymbolTableRecord
100
AcDbBlockTableRecord
  2
*MODEL_SPACE
  0
BLOCK_RECORD
  5
B
100
AcDbSymbolTableRecord
100
AcDbBlockTableRecord
  2
*PAPER_SPACE
  0
ENDTAB
  0
ENDSEC
  0
SECTION
  2
BLOCKS
  0
BLOCK
  5
D
100
AcDbEntity
  8
0
100
AcDbBlockBegin
  2
*MODEL_SPACE
 70
               0
 10
0.0
 20
0.0
 30
0.0
  3
*MODEL_SPACE
  1

  0
ENDBLK
  5
E
100
AcDbEntity
  8
0
100
AcDbBlockEnd
  0
BLOCK
  5
F
100
AcDbEntity
 67
               1
  8
0
100
AcDbBlockBegin
  2
*PAPER_SPACE
 70
               0
 10
0.0
 20
0.0
 30
0.0
  3
*PAPER_SPACE
  1

  0
ENDBLK
  5
10
100
AcDbEntity
 67
               1
  8
0
100
AcDbBlockEnd
  0
ENDSEC
  0
SECTION
  2
ENTITIES
  0
LINE
  5
44
100
AcDbEntity
  8
0
  6
Continuous
 62
               3
100
AcDbLine
 10
164.23577434114361
 20
262.12674781441592
 30
0.0
 11
437.67518721734888
 21
330.48660103346845
 31
0.0
  0
LINE
  5
45
100
AcDbEntity
  8
0
  6
Continuous
 62
               3
100
AcDbLine
 10
164.23577434114361
 20
243.57277249913642
 30
0.0
 11
442.04081429569561
 21
313.02403248777551
 31
0.0
  0
LINE
  5
46
100
AcDbEntity
  8
0
  6
DASHED
 62
               6
100
AcDbLine
 10
164.23577434114361
 20
264.70369110787743
 30
0.0
 11
310.83307487766984
 21
301.35301464100513
 31
0.0
  0
LINE
  5
47
100
AcDbEntity
  8
0
  6
Continuous
 62
               2
100
AcDbLine
 10
443.04081429569561
 20
355.12355458779501
 30
0.0
 11
347.03940880840156
 21
331.12320321597105
 31
0.0
  0
LINE
  5
48
100
AcDbEntity
  8
0
  6
Continuous
 62
               4
100
AcDbLine
 10
438.23280965235898
 20
378.66022181114761
 30
0.0
 11
442.59845905136143
 21
361.19762421513803
 31
0.0
  0
LINE
  5
49
100
AcDbEntity
  8
0
  6
Continuous
 62
               4
100
AcDbLine
 10
341.21855599038059
 20
354.40665839565253
 30
0.0
 11
345.96389286619882
 21
335.42531089237951
 31
0.0
  0
LINE
  5
4A
100
AcDbEntity
  8
0
  6
Continuous
 62
               4
100
AcDbLine
 10
438.960416527468
 20
375.74979431071165
 30
0.0
 11
341.94616286548961
 21
351.49623089521651
 31
0.0
  0
LINE
  5
4B
100
AcDbEntity
  8
0
  6
Continuous
 62
               6
100
AcDbLine
 10
411.38081364850592
 20
302.67901366932671
 30
0.0
 11
371.79899945753647
 21
292.78356012158412
 31
0.0
  0
LINE
  5
4C
100
AcDbEntity
  8
0
  6
Continuous
 62
               6
100
AcDbLine
 10
368.45200790142502
 20
287.20524086139841
 30
0.0
 11
372.18705655011462
 21
272.2650462666403
 31
0.0
  0
LINE
  5
4D
100
AcDbEntity
  8
0
  6
Continuous
 62
               6
100
AcDbLine
 10
372.18705655011462
 20
272.2650462666403
 30
0.0
 11
374.41838425418888
 21
272.82287819265895
 31
0.0
  0
LINE
  5
4E
100
AcDbEntity
  8
0
  6
Continuous
 62
               6
100
AcDbLine
 10
374.41838425418888
 20
272.82287819265895
 30
0.0
 11
370.68333560549928
 21
287.763072787417
 31
0.0
  0
LINE
  5
4F
100
AcDbEntity
  8
0
  6
Continuous
 62
               6
100
AcDbLine
 10
372.35683138355495
 20
290.5522324175098
 30
0.0
 11
411.93864557452451
 21
300.44768596525245
 31
0.0
  0
LINE
  5
50
100
AcDbEntity
  8
0
  6
Continuous
 62
               6
100
AcDbLine
 10
414.72780520461725
 20
298.77419018719672
 30
0.0
 11
436.7500400041767
 21
210.68525098896055
 31
0.0
  0
LINE
  5
51
100
AcDbEntity
  8
0
  6
Continuous
 62
               6
100
AcDbLine
 10
435.07654422612103
 20
207.89609135886775
 30
0.0
 11
395.49473003515146
 21
198.0006378111251
 31
0.0
  0
LINE
  5
52
100
AcDbEntity
  8
0
  6
Continuous
 62
               6
100
AcDbLine
 10
392.70557040505861
 20
199.67413358918083
 30
0.0
 11
388.97052175636901
 21
214.61432818393894
 31
0.0
  0
LINE
  5
53
100
AcDbEntity
  8
0
  6
Continuous
 62
               6
100
AcDbLine
 10
388.97052175636901
 20
214.61432818393894
 30
0.0
 11
386.73919405229475
 21
214.05649625792034
 31
0.0
  0
LINE
  5
54
100
AcDbEntity
  8
0
  6
Continuous
 62
               6
100
AcDbLine
 10
386.73919405229475
 20
214.05649625792034
 30
0.0
 11
390.47424270098435
 21
199.11630166316223
 31
0.0
  0
LINE
  5
55
100
AcDbEntity
  8
0
  6
Continuous
 62
               6
100
AcDbLine
 10
396.05256196117006
 20
195.7693101070509
 30
0.0
 11
435.63437615213962
 21
205.66476365479343
 31
0.0
  0
LINE
  5
56
100
AcDbEntity
  8
0
  6
Continuous
 62
               6
100
AcDbLine
 10
438.98136770825096
 20
211.24308291497914
 30
0.0
 11
416.95913290869163
 21
299.33202211321532
 31
0.0
  0
LINE
  5
57
100
AcDbEntity
  8
0
  6
Continuous
 62
               2
100
AcDbLine
 10
347.03940880840156
 20
331.12320321597105
 30
0.0
 11
350.89306129390178
 21
315.7084359498283
 31
0.0
  0
LINE
  5
58
100
AcDbEntity
  8
0
  6
Continuous
 62
               4
100
AcDbLine
 10
350.33788958133897
 20
330.29858115895831
 30
0.0
 11
354.67923556735417
 21
312.93301998082313
 31
0.0
  0
LINE
  5
59
100
AcDbEntity
  8
0
  6
Continuous
 62
               4
100
AcDbLine
 10
350.33788958133897
 20
330.29858115895831
 30
0.0
 11
443.04081429569561
 21
353.47431233754804
 31
0.0
  0
LINE
  5
5A
100
AcDbEntity
  8
0
  6
DASHED
 62
               6
100
AcDbLine
 10
443.04081429569561
 20
333.37417241266184
 30
0.0
 11
366.53753703834997
 21
314.24835309832514
 31
0.0
  0
LINE
  5
5B
100
AcDbEntity
  8
0
  6
Continuous
 62
               7
100
AcDbLine
 10
441.91167869037082
 20
313.54053931730101
 30
0.0
 11
441.52431608328067
 21
312.89490793467183
 31
0.0
  0
LINE
  5
5C
100
AcDbEntity
  8
0
  6
Continuous
 62
               7
100
AcDbLine
 10
440.1966823524802
 20
320.40058570401982
 30
0.0
 11
434.66446316259515
 21
311.17994470450031
 31
0.0
  0
LINE
  5
5D
100
AcDbEntity
  8
0
  6
Continuous
 62
               7
100
AcDbLine
 10
438.48167805448401
 20
327.26062655782022
 30
0.0
 11
427.80461024190964
 21
309.46498147432891
 31
0.0
  0
LINE
  5
5E
100
AcDbEntity
  8
0
  6
Continuous
 62
               7
100
AcDbLine
 10
434.04122039566136
 20
329.57810932804665
 30
0.0
 11
420.94475732122413
 21
307.7500182441575
 31
0.0
  0
LINE
  5
5F
100
AcDbEntity
  8
0
  6
Continuous
 62
               7
100
AcDbLine
 10
427.18136747497584
 20
327.86314609787513
 30
0.0
 11
414.08490440053862
 21
306.0350550139861
 31
0.0
  0
LINE
  5
60
100
AcDbEntity
  8
0
  6
Continuous
 62
               7
100
AcDbLine
 10
420.32151455429022
 20
326.14818286770361
 30
0.0
 11
407.22505147985311
 21
304.32009178381475
 31
0.0
  0
LINE
  5
61
100
AcDbEntity
  8
0
  6
Continuous
 62
               7
100
AcDbLine
 10
413.46166163360471
 20
324.43321963753232
 30
0.0
 11
400.36519855916748
 21
302.60512855364334
 31
0.0
  0
LINE
  5
62
100
AcDbEntity
  8
0
  6
Continuous
 62
               7
100
AcDbLine
 10
406.60180871291919
 20
322.71825640736091
 30
0.0
 11
393.50534563848197
 21
300.89016532347193
 31
0.0
  0
LINE
  5
63
100
AcDbEntity
  8
0
  6
Continuous
 62
               7
100
AcDbLine
 10
399.74195579223357
 20
321.00329317718951
 30
0.0
 11
386.64549271779646
 21
299.17520209330053
 31
0.0
  0
LINE
  5
64
100
AcDbEntity
  8
0
  6
Continuous
 62
               7
100
AcDbLine
 10
392.88210287154806
 20
319.28832994701804
 30
0.0
 11
379.78563979711095
 21
297.46023886312901
 31
0.0
  0
LINE
  5
65
100
AcDbEntity
  8
0
  6
Continuous
 62
               7
100
AcDbLine
 10
386.02224995086254
 20
317.57336671684664
 30
0.0
 11
372.92578687642532
 21
295.7452756329576
 31
0.0
  0
LINE
  5
66
100
AcDbEntity
  8
0
  6
Continuous
 62
               7
100
AcDbLine
 10
379.16239703017703
 20
315.85840348667512
 30
0.0
 11
366.06593395573981
 21
294.03031240278625
 31
0.0
  0
LINE
  5
67
100
AcDbEntity
  8
0
  6
Continuous
 62
               7
100
AcDbLine
 10
372.30254410949152
 20
314.14344025650371
 30
0.0
 11
359.2060810350543
 21
292.31534917261484
 31
0.0
  0
LINE
  5
68
100
AcDbEntity
  8
0
  6
Continuous
 62
               7
100
AcDbLine
 10
365.4426911888059
 20
312.42847702633242
 30
0.0
 11
352.34622811436878
 21
290.60038594244344
 31
0.0
  0
LINE
  5
69
100
AcDbEntity
  8
0
  6
Continuous
 62
               7
100
AcDbLine
 10
358.58283826812038
 20
310.7135137961609
 30
0.0
 11
345.48637519368327
 21
288.88542271227203
 31
0.0
  0
LINE
  5
6A
100
AcDbEntity
  8
0
  6
Continuous
 62
               7
100
AcDbLine
 10
351.72298534743487
 20
308.99855056598955
 30
0.0
 11
338.62652227299765
 21
287.17045948210063
 31
0.0
  0
LINE
  5
6B
100
AcDbEntity
  8
0
  6
Continuous
 62
               7
100
AcDbLine
 10
344.86313242674936
 20
307.28358733581814
 30
0.0
 11
331.76666935231214
 21
285.45549625192922
 31
0.0
  0
LINE
  5
6C
100
AcDbEntity
  8
0
  6
Continuous
 62
               7
100
AcDbLine
 10
338.00327950606385
 20
305.56862410564673
 30
0.0
 11
324.90681643162662
 21
283.74053302175781
 31
0.0
  0
LINE
  5
6D
100
AcDbEntity
  8
0
  6
Continuous
 62
               7
100
AcDbLine
 10
331.14342658537822
 20
303.85366087547521
 30
0.0
 11
318.04696351094111
 21
282.02556979158641
 31
0.0
  0
LINE
  5
6E
100
AcDbEntity
  8
0
  6
Continuous
 62
               7
100
AcDbLine
 10
324.28357366469271
 20
302.13869764530381
 30
0.0
 11
311.1871105902556
 21
280.310606561415
 31
0.0
  0
LINE
  5
6F
100
AcDbEntity
  8
0
  6
Continuous
 62
               7
100
AcDbLine
 10
317.4237207440072
 20
300.4237344151324
 30
0.0
 11
304.32725766956997
 21
278.59564333124365
 31
0.0
  0
LINE
  5
70
100
AcDbEntity
  8
0
  6
Continuous
 62
               7
100
AcDbLine
 10
310.56386782332169
 20
298.70877118496099
 30
0.0
 11
297.46740474888452
 21
276.88068010107224
 31
0.0
  0
LINE
  5
71
100
AcDbEntity
  8
0
  6
Continuous
 62
               7
100
AcDbLine
 10
303.70401490263612
 20
296.99380795478965
 30
0.0
 11
290.60755182819901
 21
275.16571687090084
 31
0.0
  0
LINE
  5
72
100
AcDbEntity
  8
0
  6
Continuous
 62
               7
100
AcDbLine
 10
296.84416198195061
 20
295.2788447246183
 30
0.0
 11
283.74769890751338
 21
273.45075364072932
 31
0.0
  0
LINE
  5
73
100
AcDbEntity
  8
0
  6
Continuous
 62
               7
100
AcDbLine
 10
289.98430906126498
 20
293.56388149444683
 30
0.0
 11
276.88784598682787
 21
271.73579041055791
 31
0.0
  0
LINE
  5
74
100
AcDbEntity
  8
0
  6
Continuous
 62
               7
100
AcDbLine
 10
283.12445614057947
 20
291.84891826427543
 30
0.0
 11
270.02799306614241
 21
270.0208271803865
 31
0.0
  0
LINE
  5
75
100
AcDbEntity
  8
0
  6
Continuous
 62
               7
100
AcDbLine
 10
276.26460321989401
 20
290.13395503410402
 30
0.0
 11
263.16814014545679
 21
268.3058639502151
 31
0.0
  0
LINE
  5
76
100
AcDbEntity
  8
0
  6
Continuous
 62
               7
100
AcDbLine
 10
269.40475029920839
 20
288.41899180393261
 30
0.0
 11
256.30828722477128
 21
266.59090072004375
 31
0.0
  0
LINE
  5
77
100
AcDbEntity
  8
0
  6
Continuous
 62
               7
100
AcDbLine
 10
262.54489737852288
 20
286.70402857376115
 30
0.0
 11
249.44843430408571
 21
264.87593748987234
 31
0.0
  0
LINE
  5
78
100
AcDbEntity
  8
0
  6
Continuous
 62
               7
100
AcDbLine
 10
255.68504445783742
 20
284.9890653435898
 30
0.0
 11
242.5885813834002
 21
263.16097425970094
 31
0.0
  0
LINE
  5
79
100
AcDbEntity
  8
0
  6
Continuous
 62
               7
100
AcDbLine
 10
248.8251915371518
 20
283.27410211341834
 30
0.0
 11
235.72872846271457
 21
261.44601102952942
 31
0.0
  0
LINE
  5
7A
100
AcDbEntity
  8
0
  6
Continuous
 62
               7
100
AcDbLine
 10
241.96533861646628
 20
281.55913888324693
 30
0.0
 11
228.86887554202912
 21
259.73104779935801
 31
0.0
  0
LINE
  5
7B
100
AcDbEntity
  8
0
  6
Continuous
 62
               7
100
AcDbLine
 10
235.10548569578071
 20
279.84417565307552
 30
0.0
 11
224.14669111730649
 21
261.5789719206669
 31
0.0
  0
LINE
  5
7C
100
AcDbEntity
  8
0
  6
Continuous
 62
               7
100
AcDbLine
 10
228.2456327750952
 20
278.12921242290412
 30
0.0
 11
222.43168264373259
 21
268.43900581496274
 31
0.0
  0
LINE
  5
7D
100
AcDbEntity
  8
0
  6
Continuous
 62
               7
100
AcDbLine
 10
206.72505504315751
 20
261.69744407645703
 30
0.0
 11
201.42946385928701
 21
252.87119487867244
 31
0.0
  0
LINE
  5
7E
100
AcDbEntity
  8
0
  6
Continuous
 62
               7
100
AcDbLine
 10
205.01004656958349
 20
268.55747797075281
 30
0.0
 11
194.56961093860139
 21
251.15623164850103
 31
0.0
  0
LINE
  5
7F
100
AcDbEntity
  8
0
  6
Continuous
 62
               7
100
AcDbLine
 10
200.80622109235298
 20
271.26935950221844
 30
0.0
 11
187.70975801791587
 21
249.44126841832963
 31
0.0
  0
LINE
  5
80
100
AcDbEntity
  8
0
  6
Continuous
 62
               7
100
AcDbLine
 10
193.94636817166747
 20
269.55439627204703
 30
0.0
 11
180.84990509723042
 21
247.72630518815822
 31
0.0
  0
LINE
  5
81
100
AcDbEntity
  8
0
  6
DASHDOT
 62
               4
100
AcDbLine
 10
443.04081429569561
 20
175.12355458779501
 30
0.0
 11
443.04081429569561
 21
391.84801946327002
 31
0.0
  0
LINE
  5
82
100
AcDbEntity
  8
0
  6
Continuous
 62
               3
100
AcDbLine
 10
437.67518699435851
 20
330.48660192543304
 30
0.0
 11
442.04081407270525
 21
313.0240333797401
 31
0.0
  0
LINE
  5
83
100
AcDbEntity
  8
0
  6
Continuous
 62
               3
100
AcDbLine
 10
721.84585425024795
 20
262.12674781441592
 30
0.0
 11
448.40644137404246
 21
330.48660103346845
 31
0.0
  0
LINE
  5
84
100
AcDbEntity
  8
0
  6
Continuous
 62
               3
100
AcDbLine
 10
721.84585425024795
 20
243.57277249913642
 30
0.0
 11
444.04081429569561
 21
313.02403248777551
 31
0.0
  0
LINE
  5
85
100
AcDbEntity
  8
0
  6
Continuous
 62
               4
100
AcDbLine
 10
544.8630726010108
 20
354.40665839565253
 30
0.0
 11
540.11773572519246
 21
335.42531089237951
 31
0.0
  0
LINE
  5
86
100
AcDbEntity
  8
0
  6
Continuous
 62
               7
100
AcDbLine
 10
444.16994194091495
 20
313.54054485021953
 30
0.0
 11
444.55731250811056
 21
312.89490793467183
 31
0.0
  0
LINE
  5
87
100
AcDbEntity
  8
0
  6
Continuous
 62
               7
100
AcDbLine
 10
445.88494623891114
 20
320.40058570401982
 30
0.0
 11
451.41716542879607
 21
311.17994470450031
 31
0.0
  0
LINE
  5
88
100
AcDbEntity
  8
0
  6
Continuous
 62
               7
100
AcDbLine
 10
447.59995053690733
 20
327.26062655782022
 30
0.0
 11
458.27701834948169
 21
309.46498147432891
 31
0.0
  0
LINE
  5
89
100
AcDbEntity
  8
0
  6
Continuous
 62
               7
100
AcDbLine
 10
452.04040819572998
 20
329.57810932804665
 30
0.0
 11
465.13687127016721
 21
307.7500182441575
 31
0.0
  0
LINE
  5
8A
100
AcDbEntity
  8
0
  6
Continuous
 62
               7
100
AcDbLine
 10
458.90026111641549
 20
327.86314609787513
 30
0.0
 11
471.99672419085272
 21
306.0350550139861
 31
0.0
  0
LINE
  5
8B
100
AcDbEntity
  8
0
  6
Continuous
 62
               7
100
AcDbLine
 10
465.76011403710112
 20
326.14818286770361
 30
0.0
 11
478.85657711153823
 21
304.32009178381475
 31
0.0
  0
LINE
  5
8C
100
AcDbEntity
  8
0
  6
Continuous
 62
               7
100
AcDbLine
 10
472.61996695778663
 20
324.43321963753232
 30
0.0
 11
485.71643003222385
 21
302.60512855364334
 31
0.0
  0
LINE
  5
8D
100
AcDbEntity
  8
0
  6
Continuous
 62
               7
100
AcDbLine
 10
479.47981987847214
 20
322.71825640736091
 30
0.0
 11
492.57628295290937
 21
300.89016532347193
 31
0.0
  0
LINE
  5
8E
100
AcDbEntity
  8
0
  6
Continuous
 62
               7
100
AcDbLine
 10
486.33967279915765
 20
321.00329317718951
 30
0.0
 11
499.43613587359488
 21
299.17520209330053
 31
0.0
  0
LINE
  5
8F
100
AcDbEntity
  8
0
  6
Continuous
 62
               7
100
AcDbLine
 10
493.19952571984328
 20
319.28832994701804
 30
0.0
 11
506.29598879428039
 21
297.46023886312901
 31
0.0
  0
LINE
  5
90
100
AcDbEntity
  8
0
  6
Continuous
 62
               7
100
AcDbLine
 10
500.05937864052879
 20
317.57336671684664
 30
0.0
 11
513.15584171496585
 21
295.7452756329576
 31
0.0
  0
LINE
  5
91
100
AcDbEntity
  8
0
  6
Continuous
 62
               7
100
AcDbLine
 10
506.9192315612143
 20
315.85840348667512
 30
0.0
 11
520.01569463565147
 21
294.03031240278625
 31
0.0
  0
LINE
  5
92
100
AcDbEntity
  8
0
  6
Continuous
 62
               7
100
AcDbLine
 10
513.77908448189987
 20
314.14344025650371
 30
0.0
 11
526.8755475563371
 21
292.31534917261484
 31
0.0
  0
LINE
  5
93
100
AcDbEntity
  8
0
  6
Continuous
 62
               7
100
AcDbLine
 10
520.63893740258527
 20
312.42847702633242
 30
0.0
 11
533.73540047702249
 21
290.60038594244344
 31
0.0
  0
LINE
  5
94
100
AcDbEntity
  8
0
  6
Continuous
 62
               7
100
AcDbLine
 10
527.4987903232709
 20
310.7135137961609
 30
0.0
 11
540.59525339770812
 21
288.88542271227203
 31
0.0
  0
LINE
  5
95
100
AcDbEntity
  8
0
  6
Continuous
 62
               7
100
AcDbLine
 10
534.35864324395652
 20
308.99855056598955
 30
0.0
 11
547.45510631839352
 21
287.17045948210063
 31
0.0
  0
LINE
  5
96
100
AcDbEntity
  8
0
  6
Continuous
 62
               7
100
AcDbLine
 10
541.21849616464192
 20
307.28358733581814
 30
0.0
 11
554.31495923907914
 21
285.45549625192922
 31
0.0
  0
LINE
  5
97
100
AcDbEntity
  8
0
  6
Continuous
 62
               7
100
AcDbLine
 10
548.07834908532755
 20
305.56862410564673
 30
0.0
 11
561.17481215976477
 21
283.74053302175781
 31
0.0
  0
LINE
  5
98
100
AcDbEntity
  8
0
  6
Continuous
 62
               7
100
AcDbLine
 10
554.93820200601294
 20
303.85366087547521
 30
0.0
 11
568.03466508045017
 21
282.02556979158641
 31
0.0
  0
LINE
  5
99
100
AcDbEntity
  8
0
  6
Continuous
 62
               7
100
AcDbLine
 10
561.79805492669857
 20
302.13869764530381
 30
0.0
 11
574.89451800113579
 21
280.310606561415
 31
0.0
  0
LINE
  5
9A
100
AcDbEntity
  8
0
  6
Continuous
 62
               7
100
AcDbLine
 10
568.65790784738419
 20
300.4237344151324
 30
0.0
 11
581.75437092182119
 21
278.59564333124365
 31
0.0
  0
LINE
  5
9B
100
AcDbEntity
  8
0
  6
Continuous
 62
               7
100
AcDbLine
 10
575.51776076806959
 20
298.70877118496099
 30
0.0
 11
588.61422384250682
 21
276.88068010107224
 31
0.0
  0
LINE
  5
9C
100
AcDbEntity
  8
0
  6
Continuous
 62
               7
100
AcDbLine
 10
582.37761368875522
 20
296.99380795478965
 30
0.0
 11
595.47407676319244
 21
275.16571687090084
 31
0.0
  0
LINE
  5
9D
100
AcDbEntity
  8
0
  6
Continuous
 62
               7
100
AcDbLine
 10
589.23746660944062
 20
295.2788447246183
 30
0.0
 11
602.33392968387807
 21
273.45075364072932
 31
0.0
  0
LINE
  5
9E
100
AcDbEntity
  8
0
  6
Continuous
 62
               7
100
AcDbLine
 10
596.09731953012624
 20
293.56388149444683
 30
0.0
 11
609.19378260456347
 21
271.73579041055791
 31
0.0
  0
LINE
  5
9F
100
AcDbEntity
  8
0
  6
Continuous
 62
               7
100
AcDbLine
 10
602.95717245081187
 20
291.84891826427543
 30
0.0
 11
616.05363552524909
 21
270.0208271803865
 31
0.0
  0
LINE
  5
A0
100
AcDbEntity
  8
0
  6
Continuous
 62
               7
100
AcDbLine
 10
609.81702537149749
 20
290.13395503410402
 30
0.0
 11
622.91348844593472
 21
268.3058639502151
 31
0.0
  0
LINE
  5
A1
100
AcDbEntity
  8
0
  6
Continuous
 62
               7
100
AcDbLine
 10
616.67687829218289
 20
288.41899180393261
 30
0.0
 11
629.77334136662012
 21
266.59090072004375
 31
0.0
  0
LINE
  5
A2
100
AcDbEntity
  8
0
  6
Continuous
 62
               7
100
AcDbLine
 10
623.53673121286852
 20
286.70402857376115
 30
0.0
 11
636.63319428730574
 21
264.87593748987234
 31
0.0
  0
LINE
  5
A3
100
AcDbEntity
  8
0
  6
Continuous
 62
               7
100
AcDbLine
 10
630.39658413355414
 20
284.9890653435898
 30
0.0
 11
643.49304720799137
 21
263.16097425970094
 31
0.0
  0
LINE
  5
A4
100
AcDbEntity
  8
0
  6
Continuous
 62
               7
100
AcDbLine
 10
637.25643705423954
 20
283.27410211341834
 30
0.0
 11
650.35290012867677
 21
261.44601102952942
 31
0.0
  0
LINE
  5
A5
100
AcDbEntity
  8
0
  6
Continuous
 62
               7
100
AcDbLine
 10
644.11628997492517
 20
281.55913888324693
 30
0.0
 11
657.21275304936239
 21
259.73104779935801
 31
0.0
  0
LINE
  5
A6
100
AcDbEntity
  8
0
  6
Continuous
 62
               7
100
AcDbLine
 10
650.97614289561079
 20
279.84417565307552
 30
0.0
 11
664.07260597004779
 21
258.0160845691866
 31
0.0
  0
LINE
  5
A7
100
AcDbEntity
  8
0
  6
Continuous
 62
               7
100
AcDbLine
 10
657.83599581629619
 20
278.12921242290412
 30
0.0
 11
670.93245889073353
 21
256.3011213390152
 31
0.0
  0
LINE
  5
A8
100
AcDbEntity
  8
0
  6
Continuous
 62
               7
100
AcDbLine
 10
664.69584873698182
 20
276.41424919273271
 30
0.0
 11
677.79231181141893
 21
254.58615810884385
 31
0.0
  0
LINE
  5
A9
100
AcDbEntity
  8
0
  6
Continuous
 62
               7
100
AcDbLine
 10
671.55570165766733
 20
274.69928596256131
 30
0.0
 11
684.65216473210455
 21
252.87119487867244
 31
0.0
  0
LINE
  5
AA
100
AcDbEntity
  8
0
  6
Continuous
 62
               7
100
AcDbLine
 10
678.41555457835295
 20
272.9843227323899
 30
0.0
 11
691.51201765278995
 21
251.15623164850103
 31
0.0
  0
LINE
  5
AB
100
AcDbEntity
  8
0
  6
Continuous
 62
               7
100
AcDbLine
 10
685.27540749903835
 20
271.26935950221844
 30
0.0
 11
698.0408142956959
 21
249.99304537858194
 31
0.0
  0
LINE
  5
AC
100
AcDbEntity
  8
0
  6
Continuous
 62
               7
100
AcDbLine
 10
692.13526041972398
 20
269.55439627204703
 30
0.0
 11
705.23172349416097
 21
247.72630518815822
 31
0.0
  0
LINE
  5
AD
100
AcDbEntity
  8
0
  6
Continuous
 62
               3
100
AcDbLine
 10
448.40644159703282
 20
330.48660192543304
 30
0.0
 11
444.04081451868598
 21
313.0240333797401
 31
0.0
  0
LINE
  5
AE
100
AcDbEntity
  8
0
  6
Continuous
 62
               6
100
AcDbLine
 10
346.02656428113056
 20
288.50508178093173
 30
0.0
 11
443.04081429569561
 21
312.75864428457334
 31
0.0
  0
LINE
  5
AF
100
AcDbEntity
  8
0
  6
Continuous
 62
               6
100
AcDbLine
 10
540.05506431026083
 20
288.50508178093173
 30
0.0
 11
443.04081429569561
 21
312.75864428457334
 31
0.0
  0
LINE
  5
B0
100
AcDbEntity
  8
0
  6
Continuous
 62
               6
100
AcDbLine
 10
539.66700856996317
 20
286.95285346575895
 30
0.0
 11
443.04081429569572
 21
311.10940203432619
 31
0.0
  0
LINE
  5
B1
100
AcDbEntity
  8
0
  6
Continuous
 62
               6
100
AcDbLine
 10
346.41462002142799
 20
286.95285346575895
 30
0.0
 11
443.04081429569572
 21
311.10940203432619
 31
0.0
  0
LINE
  5
B2
100
AcDbEntity
  8
0
  6
Continuous
 62
               6
100
AcDbLine
 10
540.05506431026083
 20
288.50508178093173
 30
0.0
 11
539.66700856996317
 21
286.95285346575901
 31
0.0
  0
LINE
  5
B3
100
AcDbEntity
  8
0
  6
Continuous
 62
               6
100
AcDbLine
 10
346.02656428113056
 20
288.50508178093173
 30
0.0
 11
346.41462002142799
 21
286.95285346575895
 31
0.0
  0
LINE
  5
B4
100
AcDbEntity
  8
0
  6
Continuous
 62
               4
100
AcDbLine
 10
521.44130936198371
 20
381.49991886571979
 30
0.0
 11
588.18328234588012
 21
381.49991886571979
 31
0.0
  0
LINE
  5
B5
100
AcDbEntity
  8
0
  6
Continuous
 62
               4
100
AcDbLine
 10
498.24489784300312
 20
341.32255556156923
 30
0.0
 11
521.44130936198371
 21
381.49991886571979
 31
0.0
  0
LINE
  5
B6
100
AcDbEntity
  8
0
  6
Continuous
 62
               4
100
AcDbLine
 10
498.24489784300312
 20
341.32255556156923
 30
0.0
 11
501.3230791329342
 21
349.77978914864241
 31
0.0
  0
LINE
  5
B7
100
AcDbEntity
  8
0
  6
Continuous
 62
               4
100
AcDbLine
 10
498.24489784300312
 20
341.32255556156923
 30
0.0
 11
504.029986330182
 21
348.21695554964003
 31
0.0
  0
LINE
  5
B8
100
AcDbEntity
  8
0
  6
Continuous
 62
               4
100
AcDbLine
 10
363.80092118464546
 20
446.12354174165273
 30
0.0
 11
267.05491595853192
 21
278.55454526070014
 31
0.0
  0
LINE
  5
B9
100
AcDbEntity
  8
0
  6
Continuous
 62
               4
100
AcDbLine
 10
345.32571257057754
 20
414.12354174165273
 30
0.0
 11
510.65275914481759
 21
414.12354174165273
 31
0.0
  0
LINE
  5
BA
100
AcDbEntity
  8
0
  6
Continuous
 62
               4
100
AcDbLine
 10
354.5633168776115
 20
430.12354174165273
 30
0.0
 11
510.65275914481759
 21
430.12354174165273
 31
0.0
  0
LINE
  5
BB
100
AcDbEntity
  8
0
  6
Continuous
 62
               4
100
AcDbLine
 10
363.80092118464557
 20
446.12354174165273
 30
0.0
 11
510.65275914481759
 21
446.12354174165273
 31
0.0
  0
LINE
  5
BC
100
AcDbEntity
  8
0
  6
Continuous
 62
               4
100
AcDbLine
 10
697.82064509027066
 20
294.11240974695761
 30
0.0
 11
703.01003415268531
 21
314.86996599661552
 31
0.0
  0
LINE
  5
BD
100
AcDbEntity
  8
0
  6
Continuous
 62
               4
100
AcDbLine
 10
544.13547701740345
 20
351.49627606122351
 30
0.0
 11
702.28242727757618
 21
311.9595384961795
 31
0.0
  0
LINE
  5
BE
100
AcDbEntity
  8
0
  6
Continuous
 62
               4
100
AcDbLine
 10
188.26098350112079
 20
294.11240974695761
 30
0.0
 11
183.0715944387062
 21
314.86996599661552
 31
0.0
  0
LINE
  5
BF
100
AcDbEntity
  8
0
  6
Continuous
 62
               4
100
AcDbLine
 10
341.94615157398783
 20
351.49627606122351
 30
0.0
 11
183.79920131381522
 21
311.9595384961795
 31
0.0
  0
LINE
  5
C0
100
AcDbEntity
  8
0
  6
Continuous
 62
               2
100
AcDbLine
 10
350.89306129390178
 20
315.7084359498283
 30
0.0
 11
331.72412312799639
 21
312.60462717460905
 31
0.0
  0
LINE
  5
C1
100
AcDbEntity
  8
0
  6
Continuous
 62
               2
100
AcDbLine
 10
338.38186608332859
 20
311.10352738457004
 30
0.0
 11
331.91592745739109
 21
311.42005505809374
 31
0.0
  0
LINE
  5
C2
100
AcDbEntity
  8
0
  6
Continuous
 62
               2
100
AcDbLine
 10
537.19895276027455
 20
329.93477772140284
 30
0.0
 11
532.97235401553007
 21
313.02821019287063
 31
0.0
  0
LINE
  5
C3
100
AcDbEntity
  8
0
  6
Continuous
 62
               4
100
AcDbLine
 10
212.77945603495539
 20
255.70869292258965
 30
0.0
 11
208.41381478430128
 21
273.17125792520551
 31
0.0
  0
LINE
  5
C4
100
AcDbEntity
  8
0
  6
Continuous
 62
               4
100
AcDbLine
 10
535.73966852691478
 20
365.36560619611043
 30
0.0
 11
602.30728455277972
 21
365.36560619611055
 31
0.0
  0
LINE
  5
C5
100
AcDbEntity
  8
0
  6
Continuous
 62
               4
100
AcDbLine
 10
517.68483628784293
 20
334.09371943590543
 30
0.0
 11
535.73966852691478
 21
365.36560619611043
 31
0.0
  0
LINE
  5
C6
100
AcDbEntity
  8
0
  6
Continuous
 62
               4
100
AcDbLine
 10
517.68483628784293
 20
334.09371943590543
 30
0.0
 11
520.76301757777401
 21
342.5509530229786
 31
0.0
  0
LINE
  5
C7
100
AcDbEntity
  8
0
  6
Continuous
 62
               4
100
AcDbLine
 10
517.68483628784293
 20
334.09371943590543
 30
0.0
 11
523.46992477502181
 21
340.98811942397623
 31
0.0
  0
LINE
  5
C8
100
AcDbEntity
  8
0
  6
Continuous
 62
               4
100
AcDbLine
 10
352.27817085406895
 20
329.13440922689369
 30
0.0
 11
443.04081429569561
 21
351.8250700873009
 31
0.0
  0
LINE
  5
C9
100
AcDbEntity
  8
0
  6
Continuous
 62
               4
100
AcDbLine
 10
352.27817085406895
 20
329.13440922689369
 30
0.0
 11
356.61951684008415
 21
311.76884804875851
 31
0.0
  0
LINE
  5
CA
100
AcDbEntity
  8
0
  6
DASHED
 62
               6
100
AcDbLine
 10
357.4690493319917
 20
311.4658429685332
 30
0.0
 11
332.79048641660853
 21
305.29620223968732
 31
0.0
  0
LINE
  5
CB
100
AcDbEntity
  8
0
  6
Continuous
 62
               4
100
AcDbLine
 10
335.66443883688459
 20
306.53007854795851
 30
0.0
 11
356.61951684008415
 21
311.76884804875851
 31
0.0
  0
LINE
  5
CC
100
AcDbEntity
  8
0
  6
Continuous
 62
               4
100
AcDbLine
 10
335.27638556439155
 20
308.08230748008231
 30
0.0
 11
354.67923556735417
 21
312.93301998082313
 31
0.0
  0
LINE
  5
CD
100
AcDbEntity
  8
0
  6
Continuous
 62
               4
100
AcDbLine
 10
335.27638556439155
 20
308.08230748008231
 30
0.0
 11
335.66443883688459
 21
306.53007854795851
 31
0.0
  0
LINE
  5
CE
100
AcDbEntity
  8
0
  6
Continuous
 62
               4
100
AcDbLine
 10
368.64866596047756
 20
326.54284583070802
 30
0.0
 11
367.1934463859431
 21
324.11749307494415
 31
0.0
  0
LINE
  5
CF
100
AcDbEntity
  8
0
  6
Continuous
 62
               4
100
AcDbLine
 10
368.64866596047756
 20
326.54284583070802
 30
0.0
 11
366.22331320471329
 21
327.99806540524241
 31
0.0
  0
LINE
  5
D0
100
AcDbEntity
  8
0
  6
Continuous
 62
               4
100
AcDbLine
 10
352.20543345994355
 20
320.3705280856089
 30
0.0
 11
353.47574975822141
 21
324.81120706924003
 31
0.0
  0
LINE
  5
D1
100
AcDbEntity
  8
0
  6
Continuous
 62
               4
100
AcDbLine
 10
354.24039942698545
 20
320.87926438511982
 30
0.0
 11
355.51071572526342
 21
325.3199433687509
 31
0.0
  0
LINE
  5
D2
100
AcDbEntity
  8
0
  6
Continuous
 62
               4
100
AcDbLine
 10
356.27536539402746
 20
321.38800068463081
 30
0.0
 11
357.54568169230544
 21
325.82867966826194
 31
0.0
  0
LINE
  5
D3
100
AcDbEntity
  8
0
  6
Continuous
 62
               4
100
AcDbLine
 10
358.31033136106947
 20
321.89673698414174
 30
0.0
 11
359.58064765934733
 21
326.33741596777281
 31
0.0
  0
LINE
  5
D4
100
AcDbEntity
  8
0
  6
Continuous
 62
               4
100
AcDbLine
 10
360.34529732811149
 20
322.40547328365261
 30
0.0
 11
361.61561362638935
 21
326.84615226728374
 31
0.0
  0
LINE
  5
D5
100
AcDbEntity
  8
0
  6
Continuous
 62
               4
100
AcDbLine
 10
362.38026329515338
 20
322.91420958316354
 30
0.0
 11
363.65057959343136
 21
327.35488856679461
 31
0.0
  0
LINE
  5
D6
100
AcDbEntity
  8
0
  6
Continuous
 62
               4
100
AcDbLine
 10
364.4152292621954
 20
323.42294588267453
 30
0.0
 11
365.68554556047337
 21
327.8636248663056
 31
0.0
  0
LINE
  5
D7
100
AcDbEntity
  8
0
  6
Continuous
 62
               4
100
AcDbLine
 10
366.45019522923741
 20
323.9316821821854
 30
0.0
 11
367.40979291054163
 21
327.28617370676454
 31
0.0
  0
LINE
  5
D8
100
AcDbEntity
  8
0
  6
Continuous
 62
               4
100
AcDbLine
 10
348.76073771837076
 20
323.63246608970911
 30
0.0
 11
366.22331320471329
 21
327.99806540524241
 31
0.0
  0
LINE
  5
D9
100
AcDbEntity
  8
0
  6
Continuous
 62
               4
100
AcDbLine
 10
349.73087089960035
 20
319.75189375941073
 30
0.0
 11
367.1934463859431
 21
324.11749307494415
 31
0.0
  0
LINE
  5
DA
100
AcDbEntity
  8
0
  6
Continuous
 62
               4
100
AcDbLine
 10
350.22348727864181
 20
317.78140813233733
 30
0.0
 11
349.7384157373545
 21
317.66014148468361
 31
0.0
  0
LINE
  5
DB
100
AcDbEntity
  8
0
  6
Continuous
 62
               4
100
AcDbLine
 10
348.2681213393293
 20
325.60295171678251
 30
0.0
 11
347.78304979804199
 21
325.48168506912884
 31
0.0
  0
LINE
  5
DC
100
AcDbEntity
  8
0
  6
Continuous
 62
               4
100
AcDbLine
 10
348.2681213393293
 20
325.60295171678251
 30
0.0
 11
350.22348727864181
 21
317.78140813233733
 31
0.0
  0
LINE
  5
DD
100
AcDbEntity
  8
0
  6
DASHED
 62
               6
100
AcDbLine
 10
357.4690493319917
 20
311.4658429685332
 30
0.0
 11
366.53753703834997
 21
314.24835309832514
 31
0.0
  0
LINE
  5
DE
100
AcDbEntity
  8
0
  6
DASHED
 62
               6
100
AcDbLine
 10
310.83307487766984
 20
301.35301464100513
 30
0.0
 11
332.79048641660853
 21
305.29620223968732
 31
0.0
  0
LINE
  5
DF
100
AcDbEntity
  8
0
  6
Continuous
 62
               7
100
AcDbLine
 10
343.54874133036532
 20
308.13580014969443
 30
0.0
 11
351.30990472577429
 21
277.09123302505554
 31
0.0
  0
LINE
  5
E0
100
AcDbEntity
  8
0
  6
Continuous
 62
               7
100
AcDbLine
 10
340.51704601741113
 20
309.95481733746703
 30
0.0
 11
340.63831382992925
 21
309.46974608739424
 31
0.0
  0
LINE
  5
E1
100
AcDbEntity
  8
0
  6
Continuous
 62
               7
100
AcDbLine
 10
348.39945383109199
 20
309.34847827487602
 30
0.0
 11
356.16059383225428
 21
278.30391827022532
 31
0.0
  0
LINE
  5
E2
100
AcDbEntity
  8
0
  6
Continuous
 62
               7
100
AcDbLine
 10
350.21847101886448
 20
312.38017358783014
 30
0.0
 11
350.33973883138259
 21
311.89510233775741
 31
0.0
  0
LINE
  5
E3
100
AcDbEntity
  8
0
  6
Continuous
 62
               7
100
AcDbLine
 10
340.51704601741113
 20
309.95481733746703
 30
0.0
 11
350.21847101886448
 21
312.38017358783014
 31
0.0
  0
LINE
  5
E4
100
AcDbEntity
  8
0
  6
Continuous
 62
               7
100
AcDbLine
 10
343.54874133036532
 20
308.13580014969443
 30
0.0
 11
348.39945383109199
 21
309.34847827487602
 31
0.0
  0
LINE
  5
E5
100
AcDbEntity
  8
0
  6
Continuous
 62
               7
100
AcDbLine
 10
340.63831382992936
 20
309.46974608739424
 30
0.0
 11
343.54874133036532
 21
308.13580014969443
 31
0.0
  0
LINE
  5
E6
100
AcDbEntity
  8
0
  6
Continuous
 62
               7
100
AcDbLine
 10
348.39945383109199
 20
309.34847827487602
 30
0.0
 11
350.3397388313827
 21
311.89510233775741
 31
0.0
  0
LINE
  5
E7
100
AcDbEntity
  8
0
  6
Continuous
 62
               7
100
AcDbLine
 10
340.63831382992925
 20
309.46974608739424
 30
0.0
 11
350.33973883138259
 21
311.89510233775741
 31
0.0
  0
LINE
  5
E8
100
AcDbEntity
  8
0
  6
Continuous
 62
               7
100
AcDbLine
 10
351.30990472577429
 20
277.09123302505554
 30
0.0
 11
354.09904101944545
 21
276.24236545741644
 31
0.0
  0
LINE
  5
E9
100
AcDbEntity
  8
0
  6
Continuous
 62
               7
100
AcDbLine
 10
356.16059383225428
 20
278.30391827022532
 30
0.0
 11
354.09904101944545
 21
276.24236545741644
 31
0.0
  0
LINE
  5
EA
100
AcDbEntity
  8
0
  6
Continuous
 62
               7
100
AcDbLine
 10
345.24649070561958
 20
301.34480264867705
 30
0.0
 11
349.61213195627357
 21
304.49776577414934
 31
0.0
  0
LINE
  5
EB
100
AcDbEntity
  8
0
  6
Continuous
 62
               7
100
AcDbLine
 10
345.73156195569214
 20
299.40451764838645
 30
0.0
 11
350.09720320634625
 21
302.55748077385874
 31
0.0
  0
LINE
  5
EC
100
AcDbEntity
  8
0
  6
Continuous
 62
               7
100
AcDbLine
 10
346.21663320576482
 20
297.46423264809573
 30
0.0
 11
350.58227445641882
 21
300.61719577356803
 31
0.0
  0
LINE
  5
ED
100
AcDbEntity
  8
0
  6
Continuous
 62
               7
100
AcDbLine
 10
346.7017044558375
 20
295.52394764780513
 30
0.0
 11
351.06734570649149
 21
298.67691077327731
 31
0.0
  0
LINE
  5
EE
100
AcDbEntity
  8
0
  6
Continuous
 62
               7
100
AcDbLine
 10
347.18677570591007
 20
293.58366264751442
 30
0.0
 11
351.55241695656406
 21
296.7366257729866
 31
0.0
  0
LINE
  5
EF
100
AcDbEntity
  8
0
  6
Continuous
 62
               7
100
AcDbLine
 10
347.67184695598263
 20
291.6433776472237
 30
0.0
 11
352.03748820663674
 21
294.796340772696
 31
0.0
  0
LINE
  5
F0
100
AcDbEntity
  8
0
  6
Continuous
 62
               7
100
AcDbLine
 10
348.15691820605531
 20
289.70309264693304
 30
0.0
 11
352.52255945670942
 21
292.85605577240534
 31
0.0
  0
LINE
  5
F1
100
AcDbEntity
  8
0
  6
Continuous
 62
               7
100
AcDbLine
 10
348.64198945612799
 20
287.76280764664244
 30
0.0
 11
353.00763070678198
 21
290.91577077211474
 31
0.0
  0
LINE
  5
F2
100
AcDbEntity
  8
0
  6
Continuous
 62
               7
100
AcDbLine
 10
349.12706070620067
 20
285.82252264635173
 30
0.0
 11
353.49270195685466
 21
288.97548577182403
 31
0.0
  0
LINE
  5
F3
100
AcDbEntity
  8
0
  6
Continuous
 62
               7
100
AcDbLine
 10
349.61213195627323
 20
283.88223764606101
 30
0.0
 11
352.23151670666579
 21
285.7740155213445
 31
0.0
  0
LINE
  5
F4
100
AcDbEntity
  8
0
  6
Continuous
 62
               7
100
AcDbLine
 10
355.55425476966349
 20
278.66772170777983
 30
0.0
 11
353.54120908186195
 21
286.71990445898615
 31
0.0
  0
LINE
  5
F5
100
AcDbEntity
  8
0
  6
Continuous
 62
               7
100
AcDbLine
 10
352.23151670666579
 20
285.7740155213445
 30
0.0
 11
352.99550392553027
 21
287.04732755278525
 31
0.0
  0
LINE
  5
F6
100
AcDbEntity
  8
0
  6
Continuous
 62
               7
100
AcDbLine
 10
353.54120908186195
 20
286.71990445898621
 30
0.0
 11
352.99550392553027
 21
287.04732755278525
 31
0.0
  0
LINE
  5
F7
100
AcDbEntity
  8
0
  6
Continuous
 62
               7
100
AcDbLine
 10
356.16059383225428
 20
278.30391827022532
 30
0.0
 11
355.55425476966349
 21
278.66772170777983
 31
0.0
  0
LINE
  5
F8
100
AcDbEntity
  8
0
  6
Continuous
 62
               7
100
AcDbLine
 10
353.54120908186195
 20
286.71990445898621
 30
0.0
 11
353.97777320692722
 21
287.03520077153331
 31
0.0
  0
LINE
  5
F9
100
AcDbEntity
  8
0
  6
DASHED
 62
               6
100
AcDbLine
 10
721.84585425024795
 20
264.70369110787743
 30
0.0
 11
575.24855371372155
 21
301.35301464100513
 31
0.0
  0
LINE
  5
FA
100
AcDbEntity
  8
0
  6
Continuous
 62
               2
100
AcDbLine
 10
443.04083554059486
 20
355.12360071739755
 30
0.0
 11
539.0422197829896
 21
331.12320321597105
 31
0.0
  0
LINE
  5
FB
100
AcDbEntity
  8
0
  6
Continuous
 62
               4
100
AcDbLine
 10
447.84881893903236
 20
378.66022181114761
 30
0.0
 11
443.48316954002991
 21
361.19762421513803
 31
0.0
  0
LINE
  5
FC
100
AcDbEntity
  8
0
  6
Continuous
 62
               4
100
AcDbLine
 10
447.12121206392334
 20
375.74979431071165
 30
0.0
 11
544.13546572590167
 21
351.49623089521651
 31
0.0
  0
LINE
  5
FD
100
AcDbEntity
  8
0
  6
Continuous
 62
               2
100
AcDbLine
 10
539.0422197829896
 20
331.12320321597105
 30
0.0
 11
535.1885672974895
 21
315.7084359498283
 31
0.0
  0
LINE
  5
FE
100
AcDbEntity
  8
0
  6
Continuous
 62
               4
100
AcDbLine
 10
535.74373901005242
 20
330.29858115895831
 30
0.0
 11
531.40239302403711
 21
312.93301998082313
 31
0.0
  0
LINE
  5
FF
100
AcDbEntity
  8
0
  6
Continuous
 62
               4
100
AcDbLine
 10
535.74373901005242
 20
330.29858115895831
 30
0.0
 11
443.04081429569561
 21
353.47431233754804
 31
0.0
  0
LINE
  5
100
100
AcDbEntity
  8
0
  6
DASHED
 62
               6
100
AcDbLine
 10
443.04081429569572
 20
333.37417241266184
 30
0.0
 11
519.5440915530412
 21
314.24835309832514
 31
0.0
  0
LINE
  5
101
100
AcDbEntity
  8
0
  6
Continuous
 62
               2
100
AcDbLine
 10
535.1885672974895
 20
315.7084359498283
 30
0.0
 11
554.357505463395
 21
312.60462717460905
 31
0.0
  0
LINE
  5
102
100
AcDbEntity
  8
0
  6
Continuous
 62
               2
100
AcDbLine
 10
547.6997625080628
 20
311.10352738457004
 30
0.0
 11
554.1657011340003
 21
311.42005505809374
 31
0.0
  0
LINE
  5
103
100
AcDbEntity
  8
0
  6
Continuous
 62
               4
100
AcDbLine
 10
533.80345773732233
 20
329.13440922689369
 30
0.0
 11
443.04081429569561
 21
351.8250700873009
 31
0.0
  0
LINE
  5
104
100
AcDbEntity
  8
0
  6
Continuous
 62
               4
100
AcDbLine
 10
533.80345773732233
 20
329.13440922689369
 30
0.0
 11
529.46211175130725
 21
311.76884804875851
 31
0.0
  0
LINE
  5
105
100
AcDbEntity
  8
0
  6
DASHED
 62
               6
100
AcDbLine
 10
528.61257925939958
 20
311.4658429685332
 30
0.0
 11
553.29114217478286
 21
305.29620223968732
 31
0.0
  0
LINE
  5
106
100
AcDbEntity
  8
0
  6
Continuous
 62
               4
100
AcDbLine
 10
550.41718975450681
 20
306.53007854795851
 30
0.0
 11
529.46211175130725
 21
311.76884804875851
 31
0.0
  0
LINE
  5
107
100
AcDbEntity
  8
0
  6
Continuous
 62
               4
100
AcDbLine
 10
550.80524302699973
 20
308.08230748008231
 30
0.0
 11
531.40239302403711
 21
312.93301998082313
 31
0.0
  0
LINE
  5
108
100
AcDbEntity
  8
0
  6
Continuous
 62
               4
100
AcDbLine
 10
550.80524302699973
 20
308.08230748008231
 30
0.0
 11
550.41718975450681
 21
306.53007854795851
 31
0.0
  0
LINE
  5
109
100
AcDbEntity
  8
0
  6
Continuous
 62
               4
100
AcDbLine
 10
517.43296263091383
 20
326.54284583070802
 30
0.0
 11
518.88818220544817
 21
324.11749307494415
 31
0.0
  0
LINE
  5
10A
100
AcDbEntity
  8
0
  6
Continuous
 62
               4
100
AcDbLine
 10
517.43296263091383
 20
326.54284583070802
 30
0.0
 11
519.85831538667799
 21
327.99806540524241
 31
0.0
  0
LINE
  5
10B
100
AcDbEntity
  8
0
  6
Continuous
 62
               4
100
AcDbLine
 10
533.87619513144773
 20
320.3705280856089
 30
0.0
 11
532.60587883316975
 21
324.81120706924003
 31
0.0
  0
LINE
  5
10C
100
AcDbEntity
  8
0
  6
Continuous
 62
               4
100
AcDbLine
 10
531.84122916440583
 20
320.87926438511982
 30
0.0
 11
530.57091286612786
 21
325.3199433687509
 31
0.0
  0
LINE
  5
10D
100
AcDbEntity
  8
0
  6
Continuous
 62
               4
100
AcDbLine
 10
529.80626319736371
 20
321.38800068463081
 30
0.0
 11
528.53594689908596
 21
325.82867966826194
 31
0.0
  0
LINE
  5
10E
100
AcDbEntity
  8
0
  6
Continuous
 62
               4
100
AcDbLine
 10
527.77129723032181
 20
321.89673698414174
 30
0.0
 11
526.50098093204406
 21
326.33741596777281
 31
0.0
  0
LINE
  5
10F
100
AcDbEntity
  8
0
  6
Continuous
 62
               4
100
AcDbLine
 10
525.73633126327991
 20
322.40547328365261
 30
0.0
 11
524.46601496500193
 21
326.84615226728374
 31
0.0
  0
LINE
  5
110
100
AcDbEntity
  8
0
  6
Continuous
 62
               4
100
AcDbLine
 10
523.70136529623801
 20
322.91420958316354
 30
0.0
 11
522.43104899796003
 21
327.35488856679461
 31
0.0
  0
LINE
  5
111
100
AcDbEntity
  8
0
  6
Continuous
 62
               4
100
AcDbLine
 10
521.66639932919588
 20
323.42294588267453
 30
0.0
 11
520.39608303091791
 21
327.8636248663056
 31
0.0
  0
LINE
  5
112
100
AcDbEntity
  8
0
  6
Continuous
 62
               4
100
AcDbLine
 10
519.63143336215376
 20
323.9316821821854
 30
0.0
 11
518.67183568084965
 21
327.28617370676454
 31
0.0
  0
LINE
  5
113
100
AcDbEntity
  8
0
  6
Continuous
 62
               4
100
AcDbLine
 10
537.32089087302052
 20
323.63246608970911
 30
0.0
 11
519.85831538667799
 21
327.99806540524241
 31
0.0
  0
LINE
  5
114
100
AcDbEntity
  8
0
  6
Continuous
 62
               4
100
AcDbLine
 10
536.35075769179093
 20
319.75189375941073
 30
0.0
 11
518.88818220544817
 21
324.11749307494415
 31
0.0
  0
LINE
  5
115
100
AcDbEntity
  8
0
  6
Continuous
 62
               4
100
AcDbLine
 10
535.85814131274947
 20
317.78140813233733
 30
0.0
 11
536.34321285403666
 21
317.66014148468361
 31
0.0
  0
LINE
  5
116
100
AcDbEntity
  8
0
  6
Continuous
 62
               4
100
AcDbLine
 10
537.81350725206198
 20
325.60295171678251
 30
0.0
 11
538.29857879334941
 21
325.48168506912884
 31
0.0
  0
LINE
  5
117
100
AcDbEntity
  8
0
  6
Continuous
 62
               4
100
AcDbLine
 10
537.81350725206198
 20
325.60295171678251
 30
0.0
 11
535.85814131274947
 21
317.78140813233733
 31
0.0
  0
LINE
  5
118
100
AcDbEntity
  8
0
  6
DASHED
 62
               6
100
AcDbLine
 10
528.61257925939958
 20
311.4658429685332
 30
0.0
 11
519.5440915530412
 21
314.24835309832514
 31
0.0
  0
LINE
  5
119
100
AcDbEntity
  8
0
  6
DASHED
 62
               6
100
AcDbLine
 10
575.24855371372155
 20
301.35301464100513
 30
0.0
 11
553.29114217478286
 21
305.29620223968732
 31
0.0
  0
LINE
  5
11A
100
AcDbEntity
  8
0
  6
Continuous
 62
               7
100
AcDbLine
 10
542.53288726102596
 20
308.13580014969443
 30
0.0
 11
534.7717238656171
 21
277.09123302505554
 31
0.0
  0
LINE
  5
11B
100
AcDbEntity
  8
0
  6
Continuous
 62
               7
100
AcDbLine
 10
545.56458257398026
 20
309.95481733746703
 30
0.0
 11
545.44331476146203
 21
309.46974608739424
 31
0.0
  0
LINE
  5
11C
100
AcDbEntity
  8
0
  6
Continuous
 62
               7
100
AcDbLine
 10
537.6821747602994
 20
309.34847827487602
 30
0.0
 11
529.921034759137
 21
278.30391827022532
 31
0.0
  0
LINE
  5
11D
100
AcDbEntity
  8
0
  6
Continuous
 62
               7
100
AcDbLine
 10
535.86315757252692
 20
312.38017358783014
 30
0.0
 11
535.74188976000869
 21
311.89510233775741
 31
0.0
  0
LINE
  5
11E
100
AcDbEntity
  8
0
  6
Continuous
 62
               7
100
AcDbLine
 10
545.56458257398026
 20
309.95481733746703
 30
0.0
 11
535.86315757252692
 21
312.38017358783014
 31
0.0
  0
LINE
  5
11F
100
AcDbEntity
  8
0
  6
Continuous
 62
               7
100
AcDbLine
 10
542.53288726102596
 20
308.13580014969443
 30
0.0
 11
537.6821747602994
 21
309.34847827487602
 31
0.0
  0
LINE
  5
120
100
AcDbEntity
  8
0
  6
Continuous
 62
               7
100
AcDbLine
 10
545.44331476146203
 20
309.46974608739424
 30
0.0
 11
542.53288726102596
 21
308.13580014969443
 31
0.0
  0
LINE
  5
121
100
AcDbEntity
  8
0
  6
Continuous
 62
               7
100
AcDbLine
 10
537.6821747602994
 20
309.34847827487602
 30
0.0
 11
535.74188976000869
 21
311.89510233775741
 31
0.0
  0
LINE
  5
122
100
AcDbEntity
  8
0
  6
Continuous
 62
               7
100
AcDbLine
 10
545.44331476146203
 20
309.46974608739424
 30
0.0
 11
535.74188976000869
 21
311.89510233775741
 31
0.0
  0
LINE
  5
123
100
AcDbEntity
  8
0
  6
Continuous
 62
               7
100
AcDbLine
 10
534.7717238656171
 20
277.09123302505554
 30
0.0
 11
531.98258757194594
 21
276.24236545741644
 31
0.0
  0
LINE
  5
124
100
AcDbEntity
  8
0
  6
Continuous
 62
               7
100
AcDbLine
 10
529.921034759137
 20
278.30391827022532
 30
0.0
 11
531.98258757194594
 21
276.24236545741644
 31
0.0
  0
LINE
  5
125
100
AcDbEntity
  8
0
  6
Continuous
 62
               7
100
AcDbLine
 10
540.8351378857717
 20
301.34480264867705
 30
0.0
 11
536.46949663511782
 21
304.49776577414934
 31
0.0
  0
LINE
  5
126
100
AcDbEntity
  8
0
  6
Continuous
 62
               7
100
AcDbLine
 10
540.35006663569902
 20
299.40451764838645
 30
0.0
 11
535.98442538504514
 21
302.55748077385874
 31
0.0
  0
LINE
  5
127
100
AcDbEntity
  8
0
  6
Continuous
 62
               7
100
AcDbLine
 10
539.86499538562634
 20
297.46423264809573
 30
0.0
 11
535.49935413497246
 21
300.61719577356803
 31
0.0
  0
LINE
  5
128
100
AcDbEntity
  8
0
  6
Continuous
 62
               7
100
AcDbLine
 10
539.37992413555389
 20
295.52394764780513
 30
0.0
 11
535.01428288489979
 21
298.67691077327731
 31
0.0
  0
LINE
  5
129
100
AcDbEntity
  8
0
  6
Continuous
 62
               7
100
AcDbLine
 10
538.89485288548121
 20
293.58366264751442
 30
0.0
 11
534.52921163482711
 21
296.7366257729866
 31
0.0
  0
LINE
  5
12A
100
AcDbEntity
  8
0
  6
Continuous
 62
               7
100
AcDbLine
 10
538.40978163540854
 20
291.6433776472237
 30
0.0
 11
534.04414038475466
 21
294.796340772696
 31
0.0
  0
LINE
  5
12B
100
AcDbEntity
  8
0
  6
Continuous
 62
               7
100
AcDbLine
 10
537.92471038533586
 20
289.70309264693304
 30
0.0
 11
533.55906913468198
 21
292.85605577240534
 31
0.0
  0
LINE
  5
12C
100
AcDbEntity
  8
0
  6
Continuous
 62
               7
100
AcDbLine
 10
537.43963913526341
 20
287.76280764664244
 30
0.0
 11
533.0739978846093
 21
290.91577077211474
 31
0.0
  0
LINE
  5
12D
100
AcDbEntity
  8
0
  6
Continuous
 62
               7
100
AcDbLine
 10
536.95456788519073
 20
285.82252264635173
 30
0.0
 11
532.58892663453662
 21
288.97548577182403
 31
0.0
  0
LINE
  5
12E
100
AcDbEntity
  8
0
  6
Continuous
 62
               7
100
AcDbLine
 10
536.46949663511805
 20
283.88223764606101
 30
0.0
 11
533.85011188472549
 21
285.7740155213445
 31
0.0
  0
LINE
  5
12F
100
AcDbEntity
  8
0
  6
Continuous
 62
               7
100
AcDbLine
 10
530.52737382172791
 20
278.66772170777983
 30
0.0
 11
532.54041950952933
 21
286.71990445898615
 31
0.0
  0
LINE
  5
130
100
AcDbEntity
  8
0
  6
Continuous
 62
               7
100
AcDbLine
 10
533.85011188472549
 20
285.7740155213445
 30
0.0
 11
533.08612466586101
 21
287.04732755278525
 31
0.0
  0
LINE
  5
131
100
AcDbEntity
  8
0
  6
Continuous
 62
               7
100
AcDbLine
 10
532.54041950952933
 20
286.71990445898621
 30
0.0
 11
533.08612466586101
 21
287.04732755278525
 31
0.0
  0
LINE
  5
132
100
AcDbEntity
  8
0
  6
Continuous
 62
               7
100
AcDbLine
 10
529.921034759137
 20
278.30391827022532
 30
0.0
 11
530.52737382172791
 21
278.66772170777983
 31
0.0
  0
LINE
  5
133
100
AcDbEntity
  8
0
  6
Continuous
 62
               7
100
AcDbLine
 10
532.54041950952933
 20
286.71990445898621
 30
0.0
 11
532.10385538446394
 21
287.03520077153331
 31
0.0
  0
LINE
  5
134
100
AcDbEntity
  8
0
  6
Continuous
 62
               7
100
AcDbLine
 10
187.08651525098202
 20
267.83943304187562
 30
0.0
 11
173.99005217654491
 21
246.01134195798682
 31
0.0
  0
LINE
  5
135
100
AcDbEntity
  8
0
  6
Continuous
 62
               7
100
AcDbLine
 10
180.22666233029651
 20
266.12446981170422
 30
0.0
 11
167.13019925585951
 21
244.29637872781541
 31
0.0
  0
LINE
  5
136
100
AcDbEntity
  8
0
  6
Continuous
 62
               7
100
AcDbLine
 10
173.36680940961099
 20
264.40950658153281
 30
0.0
 11
164.23577434114361
 21
249.19065978054203
 31
0.0
  0
LINE
  5
137
100
AcDbEntity
  8
0
  6
Continuous
 62
               7
100
AcDbLine
 10
166.50695648892548
 20
262.6945433513614
 30
0.0
 11
164.23577434114361
 21
258.90912659356104
 31
0.0
  0
LINE
  5
138
100
AcDbEntity
  8
0
  6
Continuous
 62
               7
100
AcDbLine
 10
698.99511334040938
 20
267.83943304187562
 30
0.0
 11
712.0915764148466
 21
246.01134195798682
 31
0.0
  0
LINE
  5
139
100
AcDbEntity
  8
0
  6
Continuous
 62
               7
100
AcDbLine
 10
705.854966261095
 20
266.12446981170422
 30
0.0
 11
718.951429335532
 21
244.29637872781541
 31
0.0
  0
LINE
  5
13A
100
AcDbEntity
  8
0
  6
Continuous
 62
               7
100
AcDbLine
 10
712.7148191817804
 20
264.40950658153281
 30
0.0
 11
721.84585425024795
 21
249.19065978054215
 31
0.0
  0
LINE
  5
13B
100
AcDbEntity
  8
0
  6
Continuous
 62
               7
100
AcDbLine
 10
719.57467210246602
 20
262.6945433513614
 30
0.0
 11
721.84585425024795
 21
258.90912659356121
 31
0.0
  0
LINE
  5
13C
100
AcDbEntity
  8
0
  6
Continuous
 62
               6
100
AcDbLine
 10
474.70081494288542
 20
302.67901366932671
 30
0.0
 11
514.28262913385493
 21
292.78356012158412
 31
0.0
  0
LINE
  5
13D
100
AcDbEntity
  8
0
  6
Continuous
 62
               6
100
AcDbLine
 10
517.62962068996626
 20
287.20524086139841
 30
0.0
 11
513.89457204127666
 21
272.2650462666403
 31
0.0
  0
LINE
  5
13E
100
AcDbEntity
  8
0
  6
Continuous
 62
               6
100
AcDbLine
 10
513.89457204127666
 20
272.2650462666403
 30
0.0
 11
511.66324433720246
 21
272.82287819265895
 31
0.0
  0
LINE
  5
13F
100
AcDbEntity
  8
0
  6
Continuous
 62
               6
100
AcDbLine
 10
511.66324433720246
 20
272.82287819265895
 30
0.0
 11
515.39829298589211
 21
287.763072787417
 31
0.0
  0
LINE
  5
140
100
AcDbEntity
  8
0
  6
Continuous
 62
               6
100
AcDbLine
 10
513.72479720783622
 20
290.5522324175098
 30
0.0
 11
474.14298301686682
 21
300.44768596525245
 31
0.0
  0
LINE
  5
141
100
AcDbEntity
  8
0
  6
Continuous
 62
               6
100
AcDbLine
 10
471.35382338677397
 20
298.77419018719672
 30
0.0
 11
449.33158858721464
 21
210.68525098896055
 31
0.0
  0
LINE
  5
142
100
AcDbEntity
  8
0
  6
Continuous
 62
               6
100
AcDbLine
 10
451.00508436527031
 20
207.89609135886775
 30
0.0
 11
490.58689855623987
 21
198.0006378111251
 31
0.0
  0
LINE
  5
143
100
AcDbEntity
  8
0
  6
Continuous
 62
               6
100
AcDbLine
 10
493.37605818633273
 20
199.67413358918083
 30
0.0
 11
497.11110683502221
 21
214.61432818393894
 31
0.0
  0
LINE
  5
144
100
AcDbEntity
  8
0
  6
Continuous
 62
               6
100
AcDbLine
 10
497.11110683502221
 20
214.61432818393894
 30
0.0
 11
499.34243453909659
 21
214.05649625792034
 31
0.0
  0
LINE
  5
145
100
AcDbEntity
  8
0
  6
Continuous
 62
               6
100
AcDbLine
 10
499.34243453909659
 20
214.05649625792034
 30
0.0
 11
495.60738589040699
 21
199.11630166316223
 31
0.0
  0
LINE
  5
146
100
AcDbEntity
  8
0
  6
Continuous
 62
               6
100
AcDbLine
 10
490.02906663022128
 20
195.7693101070509
 30
0.0
 11
450.44725243925171
 21
205.66476365479343
 31
0.0
  0
LINE
  5
147
100
AcDbEntity
  8
0
  6
Continuous
 62
               6
100
AcDbLine
 10
447.10026088314038
 20
211.24308291497914
 30
0.0
 11
469.12249568269971
 21
299.33202211321532
 31
0.0
  0
LINE
  5
148
100
AcDbEntity
  8
0
  6
Continuous
 62
               4
100
AcDbLine
 10
460.86082555484376
 20
306.79778456394581
 30
0.0
 11
532.76949134579877
 21
234.88911877299074
 31
0.0
  0
LINE
  5
149
100
AcDbEntity
  8
0
  6
Continuous
 62
               4
100
AcDbLine
 10
460.86082555484376
 20
306.79778456394581
 30
0.0
 11
468.23319395344464
 21
301.63559663678643
 31
0.0
  0
LINE
  5
14A
100
AcDbEntity
  8
0
  6
Continuous
 62
               4
100
AcDbLine
 10
460.86082555484376
 20
306.79778456394581
 30
0.0
 11
466.02301348200314
 21
299.42541616534493
 31
0.0
  0
LINE
  5
14B
100
AcDbEntity
  8
0
  6
Continuous
 62
               4
100
AcDbLine
 10
532.76949134579877
 20
234.88911877299074
 30
0.0
 11
635.62174272939728
 21
234.88911877299074
 31
0.0
  0
LINE
  5
14C
100
AcDbEntity
  8
0
  6
Continuous
 62
               4
100
AcDbLine
 10
14.142135623730949
 20
595.85786437626905
 30
0.0
 11
14.142135623730949
 21
615.85786437626905
 31
0.0
  0
LINE
  5
14D
100
AcDbEntity
  8
0
  6
Continuous
 62
               4
100
AcDbLine
 10
164.14213562373095
 20
595.85786437626905
 30
0.0
 11
14.142135623730949
 21
595.85786437626905
 31
0.0
  0
LINE
  5
14E
100
AcDbEntity
  8
0
  6
Continuous
 62
               4
100
AcDbLine
 10
164.14213562373095
 20
615.85786437626905
 30
0.0
 11
164.14213562373095
 21
595.85786437626905
 31
0.0
  0
LINE
  5
14F
100
AcDbEntity
  8
0
  6
Continuous
 62
               4
100
AcDbLine
 10
164.14213562373095
 20
615.85786437626905
 30
0.0
 11
14.142135623730949
 21
615.85786437626905
 31
0.0
  0
LINE
  5
150
100
AcDbEntity
  8
0
  6
Continuous
 62
               4
100
AcDbLine
 10
714.78679656440374
 20
21.213203435596483
 30
0.0
 11
714.78679656440374
 21
41.213203435596483
 31
0.0
  0
LINE
  5
151
100
AcDbEntity
  8
0
  6
Continuous
 62
               4
100
AcDbLine
 10
864.78679656440374
 20
21.213203435596483
 30
0.0
 11
714.78679656440374
 21
21.213203435596483
 31
0.0
  0
LINE
  5
152
100
AcDbEntity
  8
0
  6
Continuous
 62
               4
100
AcDbLine
 10
864.78679656440374
 20
41.213203435596483
 30
0.0
 11
864.78679656440374
 21
21.213203435596483
 31
0.0
  0
LINE
  5
153
100
AcDbEntity
  8
0
  6
Continuous
 62
               4
100
AcDbLine
 10
864.78679656440374
 20
41.213203435596483
 30
0.0
 11
714.78679656440374
 21
41.213203435596483
 31
0.0
  0
LINE
  5
154
100
AcDbEntity
  8
0
  6
Continuous
 62
               2
100
AcDbLine
 10
192.87198388330484
 20
279.42305126939391
 30
0.0
 11
206.97407986722425
 21
280.34498193032726
 31
0.0
  0
LINE
  5
155
100
AcDbEntity
  8
0
  6
Continuous
 62
               2
100
AcDbLine
 10
218.62733650888515
 20
279.84774398196697
 30
0.0
 11
234.53767351126865
 21
283.82532823256275
 31
0.0
  0
LINE
  5
156
100
AcDbEntity
  8
0
  6
Continuous
 62
               2
100
AcDbLine
 10
209.39003141309806
 20
290.17748237133276
 30
0.0
 11
218.62733650888515
 21
279.84774398196697
 31
0.0
  0
LINE
  5
157
100
AcDbEntity
  8
0
  6
Continuous
 62
               2
100
AcDbLine
 10
229.97800376058555
 20
283.92234248257728
 30
0.0
 11
234.24663076122511
 21
284.98949923273722
 31
0.0
  0
LINE
  5
158
100
AcDbEntity
  8
0
  6
Continuous
 62
               2
100
AcDbLine
 10
190.77872644948363
 20
286.10299076631543
 30
0.0
 11
217.942716453553
 21
292.89398826733282
 31
0.0
  0
LINE
  5
159
100
AcDbEntity
  8
0
  6
Continuous
 62
               2
100
AcDbLine
 10
192.37128629350346
 20
277.67130881143777
 30
0.0
 11
190.41492301192912
 21
285.49665170372452
 31
0.0
  0
LINE
  5
15A
100
AcDbEntity
  8
0
  6
Continuous
 62
               2
100
AcDbLine
 10
192.90798294755916
 20
277.29525902464997
 30
0.0
 11
204.81012670416266
 21
278.53147752629502
 31
0.0
  0
LINE
  5
15B
100
AcDbEntity
  8
0
  6
Continuous
 62
               2
100
AcDbLine
 10
218.52962185952728
 20
294.94566797472663
 30
0.0
 11
217.942716453553
 21
292.89398826733282
 31
0.0
  0
LINE
  5
15C
100
AcDbEntity
  8
0
  6
Continuous
 62
               2
100
AcDbLine
 10
219.36978990994405
 20
295.15570998733091
 30
0.0
 11
220.85314395398905
 21
293.62159514244183
 31
0.0
  0
LINE
  5
15D
100
AcDbEntity
  8
0
  6
Continuous
 62
               2
100
AcDbLine
 10
204.93409803388579
 20
277.33789840893138
 30
0.0
 11
200.95550097600687
 21
276.92466064318745
 31
0.0
  0
LINE
  5
15E
100
AcDbEntity
  8
0
  6
Continuous
 62
               2
100
AcDbLine
 10
191.4376921418594
 20
285.79048237429583
 30
0.0
 11
207.92342004613127
 21
287.73890003077844
 31
0.0
  0
LINE
  5
15F
100
AcDbEntity
  8
0
  6
Continuous
 62
               2
100
AcDbLine
 10
191.01130651416105
 20
285.17267050761279
 30
0.0
 11
192.35429454535509
 21
279.80071838283629
 31
0.0
  0
LINE
  5
160
100
AcDbEntity
  8
0
  6
Continuous
 62
               2
100
AcDbLine
 10
208.53501802543516
 20
289.97604041047424
 30
0.0
 11
207.92342004613127
 21
287.73890003077844
 31
0.0
  0
LINE
  5
161
100
AcDbEntity
  8
0
  6
Continuous
 62
               7
100
AcDbLine
 10
230.08257905424722
 20
249.90863771839071
 30
0.0
 11
222.80651030315551
 21
279.01291272275085
 31
0.0
  0
LINE
  5
162
100
AcDbEntity
  8
0
  6
Continuous
 62
               7
100
AcDbLine
 10
219.77481499020129
 20
280.8319299105234
 30
0.0
 11
219.89608280271958
 21
280.34685866045072
 31
0.0
  0
LINE
  5
163
100
AcDbEntity
  8
0
  6
Continuous
 62
               7
100
AcDbLine
 10
234.93329155497386
 20
251.12131584357229
 30
0.0
 11
227.65722280388215
 21
280.22559084793249
 31
0.0
  0
LINE
  5
164
100
AcDbEntity
  8
0
  6
Continuous
 62
               7
100
AcDbLine
 10
229.47623999165518
 20
283.25728616088657
 30
0.0
 11
229.59750780417332
 21
282.772214910814
 31
0.0
  0
LINE
  5
165
100
AcDbEntity
  8
0
  6
Continuous
 62
               7
100
AcDbLine
 10
219.77481499020129
 20
280.8319299105234
 30
0.0
 11
229.47623999165518
 21
283.25728616088657
 31
0.0
  0
LINE
  5
166
100
AcDbEntity
  8
0
  6
Continuous
 62
               7
100
AcDbLine
 10
222.80651030315551
 20
279.01291272275085
 30
0.0
 11
227.65722280388215
 21
280.22559084793249
 31
0.0
  0
LINE
  5
167
100
AcDbEntity
  8
0
  6
Continuous
 62
               7
100
AcDbLine
 10
219.89608280271958
 20
280.34685866045072
 30
0.0
 11
222.80651030315551
 21
279.01291272275085
 31
0.0
  0
LINE
  5
168
100
AcDbEntity
  8
0
  6
Continuous
 62
               7
100
AcDbLine
 10
227.65722280388215
 20
280.22559084793249
 30
0.0
 11
229.59750780417343
 21
282.77221491081389
 31
0.0
  0
LINE
  5
169
100
AcDbEntity
  8
0
  6
Continuous
 62
               7
100
AcDbLine
 10
219.89608280271958
 20
280.34685866045072
 30
0.0
 11
229.59750780417343
 21
282.77221491081389
 31
0.0
  0
LINE
  5
16A
100
AcDbEntity
  8
0
  6
Continuous
 62
               7
100
AcDbLine
 10
230.08257905424722
 20
249.90863771839071
 30
0.0
 11
232.87173874216501
 21
249.05976303076346
 31
0.0
  0
LINE
  5
16B
100
AcDbEntity
  8
0
  6
Continuous
 62
               7
100
AcDbLine
 10
234.93329155497386
 20
251.12131584357229
 30
0.0
 11
232.87173874216501
 21
249.05976303076346
 31
0.0
  0
LINE
  5
16C
100
AcDbEntity
  8
0
  6
Continuous
 62
               7
100
AcDbLine
 10
224.50425967840977
 20
272.22191522173352
 30
0.0
 11
228.86990092906404
 21
275.37487834720582
 31
0.0
  0
LINE
  5
16D
100
AcDbEntity
  8
0
  6
Continuous
 62
               7
100
AcDbLine
 10
224.98933092848239
 20
270.28163022144275
 30
0.0
 11
229.35497217913709
 21
273.43459334691511
 31
0.0
  0
LINE
  5
16E
100
AcDbEntity
  8
0
  6
Continuous
 62
               7
100
AcDbLine
 10
225.47440217855512
 20
268.34134522115215
 30
0.0
 11
229.84004342921097
 21
271.49430834662445
 31
0.0
  0
LINE
  5
16F
100
AcDbEntity
  8
0
  6
Continuous
 62
               7
100
AcDbLine
 10
225.95947342862772
 20
266.4010602208615
 30
0.0
 11
230.32511467928359
 21
269.55402334633379
 31
0.0
  0
LINE
  5
170
100
AcDbEntity
  8
0
  6
Continuous
 62
               7
100
AcDbLine
 10
226.44454467870034
 20
264.46077522057078
 30
0.0
 11
230.81018592935629
 21
267.61373834604296
 31
0.0
  0
LINE
  5
171
100
AcDbEntity
  8
0
  6
Continuous
 62
               7
100
AcDbLine
 10
226.92961592877296
 20
262.52049022028018
 30
0.0
 11
231.29525717942892
 21
265.67345334575236
 31
0.0
  0
LINE
  5
172
100
AcDbEntity
  8
0
  6
Continuous
 62
               7
100
AcDbLine
 10
227.41468717884581
 20
260.58020521998952
 30
0.0
 11
231.78032842950154
 21
263.73316834546171
 31
0.0
  0
LINE
  5
173
100
AcDbEntity
  8
0
  6
Continuous
 62
               7
100
AcDbLine
 10
227.8997584289184
 20
258.63992021969887
 30
0.0
 11
232.26539967957416
 21
261.79288334517116
 31
0.0
  0
LINE
  5
174
100
AcDbEntity
  8
0
  6
Continuous
 62
               7
100
AcDbLine
 10
228.38482967899148
 20
256.69963521940821
 30
0.0
 11
231.00421442938568
 21
258.59141309469186
 31
0.0
  0
LINE
  5
175
100
AcDbEntity
  8
0
  6
Continuous
 62
               7
100
AcDbLine
 10
234.32695249238301
 20
251.4851192811268
 30
0.0
 11
232.31390680458153
 21
259.53730203233329
 31
0.0
  0
LINE
  5
176
100
AcDbEntity
  8
0
  6
Continuous
 62
               7
100
AcDbLine
 10
231.00421442938534
 20
258.59141309469146
 30
0.0
 11
231.76820164824974
 21
259.86472512613221
 31
0.0
  0
LINE
  5
177
100
AcDbEntity
  8
0
  6
Continuous
 62
               7
100
AcDbLine
 10
232.31390680458153
 20
259.53730203233317
 30
0.0
 11
231.76820164824974
 21
259.86472512613221
 31
0.0
  0
LINE
  5
178
100
AcDbEntity
  8
0
  6
Continuous
 62
               7
100
AcDbLine
 10
234.93329155497386
 20
251.12131584357229
 30
0.0
 11
234.32695249238301
 21
251.4851192811268
 31
0.0
  0
LINE
  5
179
100
AcDbEntity
  8
0
  6
Continuous
 62
               7
100
AcDbLine
 10
232.31390680458142
 20
259.53730203233329
 30
0.0
 11
232.75047092964689
 21
259.85259834488039
 31
0.0
  0
LINE
  5
17A
100
AcDbEntity
  8
0
  6
Continuous
 62
               2
100
AcDbLine
 10
164.23577434114361
 20
268.03596768881715
 30
0.0
 11
207.28891345749932
 21
277.00963172944535
 31
0.0
  0
LINE
  5
17B
100
AcDbEntity
  8
0
  6
Continuous
 62
               2
100
AcDbLine
 10
220.85314395398905
 20
293.62159514244183
 30
0.0
 11
290.82363559649781
 21
297.63331459292579
 31
0.0
  0
LINE
  5
17C
100
AcDbEntity
  8
0
  6
Continuous
 62
               2
100
AcDbLine
 10
290.82363559649781
 20
297.63331459292579
 30
0.0
 11
295.10779922830574
 21
300.8961265666527
 31
0.0
  0
LINE
  5
17D
100
AcDbEntity
  8
0
  6
Continuous
 62
               2
100
AcDbLine
 10
353.10927457586109
 20
313.02821019287063
 30
0.0
 11
295.10779922830574
 21
300.8961265666527
 31
0.0
  0
LINE
  5
17E
100
AcDbEntity
  8
0
  6
Continuous
 62
               2
100
AcDbLine
 10
353.10927457586109
 20
313.02821019287063
 30
0.0
 11
348.88267583111673
 21
329.93477772140284
 31
0.0
  0
LINE
  5
17F
100
AcDbEntity
  8
0
  6
Continuous
 62
               2
100
AcDbLine
 10
693.20964470808644
 20
279.42305126939391
 30
0.0
 11
679.10754872416692
 21
280.34498193032726
 31
0.0
  0
LINE
  5
180
100
AcDbEntity
  8
0
  6
Continuous
 62
               2
100
AcDbLine
 10
667.45429208250607
 20
279.84774398196697
 30
0.0
 11
651.5439550801226
 21
283.82532823256275
 31
0.0
  0
LINE
  5
181
100
AcDbEntity
  8
0
  6
Continuous
 62
               2
100
AcDbLine
 10
676.69159717829314
 20
290.17748237133276
 30
0.0
 11
667.45429208250607
 21
279.84774398196697
 31
0.0
  0
LINE
  5
182
100
AcDbEntity
  8
0
  6
Continuous
 62
               2
100
AcDbLine
 10
656.10362483080564
 20
283.92234248257728
 30
0.0
 11
651.83499783016612
 21
284.98949923273722
 31
0.0
  0
LINE
  5
183
100
AcDbEntity
  8
0
  6
Continuous
 62
               2
100
AcDbLine
 10
695.30290214190757
 20
286.10299076631543
 30
0.0
 11
668.13891213783825
 21
292.89398826733282
 31
0.0
  0
LINE
  5
184
100
AcDbEntity
  8
0
  6
Continuous
 62
               2
100
AcDbLine
 10
693.71034229788779
 20
277.67130881143777
 30
0.0
 11
695.66670557946213
 21
285.49665170372452
 31
0.0
  0
LINE
  5
185
100
AcDbEntity
  8
0
  6
Continuous
 62
               2
100
AcDbLine
 10
693.17364564383206
 20
277.29525902464997
 30
0.0
 11
681.27150188722862
 21
278.53147752629502
 31
0.0
  0
LINE
  5
186
100
AcDbEntity
  8
0
  6
Continuous
 62
               2
100
AcDbLine
 10
667.55200673186391
 20
294.94566797472663
 30
0.0
 11
668.13891213783825
 21
292.89398826733282
 31
0.0
  0
LINE
  5
187
100
AcDbEntity
  8
0
  6
Continuous
 62
               2
100
AcDbLine
 10
666.71183868144715
 20
295.15570998733091
 30
0.0
 11
665.22848463740218
 21
293.62159514244183
 31
0.0
  0
LINE
  5
188
100
AcDbEntity
  8
0
  6
Continuous
 62
               2
100
AcDbLine
 10
681.14753055750543
 20
277.33789840893138
 30
0.0
 11
685.12612761538435
 21
276.92466064318745
 31
0.0
  0
LINE
  5
189
100
AcDbEntity
  8
0
  6
Continuous
 62
               2
100
AcDbLine
 10
694.64393644953179
 20
285.79048237429583
 30
0.0
 11
678.15820854525998
 21
287.73890003077844
 31
0.0
  0
LINE
  5
18A
100
AcDbEntity
  8
0
  6
Continuous
 62
               2
100
AcDbLine
 10
695.07032207723023
 20
285.17267050761279
 30
0.0
 11
693.72733404603616
 21
279.80071838283629
 31
0.0
  0
LINE
  5
18B
100
AcDbEntity
  8
0
  6
Continuous
 62
               2
100
AcDbLine
 10
677.54661056595603
 20
289.97604041047424
 30
0.0
 11
678.15820854525998
 21
287.73890003077844
 31
0.0
  0
LINE
  5
18C
100
AcDbEntity
  8
0
  6
Continuous
 62
               7
100
AcDbLine
 10
655.99904953714395
 20
249.90863771839071
 30
0.0
 11
663.27511828823572
 21
279.01291272275085
 31
0.0
  0
LINE
  5
18D
100
AcDbEntity
  8
0
  6
Continuous
 62
               7
100
AcDbLine
 10
666.3068136011899
 20
280.8319299105234
 30
0.0
 11
666.18554578867167
 21
280.34685866045072
 31
0.0
  0
LINE
  5
18E
100
AcDbEntity
  8
0
  6
Continuous
 62
               7
100
AcDbLine
 10
651.14833703641739
 20
251.12131584357229
 30
0.0
 11
658.42440578750904
 21
280.22559084793249
 31
0.0
  0
LINE
  5
18F
100
AcDbEntity
  8
0
  6
Continuous
 62
               7
100
AcDbLine
 10
656.60538859973599
 20
283.25728616088657
 30
0.0
 11
656.48412078721788
 21
282.772214910814
 31
0.0
  0
LINE
  5
190
100
AcDbEntity
  8
0
  6
Continuous
 62
               7
100
AcDbLine
 10
666.3068136011899
 20
280.8319299105234
 30
0.0
 11
656.60538859973599
 21
283.25728616088657
 31
0.0
  0
LINE
  5
191
100
AcDbEntity
  8
0
  6
Continuous
 62
               7
100
AcDbLine
 10
663.27511828823572
 20
279.01291272275085
 30
0.0
 11
658.42440578750904
 21
280.22559084793249
 31
0.0
  0
LINE
  5
192
100
AcDbEntity
  8
0
  6
Continuous
 62
               7
100
AcDbLine
 10
666.18554578867167
 20
280.34685866045072
 30
0.0
 11
663.27511828823572
 21
279.01291272275085
 31
0.0
  0
LINE
  5
193
100
AcDbEntity
  8
0
  6
Continuous
 62
               7
100
AcDbLine
 10
658.42440578750904
 20
280.22559084793249
 30
0.0
 11
656.48412078721776
 21
282.77221491081389
 31
0.0
  0
LINE
  5
194
100
AcDbEntity
  8
0
  6
Continuous
 62
               7
100
AcDbLine
 10
666.18554578867167
 20
280.34685866045072
 30
0.0
 11
656.48412078721776
 21
282.77221491081389
 31
0.0
  0
LINE
  5
195
100
AcDbEntity
  8
0
  6
Continuous
 62
               7
100
AcDbLine
 10
655.99904953714395
 20
249.90863771839071
 30
0.0
 11
653.20988984922622
 21
249.05976303076346
 31
0.0
  0
LINE
  5
196
100
AcDbEntity
  8
0
  6
Continuous
 62
               7
100
AcDbLine
 10
651.14833703641739
 20
251.12131584357229
 30
0.0
 11
653.20988984922622
 21
249.05976303076346
 31
0.0
  0
LINE
  5
197
100
AcDbEntity
  8
0
  6
Continuous
 62
               7
100
AcDbLine
 10
661.57736891298146
 20
272.22191522173352
 30
0.0
 11
657.21172766232712
 21
275.37487834720582
 31
0.0
  0
LINE
  5
198
100
AcDbEntity
  8
0
  6
Continuous
 62
               7
100
AcDbLine
 10
661.09229766290878
 20
270.28163022144275
 30
0.0
 11
656.7266564122541
 21
273.43459334691511
 31
0.0
  0
LINE
  5
199
100
AcDbEntity
  8
0
  6
Continuous
 62
               7
100
AcDbLine
 10
660.6072264128361
 20
268.34134522115215
 30
0.0
 11
656.24158516218029
 21
271.49430834662445
 31
0.0
  0
LINE
  5
19A
100
AcDbEntity
  8
0
  6
Continuous
 62
               7
100
AcDbLine
 10
660.12215516276353
 20
266.4010602208615
 30
0.0
 11
655.75651391210761
 21
269.55402334633379
 31
0.0
  0
LINE
  5
19B
100
AcDbEntity
  8
0
  6
Continuous
 62
               7
100
AcDbLine
 10
659.63708391269085
 20
264.46077522057078
 30
0.0
 11
655.27144266203493
 21
267.61373834604296
 31
0.0
  0
LINE
  5
19C
100
AcDbEntity
  8
0
  6
Continuous
 62
               7
100
AcDbLine
 10
659.15201266261829
 20
262.52049022028018
 30
0.0
 11
654.78637141196236
 21
265.67345334575236
 31
0.0
  0
LINE
  5
19D
100
AcDbEntity
  8
0
  6
Continuous
 62
               7
100
AcDbLine
 10
658.66694141254538
 20
260.58020521998952
 30
0.0
 11
654.30130016188969
 21
263.73316834546171
 31
0.0
  0
LINE
  5
19E
100
AcDbEntity
  8
0
  6
Continuous
 62
               7
100
AcDbLine
 10
658.18187016247282
 20
258.63992021969887
 30
0.0
 11
653.81622891181701
 21
261.79288334517116
 31
0.0
  0
LINE
  5
19F
100
AcDbEntity
  8
0
  6
Continuous
 62
               7
100
AcDbLine
 10
657.6967989123998
 20
256.69963521940821
 30
0.0
 11
655.07741416200554
 21
258.59141309469186
 31
0.0
  0
LINE
  5
1A0
100
AcDbEntity
  8
0
  6
Continuous
 62
               7
100
AcDbLine
 10
651.75467609900818
 20
251.4851192811268
 30
0.0
 11
653.76772178680972
 21
259.53730203233329
 31
0.0
  0
LINE
  5
1A1
100
AcDbEntity
  8
0
  6
Continuous
 62
               7
100
AcDbLine
 10
655.07741416200588
 20
258.59141309469146
 30
0.0
 11
654.31342694314151
 21
259.86472512613221
 31
0.0
  0
LINE
  5
1A2
100
AcDbEntity
  8
0
  6
Continuous
 62
               7
100
AcDbLine
 10
653.76772178680972
 20
259.53730203233317
 30
0.0
 11
654.31342694314151
 21
259.86472512613221
 31
0.0
  0
LINE
  5
1A3
100
AcDbEntity
  8
0
  6
Continuous
 62
               7
100
AcDbLine
 10
651.14833703641739
 20
251.12131584357229
 30
0.0
 11
651.75467609900818
 21
251.4851192811268
 31
0.0
  0
LINE
  5
1A4
100
AcDbEntity
  8
0
  6
Continuous
 62
               7
100
AcDbLine
 10
653.76772178680983
 20
259.53730203233329
 30
0.0
 11
653.33115766174433
 21
259.85259834488039
 31
0.0
  0
LINE
  5
1A5
100
AcDbEntity
  8
0
  6
Continuous
 62
               2
100
AcDbLine
 10
721.84585425024761
 20
268.03596768881715
 30
0.0
 11
678.79271513389187
 21
277.00963172944535
 31
0.0
  0
LINE
  5
1A6
100
AcDbEntity
  8
0
  6
Continuous
 62
               2
100
AcDbLine
 10
665.22848463740218
 20
293.62159514244183
 30
0.0
 11
595.25799299489336
 21
297.63331459292579
 31
0.0
  0
LINE
  5
1A7
100
AcDbEntity
  8
0
  6
Continuous
 62
               2
100
AcDbLine
 10
595.25799299489336
 20
297.63331459292579
 30
0.0
 11
590.97382936308554
 21
300.8961265666527
 31
0.0
  0
LINE
  5
1A8
100
AcDbEntity
  8
0
  6
Continuous
 62
               2
100
AcDbLine
 10
532.97235401553007
 20
313.02821019287063
 30
0.0
 11
590.97382936308554
 21
300.8961265666527
 31
0.0
  0
CIRCLE
  5
1A9
100
AcDbEntity
  8
0
  6
Continuous
 62
               4
100
AcDbCircle
 10
438.960416527468
 20
375.74979431071165
 30
0.0
 40
1.5
  0
CIRCLE
  5
1AA
100
AcDbEntity
  8
0
  6
Continuous
 62
               4
100
AcDbCircle
 10
341.94616286548961
 20
351.49623089521651
 30
0.0
 40
1.5
  0
CIRCLE
  5
1AB
100
AcDbEntity
  8
0
  6
Continuous
 62
               4
100
AcDbCircle
 10
267.05491595853192
 20
278.55454526070014
 30
0.0
 40
1.5
  0
CIRCLE
  5
1AC
100
AcDbEntity
  8
0
  6
Continuous
 62
               4
100
AcDbCircle
 10
275.05324501765551
 20
292.40805756675661
 30
0.0
 40
1.5
  0
CIRCLE
  5
1AD
100
AcDbEntity
  8
0
  6
Continuous
 62
               4
100
AcDbCircle
 10
544.13547701740345
 20
351.49627606122351
 30
0.0
 40
1.5
  0
CIRCLE
  5
1AE
100
AcDbEntity
  8
0
  6
Continuous
 62
               4
100
AcDbCircle
 10
702.28242727757618
 20
311.9595384961795
 30
0.0
 40
1.5
  0
CIRCLE
  5
1AF
100
AcDbEntity
  8
0
  6
Continuous
 62
               4
100
AcDbCircle
 10
341.94615157398783
 20
351.49627606122351
 30
0.0
 40
1.5
  0
CIRCLE
  5
1B0
100
AcDbEntity
  8
0
  6
Continuous
 62
               4
100
AcDbCircle
 10
183.79920131381522
 20
311.9595384961795
 30
0.0
 40
1.5
  0
CIRCLE
  5
1B1
100
AcDbEntity
  8
0
  6
Continuous
 62
               4
100
AcDbCircle
 10
212.77945603495539
 20
255.70869292258965
 30
0.0
 40
1.5
  0
CIRCLE
  5
1B2
100
AcDbEntity
  8
0
  6
Continuous
 62
               4
100
AcDbCircle
 10
208.41381478430128
 20
273.17125792520551
 30
0.0
 40
1.5
  0
CIRCLE
  5
1B3
100
AcDbEntity
  8
0
  6
Continuous
 62
               4
100
AcDbCircle
 10
447.12121206392334
 20
375.74979431071165
 30
0.0
 40
1.5
  0
CIRCLE
  5
1B4
100
AcDbEntity
  8
0
  6
Continuous
 62
               4
100
AcDbCircle
 10
544.13546572590167
 20
351.49623089521651
 30
0.0
 40
1.5
  0
CIRCLE
  5
1B5
100
AcDbEntity
  8
0
  6
Continuous
 62
               4
100
AcDbCircle
 10
277.63342546133839
 20
296.87706118791124
 30
0.0
 40
1.5
  0
ARC
  5
1B6
100
AcDbEntity
  8
0
  6
Continuous
 62
               6
100
AcDbCircle
 10
412.49647750054299
 20
298.21635826117813
 30
0.0
 40
2.2999999523162842
100
AcDbArc
 50
14.036243467927044
 51
104.03624346792706
  0
ARC
  5
1B7
100
AcDbEntity
  8
0
  6
Continuous
 62
               6
100
AcDbCircle
 10
412.49647750054299
 20
298.21635826117813
 30
0.0
 40
4.5999999046325684
100
AcDbArc
 50
14.036243467927044
 51
104.03624346792706
  0
ARC
  5
1B8
100
AcDbEntity
  8
0
  6
Continuous
 62
               6
100
AcDbCircle
 10
372.91466330957354
 20
288.3209047134356
 30
0.0
 40
2.2999999523162842
100
AcDbArc
 50
104.03624346792706
 51
194.03624346792708
  0
ARC
  5
1B9
100
AcDbEntity
  8
0
  6
Continuous
 62
               6
100
AcDbCircle
 10
372.91466330957354
 20
288.3209047134356
 30
0.0
 40
4.5999999046325684
100
AcDbArc
 50
104.03624346792706
 51
194.03624346792708
  0
ARC
  5
1BA
100
AcDbEntity
  8
0
  6
Continuous
 62
               6
100
AcDbCircle
 10
394.93689810913287
 20
200.23196551519942
 30
0.0
 40
4.5999999046325684
100
AcDbArc
 50
194.03624346792708
 51
284.03624346792708
  0
ARC
  5
1BB
100
AcDbEntity
  8
0
  6
Continuous
 62
               6
100
AcDbCircle
 10
394.93689810913287
 20
200.23196551519942
 30
0.0
 40
2.2999999523162842
100
AcDbArc
 50
194.03624346792708
 51
284.03624346792708
  0
ARC
  5
1BC
100
AcDbEntity
  8
0
  6
Continuous
 62
               6
100
AcDbCircle
 10
434.51871230010244
 20
210.1274190629419
 30
0.0
 40
2.2999999523162842
100
AcDbArc
 50
284.03624346792708
 51
14.036243467927044
  0
ARC
  5
1BD
100
AcDbEntity
  8
0
  6
Continuous
 62
               6
100
AcDbCircle
 10
434.51871230010244
 20
210.1274190629419
 30
0.0
 40
4.5999999046325684
100
AcDbArc
 50
284.03624346792708
 51
14.036243467927044
  0
ARC
  5
1BE
100
AcDbEntity
  8
0
  6
Continuous
 62
               2
100
AcDbCircle
 10
331.82002529269374
 20
312.01234111635131
 30
0.0
 40
0.600000000000008
100
AcDbArc
 50
99.197431833586492
 51
279.19743183358742
  0
ARC
  5
1BF
100
AcDbEntity
  8
0
  6
Continuous
 62
               4
100
AcDbCircle
 10
351.65629370139794
 20
322.29479612225924
 30
0.0
 40
5.0158029760511571
100
AcDbArc
 50
140.5525943994663
 51
247.51961735290743
  0
ARC
  5
1C0
100
AcDbEntity
  8
0
  6
Continuous
 62
               7
100
AcDbCircle
 10
323.54674748639167
 20
276.98857217569605
 30
0.0
 40
30.0
100
AcDbArc
 50
358.89902864063322
 51
17.028545480801075
  0
ARC
  5
1C1
100
AcDbEntity
  8
0
  6
Continuous
 62
               2
100
AcDbCircle
 10
554.26160329869754
 20
312.01234111635131
 30
0.0
 40
0.600000000000008
100
AcDbArc
 50
260.80256816641264
 51
80.802568166413479
  0
ARC
  5
1C2
100
AcDbEntity
  8
0
  6
Continuous
 62
               4
100
AcDbCircle
 10
534.42533488999334
 20
322.29479612225924
 30
0.0
 40
5.0158029760511571
100
AcDbArc
 50
292.48038264709248
 51
39.447405600533642
  0
ARC
  5
1C3
100
AcDbEntity
  8
0
  6
Continuous
 62
               7
100
AcDbCircle
 10
562.53488110499961
 20
276.98857217569605
 30
0.0
 40
30.0
100
AcDbArc
 50
162.97145451919889
 51
181.10097135936678
  0
ARC
  5
1C4
100
AcDbEntity
  8
0
  6
Continuous
 62
               6
100
AcDbCircle
 10
473.58515109084823
 20
298.21635826117813
 30
0.0
 40
2.2999999523162842
100
AcDbArc
 50
75.963756532072864
 51
165.96375653207289
  0
ARC
  5
1C5
100
AcDbEntity
  8
0
  6
Continuous
 62
               6
100
AcDbCircle
 10
473.58515109084823
 20
298.21635826117813
 30
0.0
 40
4.5999999046325684
100
AcDbArc
 50
75.963756532072864
 51
165.96375653207289
  0
ARC
  5
1C6
100
AcDbEntity
  8
0
  6
Continuous
 62
               6
100
AcDbCircle
 10
513.16696528181774
 20
288.3209047134356
 30
0.0
 40
2.2999999523162842
100
AcDbArc
 50
345.96375653207292
 51
75.96375653207285
  0
ARC
  5
1C7
100
AcDbEntity
  8
0
  6
Continuous
 62
               6
100
AcDbCircle
 10
513.16696528181774
 20
288.3209047134356
 30
0.0
 40
4.5999999046325684
100
AcDbArc
 50
345.96375653207292
 51
75.96375653207285
  0
ARC
  5
1C8
100
AcDbEntity
  8
0
  6
Continuous
 62
               6
100
AcDbCircle
 10
491.14473048225835
 20
200.23196551519942
 30
0.0
 40
4.5999999046325684
100
AcDbArc
 50
255.96375653207289
 51
345.96375653207292
  0
ARC
  5
1C9
100
AcDbEntity
  8
0
  6
Continuous
 62
               6
100
AcDbCircle
 10
491.14473048225835
 20
200.23196551519942
 30
0.0
 40
2.2999999523162842
100
AcDbArc
 50
255.96375653207289
 51
345.96375653207292
  0
ARC
  5
1CA
100
AcDbEntity
  8
0
  6
Continuous
 62
               6
100
AcDbCircle
 10
451.5629162912889
 20
210.1274190629419
 30
0.0
 40
2.2999999523162842
100
AcDbArc
 50
165.96375653207289
 51
255.96375653207289
  0
ARC
  5
1CB
100
AcDbEntity
  8
0
  6
Continuous
 62
               6
100
AcDbCircle
 10
451.5629162912889
 20
210.1274190629419
 30
0.0
 40
4.5999999046325684
100
AcDbArc
 50
165.96375653207289
 51
255.96375653207289
  0
ARC
  5
1CC
100
AcDbEntity
  8
0
  6
Continuous
 62
               2
100
AcDbCircle
 10
206.87802594059045
 20
278.6533809772597
 30
0.0
 40
1.6943258663081291
100
AcDbArc
 50
284.03460986181801
 51
86.750072136820364
  0
ARC
  5
1CD
100
AcDbEntity
  8
0
  6
Continuous
 62
               2
100
AcDbCircle
 10
234.39215213624692
 20
284.40741373264996
 30
0.0
 40
0.600000000000001
100
AcDbArc
 50
284.03624346792685
 51
104.03624346792674
  0
ARC
  5
1CE
100
AcDbEntity
  8
0
  6
Continuous
 62
               2
100
AcDbCircle
 10
204.87211236902428
 20
277.93468796761323
 30
0.0
 40
0.599999999999997
100
AcDbArc
 50
275.92977497486766
 51
95.929774974867655
  0
ARC
  5
1CF
100
AcDbEntity
  8
0
  6
Continuous
 62
               2
100
AcDbCircle
 10
219.01033979099475
 20
294.80815335599249
 30
0.0
 40
0.5
100
AcDbArc
 50
44.036243467926766
 51
164.03624346792685
  0
ARC
  5
1D0
100
AcDbEntity
  8
0
  6
Continuous
 62
               2
100
AcDbCircle
 10
190.89999426200177
 20
285.61791951624269
 30
0.0
 40
0.5
100
AcDbArc
 50
104.03624346792672
 51
194.03624346792685
  0
ARC
  5
1D1
100
AcDbEntity
  8
0
  6
Continuous
 62
               2
100
AcDbCircle
 10
192.85632822684119
 20
277.7925836568848
 30
0.0
 40
0.5
100
AcDbArc
 50
194.03624346792685
 51
275.92977497486754
  0
ARC
  5
1D2
100
AcDbEntity
  8
0
  6
Continuous
 62
               2
100
AcDbCircle
 10
209.01731946488823
 20
289.84418700133546
 30
0.0
 40
0.5
100
AcDbArc
 50
41.804478651424077
 51
164.70987411375432
  0
ARC
  5
1D3
100
AcDbEntity
  8
0
  6
Continuous
 62
               2
100
AcDbCircle
 10
192.8393657954278
 20
279.92198619535452
 30
0.0
 40
0.5
100
AcDbArc
 50
194.03624346792674
 51
273.74041379805425
  0
ARC
  5
1D4
100
AcDbEntity
  8
0
  6
Continuous
 62
               2
100
AcDbCircle
 10
191.4963777642337
 20
285.29393832013091
 30
0.0
 40
0.5
100
AcDbArc
 50
96.74041379805395
 51
194.03624346792685
  0
ARC
  5
1D5
100
AcDbEntity
  8
0
  6
Continuous
 62
               7
100
AcDbCircle
 10
202.31944520910929
 20
249.80596974904302
 30
0.0
 40
30.0
100
AcDbArc
 50
358.89902864063401
 51
17.028545480801938
  0
ARC
  5
1D6
100
AcDbEntity
  8
0
  6
Continuous
 62
               2
100
AcDbCircle
 10
679.2036026508008
 20
278.6533809772597
 30
0.0
 40
1.6943258663081291
100
AcDbArc
 50
93.249927863179636
 51
255.96539013818196
  0
ARC
  5
1D7
100
AcDbEntity
  8
0
  6
Continuous
 62
               2
100
AcDbCircle
 10
651.68947645514436
 20
284.40741373264996
 30
0.0
 40
0.600000000000001
100
AcDbArc
 50
75.963756532073262
 51
255.96375653207315
  0
ARC
  5
1D8
100
AcDbEntity
  8
0
  6
Continuous
 62
               2
100
AcDbCircle
 10
681.20951622236691
 20
277.93468796761323
 30
0.0
 40
0.599999999999997
100
AcDbArc
 50
84.070225025132345
 51
264.07022502513234
  0
ARC
  5
1D9
100
AcDbEntity
  8
0
  6
Continuous
 62
               2
100
AcDbCircle
 10
667.07128880039647
 20
294.80815335599249
 30
0.0
 40
0.5
100
AcDbArc
 50
15.963756532073136
 51
135.96375653207329
  0
ARC
  5
1DA
100
AcDbEntity
  8
0
  6
Continuous
 62
               2
100
AcDbCircle
 10
695.18163432938945
 20
285.61791951624269
 30
0.0
 40
0.5
100
AcDbArc
 50
345.96375653207315
 51
75.963756532073262
  0
ARC
  5
1DB
100
AcDbEntity
  8
0
  6
Continuous
 62
               2
100
AcDbCircle
 10
693.22530036455009
 20
277.7925836568848
 30
0.0
 40
0.5
100
AcDbArc
 50
264.07022502513246
 51
345.96375653207315
  0
ARC
  5
1DC
100
AcDbEntity
  8
0
  6
Continuous
 62
               2
100
AcDbCircle
 10
677.06430912650296
 20
289.84418700133546
 30
0.0
 40
0.5
100
AcDbArc
 50
15.290125886245734
 51
138.19552134857591
  0
ARC
  5
1DD
100
AcDbEntity
  8
0
  6
Continuous
 62
               2
100
AcDbCircle
 10
693.24226279596337
 20
279.92198619535452
 30
0.0
 40
0.5
100
AcDbArc
 50
266.25958620194575
 51
345.96375653207326
  0
ARC
  5
1DE
100
AcDbEntity
  8
0
  6
Continuous
 62
               2
100
AcDbCircle
 10
694.58525082715755
 20
285.29393832013091
 30
0.0
 40
0.5
100
AcDbArc
 50
345.96375653207315
 51
83.259586201946036
  0
ARC
  5
1DF
100
AcDbEntity
  8
0
  6
Continuous
 62
               7
100
AcDbCircle
 10
683.76218338228193
 20
249.80596974904302
 30
0.0
 40
30.0
100
AcDbArc
 50
162.97145451919803
 51
181.10097135936601
  0
TEXT
  5
1E0
100
AcDbEntity
  8
0
 62
               7
100
AcDbText
 10
383.10520772329625
 20
363.33266532697485
 30
0.0
 40
9.600000381469739
  1
100
 50
14.03580481039711
 41
0.7695
  7
FontTableH_0
 72
               5
 11
397.07528701884371
 21
366.82507151119938
 31
0.0
100
AcDbText
  0
TEXT
  5
1E1
100
AcDbEntity
  8
0
 62
               7
100
AcDbText
 10
524.44193868032744
 20
383.00090873517797
 30
0.0
 40
8.9999997615814333
  1
棟板：屋根同材
 41
0.7695
  7
FontTableH_0
 72
               5
 11
587.4419370113975
 21
383.00090873517797
 31
0.0
100
AcDbText
  0
TEXT
  5
1E2
100
AcDbEntity
  8
0
 62
               7
100
AcDbText
 10
371.25755147329625
 20
415.62230766095922
 30
0.0
 40
8.9999997615814333
  1
硬質木片セメント板 18mm
 41
0.7695
  7
FontTableH_0
 72
               5
 11
456.27540900784106
 21
415.62230766095922
 31
0.0
100
AcDbText
  0
TEXT
  5
1E3
100
AcDbEntity
  8
0
 62
               7
100
AcDbText
 10
371.2576125084525
 20
431.62291801252172
 30
0.0
 40
8.9999997615814333
  1
アスファルトルーフィング 22kg
 41
0.7695
  7
FontTableH_0
 72
               5
 11
482.56643034386781
 21
431.62291801252172
 31
0.0
100
AcDbText
  0
TEXT
  5
1E4
100
AcDbEntity
  8
0
 62
               7
100
AcDbText
 10
590.97593526235869
 20
341.3324822215061
 30
0.0
 40
9.600000381469739
  1
割付により調整
 50
345.96378002823968
 41
0.7695
  7
FontTableH_0
 72
               5
 11
656.16952054641422
 21
325.03411430636464
 31
0.0
100
AcDbText
  0
TEXT
  5
1E5
100
AcDbEntity
  8
0
 62
               7
100
AcDbText
 10
229.9119093834525
 20
325.03408134259985
 30
0.0
 40
9.600000381469739
  1
割付により調整
 50
14.036205230237206
 41
0.7695
  7
FontTableH_0
 72
               5
 11
295.10549886088222
 21
341.33243248420609
 31
0.0
100
AcDbText
  0
TEXT
  5
1E6
100
AcDbEntity
  8
0
 62
               7
100
AcDbText
 10
210.8874953209525
 20
269.46059501447485
 30
0.0
 40
9.600000381469739
  1
18
 50
284.03625799367495
 41
0.7695
  7
FontTableH_0
 72
               5
 11
213.21583977496627
 21
260.14722723328623
 31
0.0
100
AcDbText
  0
TEXT
  5
1E7
100
AcDbEntity
  8
0
 62
               7
100
AcDbText
 10
538.73917989126494
 20
366.86522758283422
 30
0.0
 40
8.9999997615814333
  1
補強材 PL-1.6t
 41
0.7695
  7
FontTableH_0
 72
               5
 11
578.83008723738362
 21
366.86522758283422
 31
0.0
100
AcDbText
  0
TEXT
  5
1E8
100
AcDbEntity
  8
0
 62
               7
100
AcDbText
 10
489.00633077017125
 20
366.82506645002172
 30
0.0
 40
9.600000381469739
  1
100
 50
345.96418983958989
 41
0.7695
  7
FontTableH_0
 72
               5
 11
502.97640973961398
 21
363.33265896133628
 31
0.0
100
AcDbText
  0
TEXT
  5
1E9
100
AcDbEntity
  8
0
 62
               7
100
AcDbText
 10
536.62174825063994
 20
236.3891228465061
 30
0.0
 40
9.600000381469739
  1
補強プレート（別途）
 41
0.7695
  7
FontTableH_0
 72
               5
 11
632.62175206533732
 21
236.3891228465061
 31
0.0
100
AcDbText
  0
TEXT
  5
1EA
100
AcDbEntity
  8
0
 62
               7
100
AcDbText
 10
749.28679763728735
 20
26.713203554805766
 30
0.0
 40
8.9999997615814333
  1
棟詳細図 【S=1/3】
 41
0.7695
  7
FontTableH_0
 72
               5
 11
830.28679549152025
 21
26.713203554805766
 31
0.0
100
AcDbText
  0
TEXT
  5
1EB
100
AcDbEntity
  8
0
 62
               7
100
AcDbText
 10
371.25755147329625
 20
447.62236869611547
 30
0.0
 40
8.9999997615814333
  1
ハーパーズルーフ210：各種金属板
 41
0.7695
  7
FontTableH_0
 72
               5
 11
498.44872115070825
 21
447.62236869611547
 31
0.0
100
AcDbText
  0
TEXT
  5
1EC
100
AcDbEntity
  8
0
 62
               7
100
AcDbText
 10
46.392136756219159
 20
601.35786449547834
 30
0.0
 40
8.9999997615814333
  1
ハーパーズルーフ210
 41
0.7695
  7
FontTableH_0
 72
               5
 11
131.89213449124279
 21
601.35786449547834
 31
0.0
100
AcDbText
  0
ENDSEC
  0
SECTION
  2
OBJECTS
  0
DICTIONARY
  5
19
100
AcDbDictionary
  3
ACAD_GROUP
350
1A
  3
ACAD_MLINESTYLE
350
1B
  3
DWGPROPS
350
1ED
  0
DICTIONARY
  5
1A
102
{ACAD_REACTORS
330
19
102
}
100
AcDbDictionary
  0
DICTIONARY
  5
1B
102
{ACAD_REACTORS
330
19
102
}
100
AcDbDictionary
  3
STANDARD
350
1C
  0
MLINESTYLE
  5
1C
102
{ACAD_REACTORS
330
1B
102
}
100
AcDbMlineStyle
  2
Standard
 70
               0
  3

 62
               0
 51
90.0
 52
90.0
 71
               2
 49
0.5
 62
             256
  6
ByLayer
 49
-0.5
 62
             256
  6
ByLayer
  0
XRECORD
  5
1ED
100
AcDbXrecord
  1
DWGPROPS COOKIE
  2

  3

  4

  6

  7

  0
ENDSEC
  0
EOF
